ISO-10303-21;
HEADER;
FILE_DESCRIPTION (( 'STEP AP214' ),
    '1' );
FILE_NAME ('Micro_BEM-187-02.STEP',
    '2021-09-03T13:04:36',
    ( '' ),
    ( '' ),
    'SwSTEP 2.0',
    'SolidWorks 2020',
    '' );
FILE_SCHEMA (( 'AUTOMOTIVE_DESIGN' ));
ENDSEC;

DATA;
#1 = LINE ( 'NONE', #226, #37 ) ;
#2 = ORIENTED_EDGE ( 'NONE', *, *, #62, .F. ) ;
#3 = DIRECTION ( 'NONE',  ( 1.000000000000000000, 0.0000000000000000000, 0.0000000000000000000 ) ) ;
#4 = EDGE_LOOP ( 'NONE', ( #324, #27, #77, #231 ) ) ;
#5 = ORIENTED_EDGE ( 'NONE', *, *, #175, .F. ) ;
#6 = DIRECTION ( 'NONE',  ( 0.7071067811865463515, 8.659560562354916834E-17, -0.7071067811865486830 ) ) ;
#7 =( CONVERSION_BASED_UNIT ( 'INCH', #265 ) LENGTH_UNIT ( ) NAMED_UNIT ( #115 ) );
#8 = AXIS2_PLACEMENT_3D ( 'NONE', #286, #87, #237 ) ;
#9 = DIRECTION ( 'NONE',  ( 0.0000000000000000000, 0.0000000000000000000, 1.000000000000000000 ) ) ;
#10 = CIRCLE ( 'NONE', #296, 0.09365624999999999645 ) ;
#11 = DIRECTION ( 'NONE',  ( -1.224646799147353207E-16, -0.0000000000000000000, -1.000000000000000000 ) ) ;
#12 = CARTESIAN_POINT ( 'NONE',  ( 0.0000000000000000000, 0.0000000000000000000, 0.0000000000000000000 ) ) ;
#13 = CARTESIAN_POINT ( 'NONE',  ( 0.0000000000000000000, 0.0000000000000000000, 2.000000000000000000 ) ) ;
#14 = ADVANCED_FACE ( 'NONE', ( #303 ), #53, .T. ) ;
#15 =( GEOMETRIC_REPRESENTATION_CONTEXT ( 3 ) GLOBAL_UNCERTAINTY_ASSIGNED_CONTEXT ( ( #232 ) ) GLOBAL_UNIT_ASSIGNED_CONTEXT ( ( #202, #177, #69 ) ) REPRESENTATION_CONTEXT ( 'NONE', 'WORKASPACE' ) );
#16 = CIRCLE ( 'NONE', #40, 0.09365624999999999645 ) ;
#17 = CARTESIAN_POINT ( 'NONE',  ( 0.09375000000000006939, 1.148106374200644633E-17, 0.6255316826705892286 ) ) ;
#18 = CARTESIAN_POINT ( 'NONE',  ( 1.146958267826442798E-17, 0.0000000000000000000, 0.09365624999999999645 ) ) ;
#19 = CARTESIAN_POINT ( 'NONE',  ( -0.07874999999999980627, 0.0000000000000000000, 2.000000000000000000 ) ) ;
#20 = LINE ( 'NONE', #168, #66 ) ;
#21 = ORIENTED_EDGE ( 'NONE', *, *, #207, .T. ) ;
#22 = VERTEX_POINT ( 'NONE', #75 ) ;
#23 = PRODUCT_DEFINITION ( 'UNKNOWN', '', #271, #158 ) ;
#24 = MECHANICAL_DESIGN_GEOMETRIC_PRESENTATION_REPRESENTATION (  '', ( #49 ), #204 ) ;
#25 = CIRCLE ( 'NONE', #263, 0.09365624999999999645 ) ;
#26 = DIRECTION ( 'NONE',  ( -1.000000000000000000, 0.0000000000000000000, 1.224646799147352961E-16 ) ) ;
#27 = ORIENTED_EDGE ( 'NONE', *, *, #136, .T. ) ;
#28 = UNCERTAINTY_MEASURE_WITH_UNIT (LENGTH_MEASURE( 1.000000000000000082E-05 ), #76, 'distance_accuracy_value', 'NONE');
#29 =( LENGTH_UNIT ( ) NAMED_UNIT ( * ) SI_UNIT ( $, .METRE. ) );
#30 = ORIENTED_EDGE ( 'NONE', *, *, #283, .F. ) ;
#31 = ADVANCED_FACE ( 'NONE', ( #206 ), #185, .T. ) ;
#32 = AXIS2_PLACEMENT_3D ( 'NONE', #111, #82, #108 ) ;
#33 = AXIS2_PLACEMENT_3D ( 'NONE', #311, #167, #194 ) ;
#34 = DIRECTION ( 'NONE',  ( 1.000000000000000000, 0.0000000000000000000, 0.0000000000000000000 ) ) ;
#35 = VECTOR ( 'NONE', #274, 39.37007874015748143 ) ;
#36 = DIRECTION ( 'NONE',  ( -0.0000000000000000000, -0.0000000000000000000, -1.000000000000000000 ) ) ;
#37 = VECTOR ( 'NONE', #126, 39.37007874015747433 ) ;
#38 = DIRECTION ( 'NONE',  ( 1.224646799147353207E-16, 1.000000000000000000, -0.0000000000000000000 ) ) ;
#39 = FACE_OUTER_BOUND ( 'NONE', #201, .T. ) ;
#40 = AXIS2_PLACEMENT_3D ( 'NONE', #290, #68, #246 ) ;
#41 = DIRECTION ( 'NONE',  ( -1.000000000000000000, 1.224646799147352961E-16, 0.0000000000000000000 ) ) ;
#42 = DIRECTION ( 'NONE',  ( 1.224646799147353207E-16, 0.0000000000000000000, 1.000000000000000000 ) ) ;
#43 = EDGE_CURVE ( 'NONE', #282, #178, #144, .T. ) ;
#44 = DIRECTION ( 'NONE',  ( 1.000000000000000000, 0.0000000000000000000, 0.0000000000000000000 ) ) ;
#45 = VERTEX_POINT ( 'NONE', #163 ) ;
#46 = PRODUCT_CONTEXT ( 'NONE', #112, 'mechanical' ) ;
#47 = MANIFOLD_SOLID_BREP ( 'Fillet1', #219 ) ;
#48 = ORIENTED_EDGE ( 'NONE', *, *, #57, .T. ) ;
#49 = STYLED_ITEM ( 'NONE', ( #285 ), #47 ) ;
#50 = AXIS2_PLACEMENT_3D ( 'NONE', #63, #42, #314 ) ;
#51 = FILL_AREA_STYLE ('',( #229 ) ) ;
#52 = ORIENTED_EDGE ( 'NONE', *, *, #165, .T. ) ;
#53 = CYLINDRICAL_SURFACE ( 'NONE', #172, 0.09365624999999999645 ) ;
#54 = EDGE_CURVE ( 'NONE', #297, #277, #321, .T. ) ;
#55 = FACE_OUTER_BOUND ( 'NONE', #216, .T. ) ;
#56 =( NAMED_UNIT ( * ) PLANE_ANGLE_UNIT ( ) SI_UNIT ( $, .RADIAN. ) );
#57 = EDGE_CURVE ( 'NONE', #105, #252, #270, .T. ) ;
#58 = CARTESIAN_POINT ( 'NONE',  ( -0.09375000000000001388, 0.0000000000000000000, 2.000000000000000000 ) ) ;
#59 = LINE ( 'NONE', #58, #70 ) ;
#60 = STYLED_ITEM ( 'NONE', ( #258 ), #260 ) ;
#61 = CARTESIAN_POINT ( 'NONE',  ( 1.146958267826442798E-17, 0.0000000000000000000, 0.09365624999999999645 ) ) ;
#62 = EDGE_CURVE ( 'NONE', #45, #297, #86, .T. ) ;
#63 = CARTESIAN_POINT ( 'NONE',  ( 7.654042494670957853E-17, 0.0000000000000000000, 0.6250000000000000000 ) ) ;
#64 = DIRECTION ( 'NONE',  ( 1.000000000000000000, 0.0000000000000000000, 0.0000000000000000000 ) ) ;
#65 = AXIS2_PLACEMENT_3D ( 'NONE', #133, #308, #34 ) ;
#66 = VECTOR ( 'NONE', #291, 39.37007874015748143 ) ;
#67 = DIRECTION ( 'NONE',  ( -1.224646799147353207E-16, -0.0000000000000000000, -1.000000000000000000 ) ) ;
#68 = DIRECTION ( 'NONE',  ( -1.224646799147353207E-16, -0.0000000000000000000, -1.000000000000000000 ) ) ;
#69 =( NAMED_UNIT ( * ) SI_UNIT ( $, .STERADIAN. ) SOLID_ANGLE_UNIT ( ) );
#70 = VECTOR ( 'NONE', #162, 39.37007874015748143 ) ;
#71 = AXIS2_PLACEMENT_3D ( 'NONE', #317, #142, #190 ) ;
#72 = DIRECTION ( 'NONE',  ( 0.0000000000000000000, 0.0000000000000000000, -1.000000000000000000 ) ) ;
#73 = ORIENTED_EDGE ( 'NONE', *, *, #62, .T. ) ;
#74 = DIRECTION ( 'NONE',  ( 1.000000000000000000, 0.0000000000000000000, 0.0000000000000000000 ) ) ;
#75 = CARTESIAN_POINT ( 'NONE',  ( -0.09365624999999992706, 1.147532321013543253E-17, 0.6250000000000000000 ) ) ;
#76 =( CONVERSION_BASED_UNIT ( 'INCH', #223 ) LENGTH_UNIT ( ) NAMED_UNIT ( #110 ) );
#77 = ORIENTED_EDGE ( 'NONE', *, *, #140, .F. ) ;
#78 = VECTOR ( 'NONE', #186, 39.37007874015748143 ) ;
#79 = AXIS2_PLACEMENT_3D ( 'NONE', #298, #256, #74 ) ;
#80 = EDGE_LOOP ( 'NONE', ( #153, #203, #255, #230 ) ) ;
#81 = ORIENTED_EDGE ( 'NONE', *, *, #165, .F. ) ;
#82 = DIRECTION ( 'NONE',  ( -1.224646799147353207E-16, -0.0000000000000000000, -1.000000000000000000 ) ) ;
#83 = ADVANCED_FACE ( 'NONE', ( #264 ), #209, .T. ) ;
#84 = AXIS2_PLACEMENT_3D ( 'NONE', #293, #191, #120 ) ;
#85 = CARTESIAN_POINT ( 'NONE',  ( 0.0000000000000000000, 0.0000000000000000000, 2.000000000000000000 ) ) ;
#86 = LINE ( 'NONE', #160, #78 ) ;
#87 = DIRECTION ( 'NONE',  ( 0.0000000000000000000, 0.0000000000000000000, -1.000000000000000000 ) ) ;
#88 = AXIS2_PLACEMENT_3D ( 'NONE', #261, #9, #239 ) ;
#89 = AXIS2_PLACEMENT_3D ( 'NONE', #169, #275, #44 ) ;
#90 = DIRECTION ( 'NONE',  ( 0.0000000000000000000, 1.000000000000000000, 0.0000000000000000000 ) ) ;
#91 = ORIENTED_EDGE ( 'NONE', *, *, #325, .T. ) ;
#92 = DIRECTION ( 'NONE',  ( 0.0000000000000000000, 1.000000000000000000, 0.0000000000000000000 ) ) ;
#93 = ADVANCED_FACE ( 'NONE', ( #305 ), #151, .T. ) ;
#94 = DIRECTION ( 'NONE',  ( -1.000000000000000000, 0.0000000000000000000, 0.0000000000000000000 ) ) ;
#95 = CIRCLE ( 'NONE', #179, 0.09375000000000001388 ) ;
#96 = ORIENTED_EDGE ( 'NONE', *, *, #313, .T. ) ;
#97 = AXIS2_PLACEMENT_3D ( 'NONE', #130, #280, #173 ) ;
#98 = CARTESIAN_POINT ( 'NONE',  ( 0.0000000000000000000, 0.0000000000000000000, 2.000000000000000000 ) ) ;
#99 = ORIENTED_EDGE ( 'NONE', *, *, #170, .F. ) ;
#100 = ORIENTED_EDGE ( 'NONE', *, *, #140, .T. ) ;
#101 = CARTESIAN_POINT ( 'NONE',  ( 0.09365625000000001033, 1.146958267826442798E-17, 0.09365624999999996869 ) ) ;
#102 = ORIENTED_EDGE ( 'NONE', *, *, #136, .F. ) ;
#103 = EDGE_CURVE ( 'NONE', #148, #178, #59, .T. ) ;
#104 = VERTEX_POINT ( 'NONE', #187 ) ;
#105 = VERTEX_POINT ( 'NONE', #266 ) ;
#106 = APPLICATION_CONTEXT ( 'automotive_design' ) ;
#107 = SPHERICAL_SURFACE ( 'NONE', #192, 0.09365624999999999645 ) ;
#108 = DIRECTION ( 'NONE',  ( 1.000000000000000000, 0.0000000000000000000, 0.0000000000000000000 ) ) ;
#109 = AXIS2_PLACEMENT_3D ( 'NONE', #85, #36, #267 ) ;
#110 = DIMENSIONAL_EXPONENTS ( 1.000000000000000000, 0.0000000000000000000, 0.0000000000000000000, 0.0000000000000000000, 0.0000000000000000000, 0.0000000000000000000, 0.0000000000000000000 ) ;
#111 = CARTESIAN_POINT ( 'NONE',  ( 7.660553729477949085E-17, 0.0000000000000000000, 0.6255316826705892286 ) ) ;
#112 = APPLICATION_CONTEXT ( 'automotive_design' ) ;
#113 = EDGE_CURVE ( 'NONE', #105, #104, #135, .T. ) ;
#114 = FILL_AREA_STYLE ('',( #309 ) ) ;
#115 = DIMENSIONAL_EXPONENTS ( 1.000000000000000000, 0.0000000000000000000, 0.0000000000000000000, 0.0000000000000000000, 0.0000000000000000000, 0.0000000000000000000, 0.0000000000000000000 ) ;
#116 = DIRECTION ( 'NONE',  ( 0.1736481776669313581, 0.0000000000000000000, 0.9848077530122077983 ) ) ;
#117 = CONICAL_SURFACE ( 'NONE', #50, 0.09365624999999999645, 0.1745329251994338637 ) ;
#118 = CARTESIAN_POINT ( 'NONE',  ( -0.09374999999999994449, 0.0000000000000000000, 0.6255316826705892286 ) ) ;
#119 = ADVANCED_FACE ( 'NONE', ( #137 ), #243, .T. ) ;
#120 = DIRECTION ( 'NONE',  ( 1.000000000000000000, 0.0000000000000000000, -0.0000000000000000000 ) ) ;
#121 = FACE_OUTER_BOUND ( 'NONE', #254, .T. ) ;
#122 = PRODUCT_DEFINITION_SHAPE ( 'NONE', 'NONE',  #23 ) ;
#123 = DIRECTION ( 'NONE',  ( -1.000000000000000000, 0.0000000000000000000, 1.823055050827002517E-16 ) ) ;
#124 = ORIENTED_EDGE ( 'NONE', *, *, #189, .T. ) ;
#125 = DIRECTION ( 'NONE',  ( -1.224646799147353207E-16, -0.0000000000000000000, -1.000000000000000000 ) ) ;
#126 = DIRECTION ( 'NONE',  ( -0.1736481776669311639, 2.126576849575783008E-17, 0.9848077530122080203 ) ) ;
#127 = EDGE_LOOP ( 'NONE', ( #278, #181, #276, #131 ) ) ;
#128 = SURFACE_STYLE_USAGE ( .BOTH. , #154 ) ;
#129 = ORIENTED_EDGE ( 'NONE', *, *, #287, .T. ) ;
#130 = CARTESIAN_POINT ( 'NONE',  ( 7.654042494670957853E-17, 0.0000000000000000000, 0.6250000000000000000 ) ) ;
#131 = ORIENTED_EDGE ( 'NONE', *, *, #313, .F. ) ;
#132 = ADVANCED_FACE ( 'NONE', ( #55 ), #107, .T. ) ;
#133 = CARTESIAN_POINT ( 'NONE',  ( 7.654042494670957853E-17, 0.0000000000000000000, 0.6250000000000000000 ) ) ;
#134 = DIRECTION ( 'NONE',  ( 1.224646799147353207E-16, 0.0000000000000000000, 1.000000000000000000 ) ) ;
#135 = LINE ( 'NONE', #242, #292 ) ;
#136 = EDGE_CURVE ( 'NONE', #104, #282, #156, .T. ) ;
#137 = FACE_OUTER_BOUND ( 'NONE', #182, .T. ) ;
#138 = FACE_OUTER_BOUND ( 'NONE', #281, .T. ) ;
#139 = LINE ( 'NONE', #289, #306 ) ;
#140 = EDGE_CURVE ( 'NONE', #178, #282, #95, .T. ) ;
#141 = FACE_OUTER_BOUND ( 'NONE', #301, .T. ) ;
#142 = DIRECTION ( 'NONE',  ( 0.0000000000000000000, 0.0000000000000000000, 1.000000000000000000 ) ) ;
#143 = DIRECTION ( 'NONE',  ( 1.000000000000000000, 0.0000000000000000000, 0.0000000000000000000 ) ) ;
#144 = CIRCLE ( 'NONE', #32, 0.09375000000000001388 ) ;
#145 = CIRCLE ( 'NONE', #71, 0.07874999999999980627 ) ;
#146 = PRODUCT_RELATED_PRODUCT_CATEGORY ( 'part', '', ( #249 ) ) ;
#147 = ORIENTED_EDGE ( 'NONE', *, *, #54, .T. ) ;
#148 = VERTEX_POINT ( 'NONE', #217 ) ;
#149 = ORIENTED_EDGE ( 'NONE', *, *, #175, .T. ) ;
#150 = ADVANCED_FACE ( 'NONE', ( #39 ), #117, .T. ) ;
#151 = CONICAL_SURFACE ( 'NONE', #8, 0.07874999999999980627, 0.7853981633974466137 ) ;
#152 = SURFACE_STYLE_FILL_AREA ( #51 ) ;
#153 = ORIENTED_EDGE ( 'NONE', *, *, #325, .F. ) ;
#154 = SURFACE_SIDE_STYLE ('',( #152 ) ) ;
#155 = ORIENTED_EDGE ( 'NONE', *, *, #279, .T. ) ;
#156 = LINE ( 'NONE', #318, #240 ) ;
#157 = COLOUR_RGB ( '',0.7921568627450980005, 0.8196078431372548767, 0.9333333333333333481 ) ;
#158 = PRODUCT_DEFINITION_CONTEXT ( 'detailed design', #106, 'design' ) ;
#159 = CIRCLE ( 'NONE', #33, 0.09365624999999999645 ) ;
#160 = CARTESIAN_POINT ( 'NONE',  ( 0.09365624999999999645, 1.146958267826442798E-17, -1.146958267826442798E-17 ) ) ;
#161 =( LENGTH_UNIT ( ) NAMED_UNIT ( * ) SI_UNIT ( $, .METRE. ) );
#162 = DIRECTION ( 'NONE',  ( -0.0000000000000000000, -0.0000000000000000000, -1.000000000000000000 ) ) ;
#163 = CARTESIAN_POINT ( 'NONE',  ( 0.09365625000000006584, 0.0000000000000000000, 0.6250000000000000000 ) ) ;
#164 = DIRECTION ( 'NONE',  ( 1.224646799147353207E-16, 0.0000000000000000000, 1.000000000000000000 ) ) ;
#165 = EDGE_CURVE ( 'NONE', #22, #277, #248, .T. ) ;
#166 = CARTESIAN_POINT ( 'NONE',  ( 7.660553729477949085E-17, 0.0000000000000000000, 0.6255316826705892286 ) ) ;
#167 = DIRECTION ( 'NONE',  ( 0.0000000000000000000, -1.000000000000000000, 0.0000000000000000000 ) ) ;
#168 = CARTESIAN_POINT ( 'NONE',  ( -0.07874999999999980627, 0.0000000000000000000, 2.000000000000000000 ) ) ;
#169 = CARTESIAN_POINT ( 'NONE',  ( 0.0000000000000000000, 0.0000000000000000000, 1.984999999999999654 ) ) ;
#170 = EDGE_CURVE ( 'NONE', #252, #148, #20, .T. ) ;
#171 =( NAMED_UNIT ( * ) PLANE_ANGLE_UNIT ( ) SI_UNIT ( $, .RADIAN. ) );
#172 = AXIS2_PLACEMENT_3D ( 'NONE', #233, #125, #26 ) ;
#173 = DIRECTION ( 'NONE',  ( -1.000000000000000000, 0.0000000000000000000, 0.0000000000000000000 ) ) ;
#174 = ORIENTED_EDGE ( 'NONE', *, *, #210, .F. ) ;
#175 = EDGE_CURVE ( 'NONE', #316, #297, #159, .T. ) ;
#176 = EDGE_LOOP ( 'NONE', ( #2, #155, #52, #124 ) ) ;
#177 =( NAMED_UNIT ( * ) PLANE_ANGLE_UNIT ( ) SI_UNIT ( $, .RADIAN. ) );
#178 = VERTEX_POINT ( 'NONE', #118 ) ;
#179 = AXIS2_PLACEMENT_3D ( 'NONE', #166, #67, #143 ) ;
#180 = APPLICATION_PROTOCOL_DEFINITION ( 'draft international standard', 'automotive_design', 1998, #106 ) ;
#181 = ORIENTED_EDGE ( 'NONE', *, *, #207, .F. ) ;
#182 = EDGE_LOOP ( 'NONE', ( #129, #73, #147, #81 ) ) ;
#183 = SURFACE_STYLE_FILL_AREA ( #114 ) ;
#184 = MECHANICAL_DESIGN_GEOMETRIC_PRESENTATION_REPRESENTATION (  '', ( #60 ), #15 ) ;
#185 = CYLINDRICAL_SURFACE ( 'NONE', #109, 0.09375000000000001388 ) ;
#186 = DIRECTION ( 'NONE',  ( -1.224646799147353207E-16, -0.0000000000000000000, -1.000000000000000000 ) ) ;
#187 = CARTESIAN_POINT ( 'NONE',  ( 0.09375000000000001388, 1.148106374200643863E-17, 1.984999999999999654 ) ) ;
#188 = SURFACE_STYLE_USAGE ( .BOTH. , #236 ) ;
#189 = EDGE_CURVE ( 'NONE', #277, #297, #25, .T. ) ;
#190 = DIRECTION ( 'NONE',  ( 1.000000000000000000, 0.0000000000000000000, 0.0000000000000000000 ) ) ;
#191 = DIRECTION ( 'NONE',  ( 0.0000000000000000000, 0.0000000000000000000, 1.000000000000000000 ) ) ;
#192 = AXIS2_PLACEMENT_3D ( 'NONE', #18, #90, #268 ) ;
#193 = CIRCLE ( 'NONE', #97, 0.09365624999999999645 ) ;
#194 = DIRECTION ( 'NONE',  ( 0.0000000000000000000, 0.0000000000000000000, -1.000000000000000000 ) ) ;
#195 = DIRECTION ( 'NONE',  ( -1.000000000000000000, 0.0000000000000000000, 0.0000000000000000000 ) ) ;
#196 = ADVANCED_FACE ( 'NONE', ( #121 ), #269, .T. ) ;
#197 = LENGTH_MEASURE_WITH_UNIT ( LENGTH_MEASURE( 0.02539999999999999897 ), #29 );
#198 = ORIENTED_EDGE ( 'NONE', *, *, #287, .F. ) ;
#199 = ORIENTED_EDGE ( 'NONE', *, *, #113, .T. ) ;
#200 = CARTESIAN_POINT ( 'NONE',  ( 1.720437401739664274E-17, 0.0000000000000000000, 0.0000000000000000000 ) ) ;
#201 = EDGE_LOOP ( 'NONE', ( #198, #91, #100, #299 ) ) ;
#202 =( CONVERSION_BASED_UNIT ( 'INCH', #197 ) LENGTH_UNIT ( ) NAMED_UNIT ( #294 ) );
#203 = ORIENTED_EDGE ( 'NONE', *, *, #279, .F. ) ;
#204 =( GEOMETRIC_REPRESENTATION_CONTEXT ( 3 ) GLOBAL_UNCERTAINTY_ASSIGNED_CONTEXT ( ( #213 ) ) GLOBAL_UNIT_ASSIGNED_CONTEXT ( ( #7, #56, #211 ) ) REPRESENTATION_CONTEXT ( 'NONE', 'WORKASPACE' ) );
#205 = AXIS2_PLACEMENT_3D ( 'NONE', #98, #247, #195 ) ;
#206 = FACE_OUTER_BOUND ( 'NONE', #4, .T. ) ;
#207 = EDGE_CURVE ( 'NONE', #252, #105, #145, .T. ) ;
#208 = CARTESIAN_POINT ( 'NONE',  ( 1.146958267826442798E-17, 0.0000000000000000000, 0.09365624999999999645 ) ) ;
#209 = CONICAL_SURFACE ( 'NONE', #65, 0.09365624999999999645, 0.1745329251994338637 ) ;
#210 = EDGE_CURVE ( 'NONE', #316, #277, #10, .T. ) ;
#211 =( NAMED_UNIT ( * ) SI_UNIT ( $, .STERADIAN. ) SOLID_ANGLE_UNIT ( ) );
#212 = DIRECTION ( 'NONE',  ( -1.000000000000000000, 0.0000000000000000000, 1.224646799147352961E-16 ) ) ;
#213 = UNCERTAINTY_MEASURE_WITH_UNIT (LENGTH_MEASURE( 1.000000000000000082E-05 ), #7, 'distance_accuracy_value', 'NONE');
#214 = AXIS2_PLACEMENT_3D ( 'NONE', #253, #72, #3 ) ;
#215 = CARTESIAN_POINT ( 'NONE',  ( -0.09365624999999996869, 0.0000000000000000000, 0.09365625000000001033 ) ) ;
#216 = EDGE_LOOP ( 'NONE', ( #174, #149, #224 ) ) ;
#217 = CARTESIAN_POINT ( 'NONE',  ( -0.09375000000000001388, 0.0000000000000000000, 1.984999999999999654 ) ) ;
#218 = FACE_OUTER_BOUND ( 'NONE', #228, .T. ) ;
#219 = CLOSED_SHELL ( 'NONE', ( #196, #119, #150, #220, #31, #251, #238, #93, #83, #14, #132 ) ) ;
#220 = ADVANCED_FACE ( 'NONE', ( #141 ), #322, .T. ) ;
#221 = CARTESIAN_POINT ( 'NONE',  ( 1.146958267826442798E-17, 0.0000000000000000000, 0.09365624999999999645 ) ) ;
#222 = DIRECTION ( 'NONE',  ( -0.0000000000000000000, -0.0000000000000000000, -1.000000000000000000 ) ) ;
#223 = LENGTH_MEASURE_WITH_UNIT ( LENGTH_MEASURE( 0.02539999999999999897 ), #300 );
#224 = ORIENTED_EDGE ( 'NONE', *, *, #189, .F. ) ;
#225 = COLOUR_RGB ( '',0.7921568627450980005, 0.8196078431372548767, 0.9333333333333333481 ) ;
#226 = CARTESIAN_POINT ( 'NONE',  ( -0.09365624999999992706, 1.146958267826442798E-17, 0.6250000000000000000 ) ) ;
#227 = CIRCLE ( 'NONE', #89, 0.09375000000000001388 ) ;
#228 = EDGE_LOOP ( 'NONE', ( #102, #96, #312, #259 ) ) ;
#229 = FILL_AREA_STYLE_COLOUR ( '', #157 ) ;
#230 = ORIENTED_EDGE ( 'NONE', *, *, #43, .T. ) ;
#231 = ORIENTED_EDGE ( 'NONE', *, *, #103, .F. ) ;
#232 = UNCERTAINTY_MEASURE_WITH_UNIT (LENGTH_MEASURE( 1.000000000000000082E-05 ), #202, 'distance_accuracy_value', 'NONE');
#233 = CARTESIAN_POINT ( 'NONE',  ( 0.0000000000000000000, 0.0000000000000000000, 0.0000000000000000000 ) ) ;
#234 = AXIS2_PLACEMENT_3D ( 'NONE', #208, #134, #307 ) ;
#235 = AXIS2_PLACEMENT_3D ( 'NONE', #13, #315, #94 ) ;
#236 = SURFACE_SIDE_STYLE ('',( #183 ) ) ;
#237 = DIRECTION ( 'NONE',  ( -1.000000000000000000, 0.0000000000000000000, 0.0000000000000000000 ) ) ;
#238 = ADVANCED_FACE ( 'NONE', ( #138 ), #295, .T. ) ;
#239 = DIRECTION ( 'NONE',  ( 1.000000000000000000, 0.0000000000000000000, 0.0000000000000000000 ) ) ;
#240 = VECTOR ( 'NONE', #222, 39.37007874015748143 ) ;
#241 =( GEOMETRIC_REPRESENTATION_CONTEXT ( 3 ) GLOBAL_UNCERTAINTY_ASSIGNED_CONTEXT ( ( #28 ) ) GLOBAL_UNIT_ASSIGNED_CONTEXT ( ( #76, #171, #323 ) ) REPRESENTATION_CONTEXT ( 'NONE', 'WORKASPACE' ) );
#242 = CARTESIAN_POINT ( 'NONE',  ( 0.07874999999999980627, 9.644093543285380530E-18, 2.000000000000000000 ) ) ;
#243 = CYLINDRICAL_SURFACE ( 'NONE', #310, 0.09365624999999999645 ) ;
#244 = CYLINDRICAL_SURFACE ( 'NONE', #235, 0.09375000000000001388 ) ;
#245 = CIRCLE ( 'NONE', #214, 0.09375000000000001388 ) ;
#246 = DIRECTION ( 'NONE',  ( -1.000000000000000000, 0.0000000000000000000, 0.0000000000000000000 ) ) ;
#247 = DIRECTION ( 'NONE',  ( 0.0000000000000000000, 0.0000000000000000000, -1.000000000000000000 ) ) ;
#248 = LINE ( 'NONE', #250, #35 ) ;
#249 = PRODUCT ( 'Micro_BEM-187-02', 'Micro_BEM-187-02', '', ( #46 ) ) ;
#250 = CARTESIAN_POINT ( 'NONE',  ( -0.09365624999999999645, 0.0000000000000000000, 1.146958267826442798E-17 ) ) ;
#251 = ADVANCED_FACE ( 'NONE', ( #218 ), #244, .T. ) ;
#252 = VERTEX_POINT ( 'NONE', #19 ) ;
#253 = CARTESIAN_POINT ( 'NONE',  ( 0.0000000000000000000, 0.0000000000000000000, 1.984999999999999654 ) ) ;
#254 = EDGE_LOOP ( 'NONE', ( #5, #257, #320 ) ) ;
#255 = ORIENTED_EDGE ( 'NONE', *, *, #273, .T. ) ;
#256 = DIRECTION ( 'NONE',  ( 0.0000000000000000000, 0.0000000000000000000, 1.000000000000000000 ) ) ;
#257 = ORIENTED_EDGE ( 'NONE', *, *, #210, .T. ) ;
#258 = PRESENTATION_STYLE_ASSIGNMENT (( #128 ) ) ;
#259 = ORIENTED_EDGE ( 'NONE', *, *, #43, .F. ) ;
#260 = ADVANCED_BREP_SHAPE_REPRESENTATION ( 'Micro_BEM-187-02', ( #47, #79 ), #241 ) ;
#261 = CARTESIAN_POINT ( 'NONE',  ( 0.0000000000000000000, 0.0000000000000000000, 2.000000000000000000 ) ) ;
#262 = PRESENTATION_LAYER_ASSIGNMENT (  '', '', ( #49 ) ) ;
#263 = AXIS2_PLACEMENT_3D ( 'NONE', #221, #164, #123 ) ;
#264 = FACE_OUTER_BOUND ( 'NONE', #80, .T. ) ;
#265 = LENGTH_MEASURE_WITH_UNIT ( LENGTH_MEASURE( 0.02539999999999999897 ), #161 );
#266 = CARTESIAN_POINT ( 'NONE',  ( 0.07874999999999980627, 1.056257864264590573E-17, 2.000000000000000000 ) ) ;
#267 = DIRECTION ( 'NONE',  ( -1.000000000000000000, 0.0000000000000000000, 0.0000000000000000000 ) ) ;
#268 = DIRECTION ( 'NONE',  ( 1.000000000000000000, 0.0000000000000000000, 0.0000000000000000000 ) ) ;
#269 = SPHERICAL_SURFACE ( 'NONE', #288, 0.09365624999999999645 ) ;
#270 = CIRCLE ( 'NONE', #88, 0.07874999999999980627 ) ;
#271 = PRODUCT_DEFINITION_FORMATION_WITH_SPECIFIED_SOURCE ( 'ANY', '', #249, .NOT_KNOWN. ) ;
#272 = CARTESIAN_POINT ( 'NONE',  ( 1.146958267826442798E-17, 0.0000000000000000000, 0.09365624999999999645 ) ) ;
#273 = EDGE_CURVE ( 'NONE', #45, #282, #139, .T. ) ;
#274 = DIRECTION ( 'NONE',  ( -1.224646799147353207E-16, -0.0000000000000000000, -1.000000000000000000 ) ) ;
#275 = DIRECTION ( 'NONE',  ( 0.0000000000000000000, 0.0000000000000000000, -1.000000000000000000 ) ) ;
#276 = ORIENTED_EDGE ( 'NONE', *, *, #170, .T. ) ;
#277 = VERTEX_POINT ( 'NONE', #215 ) ;
#278 = ORIENTED_EDGE ( 'NONE', *, *, #113, .F. ) ;
#279 = EDGE_CURVE ( 'NONE', #45, #22, #16, .T. ) ;
#280 = DIRECTION ( 'NONE',  ( -1.224646799147353207E-16, -0.0000000000000000000, -1.000000000000000000 ) ) ;
#281 = EDGE_LOOP ( 'NONE', ( #21, #48 ) ) ;
#282 = VERTEX_POINT ( 'NONE', #17 ) ;
#283 = EDGE_CURVE ( 'NONE', #148, #104, #227, .T. ) ;
#284 = PRESENTATION_LAYER_ASSIGNMENT (  '', '', ( #60 ) ) ;
#285 = PRESENTATION_STYLE_ASSIGNMENT (( #188 ) ) ;
#286 = CARTESIAN_POINT ( 'NONE',  ( 0.0000000000000000000, 0.0000000000000000000, 2.000000000000000000 ) ) ;
#287 = EDGE_CURVE ( 'NONE', #22, #45, #193, .T. ) ;
#288 = AXIS2_PLACEMENT_3D ( 'NONE', #61, #92, #64 ) ;
#289 = CARTESIAN_POINT ( 'NONE',  ( 0.09365625000000006584, 0.0000000000000000000, 0.6250000000000000000 ) ) ;
#290 = CARTESIAN_POINT ( 'NONE',  ( 7.654042494670957853E-17, 0.0000000000000000000, 0.6250000000000000000 ) ) ;
#291 = DIRECTION ( 'NONE',  ( -0.7071067811865463515, 0.0000000000000000000, -0.7071067811865486830 ) ) ;
#292 = VECTOR ( 'NONE', #6, 39.37007874015748143 ) ;
#293 = CARTESIAN_POINT ( 'NONE',  ( 0.0000000000000000000, 0.0000000000000000000, 2.000000000000000000 ) ) ;
#294 = DIMENSIONAL_EXPONENTS ( 1.000000000000000000, 0.0000000000000000000, 0.0000000000000000000, 0.0000000000000000000, 0.0000000000000000000, 0.0000000000000000000, 0.0000000000000000000 ) ;
#295 = PLANE ( 'NONE',  #84 ) ;
#296 = AXIS2_PLACEMENT_3D ( 'NONE', #272, #38, #41 ) ;
#297 = VERTEX_POINT ( 'NONE', #101 ) ;
#298 = CARTESIAN_POINT ( 'NONE',  ( 0.0000000000000000000, 0.0000000000000000000, 0.0000000000000000000 ) ) ;
#299 = ORIENTED_EDGE ( 'NONE', *, *, #273, .F. ) ;
#300 =( LENGTH_UNIT ( ) NAMED_UNIT ( * ) SI_UNIT ( $, .METRE. ) );
#301 = EDGE_LOOP ( 'NONE', ( #304, #199, #30, #99 ) ) ;
#302 = APPLICATION_PROTOCOL_DEFINITION ( 'draft international standard', 'automotive_design', 1998, #112 ) ;
#303 = FACE_OUTER_BOUND ( 'NONE', #176, .T. ) ;
#304 = ORIENTED_EDGE ( 'NONE', *, *, #57, .F. ) ;
#305 = FACE_OUTER_BOUND ( 'NONE', #127, .T. ) ;
#306 = VECTOR ( 'NONE', #116, 39.37007874015748143 ) ;
#307 = DIRECTION ( 'NONE',  ( -1.000000000000000000, 0.0000000000000000000, 1.823055050827002517E-16 ) ) ;
#308 = DIRECTION ( 'NONE',  ( 1.224646799147353207E-16, 0.0000000000000000000, 1.000000000000000000 ) ) ;
#309 = FILL_AREA_STYLE_COLOUR ( '', #225 ) ;
#310 = AXIS2_PLACEMENT_3D ( 'NONE', #12, #11, #212 ) ;
#311 = CARTESIAN_POINT ( 'NONE',  ( 1.146958267826442798E-17, 0.0000000000000000000, 0.09365624999999999645 ) ) ;
#312 = ORIENTED_EDGE ( 'NONE', *, *, #103, .T. ) ;
#313 = EDGE_CURVE ( 'NONE', #104, #148, #245, .T. ) ;
#314 = DIRECTION ( 'NONE',  ( 1.000000000000000000, 0.0000000000000000000, 0.0000000000000000000 ) ) ;
#315 = DIRECTION ( 'NONE',  ( -0.0000000000000000000, -0.0000000000000000000, -1.000000000000000000 ) ) ;
#316 = VERTEX_POINT ( 'NONE', #200 ) ;
#317 = CARTESIAN_POINT ( 'NONE',  ( 0.0000000000000000000, 0.0000000000000000000, 2.000000000000000000 ) ) ;
#318 = CARTESIAN_POINT ( 'NONE',  ( 0.09375000000000001388, 1.148106374200643863E-17, 2.000000000000000000 ) ) ;
#319 = SHAPE_DEFINITION_REPRESENTATION ( #122, #260 ) ;
#320 = ORIENTED_EDGE ( 'NONE', *, *, #54, .F. ) ;
#321 = CIRCLE ( 'NONE', #234, 0.09365624999999999645 ) ;
#322 = CONICAL_SURFACE ( 'NONE', #205, 0.07874999999999980627, 0.7853981633974466137 ) ;
#323 =( NAMED_UNIT ( * ) SI_UNIT ( $, .STERADIAN. ) SOLID_ANGLE_UNIT ( ) );
#324 = ORIENTED_EDGE ( 'NONE', *, *, #283, .T. ) ;
#325 = EDGE_CURVE ( 'NONE', #22, #178, #1, .T. ) ;
ENDSEC;
END-ISO-10303-21;
