ISO-10303-21;
HEADER;
FILE_DESCRIPTION (( 'STEP AP214' ),
    '1' );
FILE_NAME ('59784.STEP',
    '2023-07-24T15:57:44',
    ( '' ),
    ( '' ),
    'SwSTEP 2.0',
    'SolidWorks 2023',
    '' );
FILE_SCHEMA (( 'AUTOMOTIVE_DESIGN' ));
ENDSEC;

DATA;
#1 = SURFACE_STYLE_USAGE ( .BOTH. , #160 ) ;
#2 = CARTESIAN_POINT ( 'NONE',  ( -4.408728476930469278E-15, 124.9999999999999858, 0.000000000000000000 ) ) ;
#3 = PRESENTATION_STYLE_ASSIGNMENT (( #200 ) ) ;
#4 = STYLED_ITEM ( 'NONE', ( #182 ), #145 ) ;
#5 = ORIENTED_EDGE ( 'NONE', *, *, #98, .F. ) ;
#6 = CARTESIAN_POINT ( 'NONE',  ( 9.999999999999996447, 124.9999999999999858, 1.224646799147353454E-15 ) ) ;
#7 = CYLINDRICAL_SURFACE ( 'NONE', #105, 10.00000000000000000 ) ;
#8 = AXIS2_PLACEMENT_3D ( 'NONE', #11, #258, #55 ) ;
#9 = ORIENTED_EDGE ( 'NONE', *, *, #121, .T. ) ;
#10 = CARTESIAN_POINT ( 'NONE',  ( 10.00000000000000000, 124.9999999999999858, 1.224646799147353651E-15 ) ) ;
#11 = CARTESIAN_POINT ( 'NONE',  ( -4.408728476930469278E-15, 124.9999999999999858, 0.000000000000000000 ) ) ;
#12 = EDGE_CURVE ( 'NONE', #65, #93, #122, .T. ) ;
#13 = CIRCLE ( 'NONE', #175, 10.00000000000000000 ) ;
#14 = CARTESIAN_POINT ( 'NONE',  ( 1.224646799147353256E-15, 0.000000000000000000, 10.00000000000000000 ) ) ;
#15 = PRODUCT_DEFINITION ( 'UNKNOWN', '', #177, #115 ) ;
#16 = CARTESIAN_POINT ( 'NONE',  ( 10.00000000000000000, 124.9999999999999858, 0.000000000000000000 ) ) ;
#17 = ADVANCED_BREP_SHAPE_REPRESENTATION ( '59784', ( #42, #45, #88 ), #137 ) ;
#18 = CARTESIAN_POINT ( 'NONE',  ( 0.000000000000000000, 0.000000000000000000, 0.000000000000000000 ) ) ;
#19 = MECHANICAL_DESIGN_GEOMETRIC_PRESENTATION_REPRESENTATION (  '', ( #96 ), #196 ) ;
#20 = DIRECTION ( 'NONE',  ( -1.000000000000000000, 0.000000000000000000, 0.000000000000000000 ) ) ;
#21 = CIRCLE ( 'NONE', #8, 10.00000000000000533 ) ;
#22 = PLANE ( 'NONE',  #119 ) ;
#23 = ORIENTED_EDGE ( 'NONE', *, *, #261, .F. ) ;
#24 = DIRECTION ( 'NONE',  ( 0.000000000000000000, 0.000000000000000000, -1.000000000000000000 ) ) ;
#25 = APPLICATION_CONTEXT ( 'automotive_design' ) ;
#26 = COLOUR_RGB ( '',0.7921568627450980005, 0.8196078431372548767, 0.9333333333333333481 ) ;
#27 = AXIS2_PLACEMENT_3D ( 'NONE', #262, #270, #62 ) ;
#28 = SURFACE_STYLE_USAGE ( .BOTH. , #69 ) ;
#29 = UNCERTAINTY_MEASURE_WITH_UNIT (LENGTH_MEASURE( 1.000000000000000082E-05 ), #278, 'distance_accuracy_value', 'NONE');
#30 = ORIENTED_EDGE ( 'NONE', *, *, #121, .F. ) ;
#31 = SURFACE_STYLE_FILL_AREA ( #172 ) ;
#32 = ORIENTED_EDGE ( 'NONE', *, *, #281, .T. ) ;
#33 = STYLED_ITEM ( 'NONE', ( #81 ), #219 ) ;
#34 = EDGE_LOOP ( 'NONE', ( #95, #227, #136, #5 ) ) ;
#35 =( NAMED_UNIT ( * ) SI_UNIT ( $, .STERADIAN. ) SOLID_ANGLE_UNIT ( ) );
#36 = SURFACE_STYLE_USAGE ( .BOTH. , #195 ) ;
#37 = COLOUR_RGB ( '',1.000000000000000000, 0.000000000000000000, 0.000000000000000000 ) ;
#38 = DIRECTION ( 'NONE',  ( 1.000000000000000000, 5.878304635907293472E-17, 0.000000000000000000 ) ) ;
#39 = DIRECTION ( 'NONE',  ( -0.000000000000000000, -1.000000000000000000, -0.000000000000000000 ) ) ;
#40 = PRESENTATION_LAYER_ASSIGNMENT (  '', '', ( #33 ) ) ;
#41 = PRESENTATION_STYLE_ASSIGNMENT (( #1 ) ) ;
#42 = MANIFOLD_SOLID_BREP ( 'Revolve - Cutting Edge', #229 ) ;
#43 =( LENGTH_UNIT ( ) NAMED_UNIT ( * ) SI_UNIT ( .MILLI., .METRE. ) );
#44 = CIRCLE ( 'NONE', #231, 10.00000000000000000 ) ;
#45 = MANIFOLD_SOLID_BREP ( 'Revolve - Tool Body (Straight Shanked)', #75 ) ;
#46 = ORIENTED_EDGE ( 'NONE', *, *, #156, .T. ) ;
#47 = CARTESIAN_POINT ( 'NONE',  ( 1.224646799147353256E-15, 0.000000000000000000, 10.00000000000000000 ) ) ;
#48 = PRODUCT_CONTEXT ( 'NONE', #163, 'mechanical' ) ;
#49 = ORIENTED_EDGE ( 'NONE', *, *, #58, .T. ) ;
#50 = PLANE ( 'NONE',  #238 ) ;
#51 = ADVANCED_FACE ( 'NONE', ( #220 ), #286, .T. ) ;
#52 = AXIS2_PLACEMENT_3D ( 'NONE', #166, #259, #20 ) ;
#53 = VECTOR ( 'NONE', #139, 1000.000000000000000 ) ;
#54 = AXIS2_PLACEMENT_3D ( 'NONE', #235, #39, #77 ) ;
#55 = DIRECTION ( 'NONE',  ( -1.000000000000000000, 0.000000000000000000, 0.000000000000000000 ) ) ;
#56 = CARTESIAN_POINT ( 'NONE',  ( 0.000000000000000000, 50.00000000000000000, -10.00000000000000000 ) ) ;
#57 =( NAMED_UNIT ( * ) PLANE_ANGLE_UNIT ( ) SI_UNIT ( $, .RADIAN. ) );
#58 = EDGE_CURVE ( 'NONE', #84, #176, #142, .T. ) ;
#59 = FILL_AREA_STYLE ('',( #153 ) ) ;
#60 = DIRECTION ( 'NONE',  ( -5.878304635907293472E-17, 1.000000000000000000, -0.000000000000000000 ) ) ;
#61 =( GEOMETRIC_REPRESENTATION_CONTEXT ( 3 ) GLOBAL_UNCERTAINTY_ASSIGNED_CONTEXT ( ( #113 ) ) GLOBAL_UNIT_ASSIGNED_CONTEXT ( ( #288, #206, #109 ) ) REPRESENTATION_CONTEXT ( 'NONE', 'WORKASPACE' ) );
#62 = DIRECTION ( 'NONE',  ( -1.000000000000000000, 0.000000000000000000, 0.000000000000000000 ) ) ;
#63 =( LENGTH_UNIT ( ) NAMED_UNIT ( * ) SI_UNIT ( .MILLI., .METRE. ) );
#64 = UNCERTAINTY_MEASURE_WITH_UNIT (LENGTH_MEASURE( 1.000000000000000082E-05 ), #43, 'distance_accuracy_value', 'NONE');
#65 = VERTEX_POINT ( 'NONE', #56 ) ;
#66 = DIRECTION ( 'NONE',  ( -0.000000000000000000, -1.000000000000000000, -0.000000000000000000 ) ) ;
#67 = PRESENTATION_LAYER_ASSIGNMENT (  '', '', ( #257 ) ) ;
#68 = PRODUCT ( '59784', '59784', '', ( #48 ) ) ;
#69 = SURFACE_SIDE_STYLE ('',( #274 ) ) ;
#70 = DIRECTION ( 'NONE',  ( -0.000000000000000000, -1.000000000000000000, -0.000000000000000000 ) ) ;
#71 = ADVANCED_FACE ( 'NONE', ( #236 ), #50, .F. ) ;
#72 = SURFACE_STYLE_USAGE ( .BOTH. , #85 ) ;
#73 = ORIENTED_EDGE ( 'NONE', *, *, #91, .F. ) ;
#74 = UNCERTAINTY_MEASURE_WITH_UNIT (LENGTH_MEASURE( 1.000000000000000082E-05 ), #240, 'distance_accuracy_value', 'NONE');
#75 = CLOSED_SHELL ( 'NONE', ( #51, #71, #164, #152 ) ) ;
#76 = VECTOR ( 'NONE', #138, 1000.000000000000000 ) ;
#77 = DIRECTION ( 'NONE',  ( 0.000000000000000000, 0.000000000000000000, -1.000000000000000000 ) ) ;
#78 = FACE_OUTER_BOUND ( 'NONE', #247, .T. ) ;
#79 =( GEOMETRIC_REPRESENTATION_CONTEXT ( 3 ) GLOBAL_UNCERTAINTY_ASSIGNED_CONTEXT ( ( #74 ) ) GLOBAL_UNIT_ASSIGNED_CONTEXT ( ( #240, #244, #181 ) ) REPRESENTATION_CONTEXT ( 'NONE', 'WORKASPACE' ) );
#80 = DIRECTION ( 'NONE',  ( 5.878304635907293472E-17, -1.000000000000000000, 0.000000000000000000 ) ) ;
#81 = PRESENTATION_STYLE_ASSIGNMENT (( #72 ) ) ;
#82 = CARTESIAN_POINT ( 'NONE',  ( 0.000000000000000000, 0.000000000000000000, 0.000000000000000000 ) ) ;
#83 = DIRECTION ( 'NONE',  ( 0.000000000000000000, 0.000000000000000000, -1.000000000000000000 ) ) ;
#84 = VERTEX_POINT ( 'NONE', #47 ) ;
#85 = SURFACE_SIDE_STYLE ('',( #133 ) ) ;
#86 = PRESENTATION_LAYER_ASSIGNMENT (  '', '', ( #4 ) ) ;
#87 = CARTESIAN_POINT ( 'NONE',  ( 0.000000000000000000, 50.00000000000000000, 0.000000000000000000 ) ) ;
#88 = AXIS2_PLACEMENT_3D ( 'NONE', #272, #183, #267 ) ;
#89 = ORIENTED_EDGE ( 'NONE', *, *, #239, .T. ) ;
#90 = CARTESIAN_POINT ( 'NONE',  ( -10.00000000000001066, 124.9999999999999858, 0.000000000000000000 ) ) ;
#91 = EDGE_CURVE ( 'NONE', #209, #150, #134, .T. ) ;
#92 =( NAMED_UNIT ( * ) SI_UNIT ( $, .STERADIAN. ) SOLID_ANGLE_UNIT ( ) );
#93 = VERTEX_POINT ( 'NONE', #155 ) ;
#94 = CARTESIAN_POINT ( 'NONE',  ( 0.000000000000000000, 0.000000000000000000, 0.000000000000000000 ) ) ;
#95 = ORIENTED_EDGE ( 'NONE', *, *, #12, .T. ) ;
#96 = STYLED_ITEM ( 'NONE', ( #285 ), #45 ) ;
#97 =( GEOMETRIC_REPRESENTATION_CONTEXT ( 3 ) GLOBAL_UNCERTAINTY_ASSIGNED_CONTEXT ( ( #64 ) ) GLOBAL_UNIT_ASSIGNED_CONTEXT ( ( #43, #207, #92 ) ) REPRESENTATION_CONTEXT ( 'NONE', 'WORKASPACE' ) );
#98 = EDGE_CURVE ( 'NONE', #65, #176, #114, .T. ) ;
#99 = EDGE_LOOP ( 'NONE', ( #32, #49 ) ) ;
#100 = DIRECTION ( 'NONE',  ( 0.000000000000000000, 1.000000000000000000, 0.000000000000000000 ) ) ;
#101 = AXIS2_PLACEMENT_3D ( 'NONE', #2, #218, #178 ) ;
#102 = DIRECTION ( 'NONE',  ( -0.000000000000000000, -1.000000000000000000, -0.000000000000000000 ) ) ;
#103 =( NAMED_UNIT ( * ) SI_UNIT ( $, .STERADIAN. ) SOLID_ANGLE_UNIT ( ) );
#104 = MECHANICAL_DESIGN_GEOMETRIC_PRESENTATION_REPRESENTATION (  '', ( #241 ), #194 ) ;
#105 = AXIS2_PLACEMENT_3D ( 'NONE', #94, #66, #249 ) ;
#106 = CARTESIAN_POINT ( 'NONE',  ( 0.000000000000000000, 50.00000000000000000, 0.000000000000000000 ) ) ;
#107 = APPLICATION_PROTOCOL_DEFINITION ( 'draft international standard', 'automotive_design', 1998, #163 ) ;
#108 = ORIENTED_EDGE ( 'NONE', *, *, #58, .F. ) ;
#109 =( NAMED_UNIT ( * ) SI_UNIT ( $, .STERADIAN. ) SOLID_ANGLE_UNIT ( ) );
#110 = FILL_AREA_STYLE ('',( #135 ) ) ;
#111 = AXIS2_PLACEMENT_3D ( 'NONE', #16, #80, #38 ) ;
#112 = CARTESIAN_POINT ( 'NONE',  ( 1.727723269626458946E-32, 50.00000000000000000, 0.000000000000000000 ) ) ;
#113 = UNCERTAINTY_MEASURE_WITH_UNIT (LENGTH_MEASURE( 1.000000000000000082E-05 ), #288, 'distance_accuracy_value', 'NONE');
#114 = LINE ( 'NONE', #245, #254 ) ;
#115 = PRODUCT_DEFINITION_CONTEXT ( 'detailed design', #25, 'design' ) ;
#116 = ORIENTED_EDGE ( 'NONE', *, *, #91, .T. ) ;
#117 = FACE_OUTER_BOUND ( 'NONE', #243, .T. ) ;
#118 = STYLED_ITEM ( 'NONE', ( #41 ), #237 ) ;
#119 = AXIS2_PLACEMENT_3D ( 'NONE', #106, #100, #199 ) ;
#120 = ORIENTED_EDGE ( 'NONE', *, *, #284, .F. ) ;
#121 = EDGE_CURVE ( 'NONE', #93, #65, #287, .T. ) ;
#122 = CIRCLE ( 'NONE', #125, 10.00000000000000000 ) ;
#123 = ADVANCED_FACE ( 'NONE', ( #130 ), #174, .T. ) ;
#124 = CARTESIAN_POINT ( 'NONE',  ( -4.408728476930469278E-15, 124.9999999999999858, 0.000000000000000000 ) ) ;
#125 = AXIS2_PLACEMENT_3D ( 'NONE', #190, #253, #187 ) ;
#126 = AXIS2_PLACEMENT_3D ( 'NONE', #87, #208, #179 ) ;
#127 = CARTESIAN_POINT ( 'NONE',  ( 0.000000000000000000, 0.000000000000000000, 0.000000000000000000 ) ) ;
#128 = COLOUR_RGB ( '',1.000000000000000000, 0.000000000000000000, 0.000000000000000000 ) ;
#129 = FILL_AREA_STYLE ('',( #251 ) ) ;
#130 = FACE_OUTER_BOUND ( 'NONE', #99, .T. ) ;
#131 = SHAPE_DEFINITION_REPRESENTATION ( #193, #17 ) ;
#132 = ORIENTED_EDGE ( 'NONE', *, *, #261, .T. ) ;
#133 = SURFACE_STYLE_FILL_AREA ( #129 ) ;
#134 = LINE ( 'NONE', #6, #53 ) ;
#135 = FILL_AREA_STYLE_COLOUR ( '', #37 ) ;
#136 = ORIENTED_EDGE ( 'NONE', *, *, #281, .F. ) ;
#137 =( GEOMETRIC_REPRESENTATION_CONTEXT ( 3 ) GLOBAL_UNCERTAINTY_ASSIGNED_CONTEXT ( ( #29 ) ) GLOBAL_UNIT_ASSIGNED_CONTEXT ( ( #278, #143, #35 ) ) REPRESENTATION_CONTEXT ( 'NONE', 'WORKASPACE' ) );
#138 = DIRECTION ( 'NONE',  ( -5.878304635907293472E-17, 1.000000000000000000, -0.000000000000000000 ) ) ;
#139 = DIRECTION ( 'NONE',  ( -5.878304635907293472E-17, 1.000000000000000000, -0.000000000000000000 ) ) ;
#140 = ORIENTED_EDGE ( 'NONE', *, *, #239, .F. ) ;
#141 = EDGE_CURVE ( 'NONE', #159, #277, #265, .T. ) ;
#142 = CIRCLE ( 'NONE', #54, 10.00000000000000000 ) ;
#143 =( NAMED_UNIT ( * ) PLANE_ANGLE_UNIT ( ) SI_UNIT ( $, .RADIAN. ) );
#144 = PRESENTATION_LAYER_ASSIGNMENT (  '', '', ( #96 ) ) ;
#145 = ADVANCED_FACE ( 'NONE', ( #186 ), #7, .T. ) ;
#146 = DIRECTION ( 'NONE',  ( -1.000000000000000000, 0.000000000000000000, 0.000000000000000000 ) ) ;
#147 = CIRCLE ( 'NONE', #101, 10.00000000000000533 ) ;
#148 = SURFACE_STYLE_FILL_AREA ( #59 ) ;
#149 =( GEOMETRIC_REPRESENTATION_CONTEXT ( 3 ) GLOBAL_UNCERTAINTY_ASSIGNED_CONTEXT ( ( #282 ) ) GLOBAL_UNIT_ASSIGNED_CONTEXT ( ( #63, #226, #203 ) ) REPRESENTATION_CONTEXT ( 'NONE', 'WORKASPACE' ) );
#150 = VERTEX_POINT ( 'NONE', #10 ) ;
#151 = DIRECTION ( 'NONE',  ( -1.000000000000000000, 0.000000000000000000, 0.000000000000000000 ) ) ;
#152 = ADVANCED_FACE ( 'NONE', ( #117 ), #170, .F. ) ;
#153 = FILL_AREA_STYLE_COLOUR ( '', #128 ) ;
#154 = SURFACE_SIDE_STYLE ('',( #31 ) ) ;
#155 = CARTESIAN_POINT ( 'NONE',  ( 1.224646799147353256E-15, 50.00000000000000000, 10.00000000000000000 ) ) ;
#156 = EDGE_CURVE ( 'NONE', #277, #150, #21, .T. ) ;
#157 = AXIS2_PLACEMENT_3D ( 'NONE', #124, #256, #146 ) ;
#158 = DIRECTION ( 'NONE',  ( -1.000000000000000000, -5.878304635907293472E-17, 0.000000000000000000 ) ) ;
#159 = VERTEX_POINT ( 'NONE', #283 ) ;
#160 = SURFACE_SIDE_STYLE ('',( #191 ) ) ;
#161 =( NAMED_UNIT ( * ) SI_UNIT ( $, .STERADIAN. ) SOLID_ANGLE_UNIT ( ) );
#162 = EDGE_LOOP ( 'NONE', ( #185, #9, #252, #108 ) ) ;
#163 = APPLICATION_CONTEXT ( 'automotive_design' ) ;
#164 = ADVANCED_FACE ( 'NONE', ( #78 ), #165, .T. ) ;
#165 = CYLINDRICAL_SURFACE ( 'NONE', #157, 10.00000000000000178 ) ;
#166 = CARTESIAN_POINT ( 'NONE',  ( -4.408728476930469278E-15, 124.9999999999999858, 0.000000000000000000 ) ) ;
#167 = PRESENTATION_LAYER_ASSIGNMENT (  '', '', ( #241 ) ) ;
#168 = PRODUCT_RELATED_PRODUCT_CATEGORY ( 'part', '', ( #68 ) ) ;
#169 = CIRCLE ( 'NONE', #27, 10.00000000000000000 ) ;
#170 = PLANE ( 'NONE',  #111 ) ;
#171 = DIRECTION ( 'NONE',  ( 0.000000000000000000, 0.000000000000000000, -1.000000000000000000 ) ) ;
#172 = FILL_AREA_STYLE ('',( #271 ) ) ;
#173 = EDGE_CURVE ( 'NONE', #93, #84, #234, .T. ) ;
#174 = PLANE ( 'NONE',  #211 ) ;
#175 = AXIS2_PLACEMENT_3D ( 'NONE', #18, #70, #171 ) ;
#176 = VERTEX_POINT ( 'NONE', #197 ) ;
#177 = PRODUCT_DEFINITION_FORMATION_WITH_SPECIFIED_SOURCE ( 'ANY', '', #68, .NOT_KNOWN. ) ;
#178 = DIRECTION ( 'NONE',  ( -1.000000000000000000, 0.000000000000000000, 0.000000000000000000 ) ) ;
#179 = DIRECTION ( 'NONE',  ( 0.000000000000000000, 0.000000000000000000, -1.000000000000000000 ) ) ;
#180 =( LENGTH_UNIT ( ) NAMED_UNIT ( * ) SI_UNIT ( .MILLI., .METRE. ) );
#181 =( NAMED_UNIT ( * ) SI_UNIT ( $, .STERADIAN. ) SOLID_ANGLE_UNIT ( ) );
#182 = PRESENTATION_STYLE_ASSIGNMENT (( #224 ) ) ;
#183 = DIRECTION ( 'NONE',  ( 0.000000000000000000, 0.000000000000000000, 1.000000000000000000 ) ) ;
#184 = UNCERTAINTY_MEASURE_WITH_UNIT (LENGTH_MEASURE( 1.000000000000000082E-05 ), #217, 'distance_accuracy_value', 'NONE');
#185 = ORIENTED_EDGE ( 'NONE', *, *, #173, .F. ) ;
#186 = FACE_OUTER_BOUND ( 'NONE', #34, .T. ) ;
#187 = DIRECTION ( 'NONE',  ( 0.000000000000000000, 0.000000000000000000, -1.000000000000000000 ) ) ;
#188 = MECHANICAL_DESIGN_GEOMETRIC_PRESENTATION_REPRESENTATION (  '', ( #118 ), #61 ) ;
#189 = APPLICATION_PROTOCOL_DEFINITION ( 'draft international standard', 'automotive_design', 1998, #25 ) ;
#190 = CARTESIAN_POINT ( 'NONE',  ( 0.000000000000000000, 50.00000000000000000, 0.000000000000000000 ) ) ;
#191 = SURFACE_STYLE_FILL_AREA ( #110 ) ;
#192 = ORIENTED_EDGE ( 'NONE', *, *, #141, .T. ) ;
#193 = PRODUCT_DEFINITION_SHAPE ( 'NONE', 'NONE',  #15 ) ;
#194 =( GEOMETRIC_REPRESENTATION_CONTEXT ( 3 ) GLOBAL_UNCERTAINTY_ASSIGNED_CONTEXT ( ( #255 ) ) GLOBAL_UNIT_ASSIGNED_CONTEXT ( ( #180, #273, #161 ) ) REPRESENTATION_CONTEXT ( 'NONE', 'WORKASPACE' ) );
#195 = SURFACE_SIDE_STYLE ('',( #232 ) ) ;
#196 =( GEOMETRIC_REPRESENTATION_CONTEXT ( 3 ) GLOBAL_UNCERTAINTY_ASSIGNED_CONTEXT ( ( #184 ) ) GLOBAL_UNIT_ASSIGNED_CONTEXT ( ( #217, #57, #103 ) ) REPRESENTATION_CONTEXT ( 'NONE', 'WORKASPACE' ) );
#197 = CARTESIAN_POINT ( 'NONE',  ( 0.000000000000000000, 0.000000000000000000, -10.00000000000000000 ) ) ;
#198 = MECHANICAL_DESIGN_GEOMETRIC_PRESENTATION_REPRESENTATION (  '', ( #33 ), #79 ) ;
#199 = DIRECTION ( 'NONE',  ( 0.000000000000000000, -0.000000000000000000, 1.000000000000000000 ) ) ;
#200 = SURFACE_STYLE_USAGE ( .BOTH. , #154 ) ;
#201 = FACE_OUTER_BOUND ( 'NONE', #162, .T. ) ;
#202 = CARTESIAN_POINT ( 'NONE',  ( 0.000000000000000000, 50.00000000000000000, 0.000000000000000000 ) ) ;
#203 =( NAMED_UNIT ( * ) SI_UNIT ( $, .STERADIAN. ) SOLID_ANGLE_UNIT ( ) );
#204 = PRESENTATION_LAYER_ASSIGNMENT (  '', '', ( #118 ) ) ;
#205 = ORIENTED_EDGE ( 'NONE', *, *, #156, .F. ) ;
#206 =( NAMED_UNIT ( * ) PLANE_ANGLE_UNIT ( ) SI_UNIT ( $, .RADIAN. ) );
#207 =( NAMED_UNIT ( * ) PLANE_ANGLE_UNIT ( ) SI_UNIT ( $, .RADIAN. ) );
#208 = DIRECTION ( 'NONE',  ( -0.000000000000000000, -1.000000000000000000, -0.000000000000000000 ) ) ;
#209 = VERTEX_POINT ( 'NONE', #246 ) ;
#210 = EDGE_LOOP ( 'NONE', ( #140, #120 ) ) ;
#211 = AXIS2_PLACEMENT_3D ( 'NONE', #82, #263, #83 ) ;
#212 = FACE_OUTER_BOUND ( 'NONE', #213, .T. ) ;
#213 = EDGE_LOOP ( 'NONE', ( #223, #30 ) ) ;
#214 = FILL_AREA_STYLE ('',( #216 ) ) ;
#215 = VECTOR ( 'NONE', #102, 1000.000000000000000 ) ;
#216 = FILL_AREA_STYLE_COLOUR ( '', #266 ) ;
#217 =( LENGTH_UNIT ( ) NAMED_UNIT ( * ) SI_UNIT ( .MILLI., .METRE. ) );
#218 = DIRECTION ( 'NONE',  ( -5.878304635907293472E-17, 1.000000000000000000, -0.000000000000000000 ) ) ;
#219 = ADVANCED_FACE ( 'NONE', ( #212 ), #22, .T. ) ;
#220 = FACE_OUTER_BOUND ( 'NONE', #230, .T. ) ;
#221 = ORIENTED_EDGE ( 'NONE', *, *, #284, .T. ) ;
#222 = CARTESIAN_POINT ( 'NONE',  ( -10.00000000000000711, 124.9999999999999858, 0.000000000000000000 ) ) ;
#223 = ORIENTED_EDGE ( 'NONE', *, *, #12, .F. ) ;
#224 = SURFACE_STYLE_USAGE ( .BOTH. , #275 ) ;
#225 = FILL_AREA_STYLE_COLOUR ( '', #26 ) ;
#226 =( NAMED_UNIT ( * ) PLANE_ANGLE_UNIT ( ) SI_UNIT ( $, .RADIAN. ) );
#227 = ORIENTED_EDGE ( 'NONE', *, *, #173, .T. ) ;
#228 = DIRECTION ( 'NONE',  ( -0.000000000000000000, -1.000000000000000000, -0.000000000000000000 ) ) ;
#229 = CLOSED_SHELL ( 'NONE', ( #145, #219, #237, #123 ) ) ;
#230 = EDGE_LOOP ( 'NONE', ( #89, #116, #205, #269 ) ) ;
#231 = AXIS2_PLACEMENT_3D ( 'NONE', #202, #60, #151 ) ;
#232 = SURFACE_STYLE_FILL_AREA ( #214 ) ;
#233 = MECHANICAL_DESIGN_GEOMETRIC_PRESENTATION_REPRESENTATION (  '', ( #257 ), #97 ) ;
#234 = LINE ( 'NONE', #14, #215 ) ;
#235 = CARTESIAN_POINT ( 'NONE',  ( 0.000000000000000000, 0.000000000000000000, 0.000000000000000000 ) ) ;
#236 = FACE_OUTER_BOUND ( 'NONE', #210, .T. ) ;
#237 = ADVANCED_FACE ( 'NONE', ( #201 ), #280, .T. ) ;
#238 = AXIS2_PLACEMENT_3D ( 'NONE', #112, #248, #158 ) ;
#239 = EDGE_CURVE ( 'NONE', #159, #209, #44, .T. ) ;
#240 =( LENGTH_UNIT ( ) NAMED_UNIT ( * ) SI_UNIT ( .MILLI., .METRE. ) );
#241 = STYLED_ITEM ( 'NONE', ( #250 ), #42 ) ;
#242 = MECHANICAL_DESIGN_GEOMETRIC_PRESENTATION_REPRESENTATION (  '', ( #4 ), #149 ) ;
#243 = EDGE_LOOP ( 'NONE', ( #46, #132 ) ) ;
#244 =( NAMED_UNIT ( * ) PLANE_ANGLE_UNIT ( ) SI_UNIT ( $, .RADIAN. ) );
#245 = CARTESIAN_POINT ( 'NONE',  ( 0.000000000000000000, 0.000000000000000000, -10.00000000000000000 ) ) ;
#246 = CARTESIAN_POINT ( 'NONE',  ( 10.00000000000000000, 50.00000000000000000, 1.224646799147353651E-15 ) ) ;
#247 = EDGE_LOOP ( 'NONE', ( #73, #221, #192, #23 ) ) ;
#248 = DIRECTION ( 'NONE',  ( -5.878304635907293472E-17, 1.000000000000000000, 0.000000000000000000 ) ) ;
#249 = DIRECTION ( 'NONE',  ( 0.000000000000000000, 0.000000000000000000, -1.000000000000000000 ) ) ;
#250 = PRESENTATION_STYLE_ASSIGNMENT (( #28 ) ) ;
#251 = FILL_AREA_STYLE_COLOUR ( '', #276 ) ;
#252 = ORIENTED_EDGE ( 'NONE', *, *, #98, .T. ) ;
#253 = DIRECTION ( 'NONE',  ( -0.000000000000000000, -1.000000000000000000, -0.000000000000000000 ) ) ;
#254 = VECTOR ( 'NONE', #228, 1000.000000000000000 ) ;
#255 = UNCERTAINTY_MEASURE_WITH_UNIT (LENGTH_MEASURE( 1.000000000000000082E-05 ), #180, 'distance_accuracy_value', 'NONE');
#256 = DIRECTION ( 'NONE',  ( -5.878304635907293472E-17, 1.000000000000000000, -0.000000000000000000 ) ) ;
#257 = STYLED_ITEM ( 'NONE', ( #3 ), #123 ) ;
#258 = DIRECTION ( 'NONE',  ( -5.878304635907293472E-17, 1.000000000000000000, -0.000000000000000000 ) ) ;
#259 = DIRECTION ( 'NONE',  ( -5.878304635907293472E-17, 1.000000000000000000, -0.000000000000000000 ) ) ;
#260 = AXIS2_PLACEMENT_3D ( 'NONE', #127, #264, #24 ) ;
#261 = EDGE_CURVE ( 'NONE', #150, #277, #147, .T. ) ;
#262 = CARTESIAN_POINT ( 'NONE',  ( 0.000000000000000000, 50.00000000000000000, 0.000000000000000000 ) ) ;
#263 = DIRECTION ( 'NONE',  ( 0.000000000000000000, -1.000000000000000000, -0.000000000000000000 ) ) ;
#264 = DIRECTION ( 'NONE',  ( -0.000000000000000000, -1.000000000000000000, -0.000000000000000000 ) ) ;
#265 = LINE ( 'NONE', #222, #76 ) ;
#266 = COLOUR_RGB ( '',0.7921568627450980005, 0.8196078431372548767, 0.9333333333333333481 ) ;
#267 = DIRECTION ( 'NONE',  ( 1.000000000000000000, 0.000000000000000000, 0.000000000000000000 ) ) ;
#268 = COLOUR_RGB ( '',1.000000000000000000, 0.000000000000000000, 0.000000000000000000 ) ;
#269 = ORIENTED_EDGE ( 'NONE', *, *, #141, .F. ) ;
#270 = DIRECTION ( 'NONE',  ( -5.878304635907293472E-17, 1.000000000000000000, -0.000000000000000000 ) ) ;
#271 = FILL_AREA_STYLE_COLOUR ( '', #268 ) ;
#272 = CARTESIAN_POINT ( 'NONE',  ( 0.000000000000000000, 0.000000000000000000, 0.000000000000000000 ) ) ;
#273 =( NAMED_UNIT ( * ) PLANE_ANGLE_UNIT ( ) SI_UNIT ( $, .RADIAN. ) );
#274 = SURFACE_STYLE_FILL_AREA ( #279 ) ;
#275 = SURFACE_SIDE_STYLE ('',( #148 ) ) ;
#276 = COLOUR_RGB ( '',1.000000000000000000, 0.000000000000000000, 0.000000000000000000 ) ;
#277 = VERTEX_POINT ( 'NONE', #90 ) ;
#278 =( LENGTH_UNIT ( ) NAMED_UNIT ( * ) SI_UNIT ( .MILLI., .METRE. ) );
#279 = FILL_AREA_STYLE ('',( #225 ) ) ;
#280 = CYLINDRICAL_SURFACE ( 'NONE', #260, 10.00000000000000000 ) ;
#281 = EDGE_CURVE ( 'NONE', #176, #84, #13, .T. ) ;
#282 = UNCERTAINTY_MEASURE_WITH_UNIT (LENGTH_MEASURE( 1.000000000000000082E-05 ), #63, 'distance_accuracy_value', 'NONE');
#283 = CARTESIAN_POINT ( 'NONE',  ( -10.00000000000000000, 50.00000000000000000, 0.000000000000000000 ) ) ;
#284 = EDGE_CURVE ( 'NONE', #209, #159, #169, .T. ) ;
#285 = PRESENTATION_STYLE_ASSIGNMENT (( #36 ) ) ;
#286 = CYLINDRICAL_SURFACE ( 'NONE', #52, 10.00000000000000178 ) ;
#287 = CIRCLE ( 'NONE', #126, 10.00000000000000000 ) ;
#288 =( LENGTH_UNIT ( ) NAMED_UNIT ( * ) SI_UNIT ( .MILLI., .METRE. ) );
ENDSEC;
END-ISO-10303-21;
