ISO-10303-21;
HEADER;
FILE_DESCRIPTION (( 'STEP AP214' ),
    '1' );
FILE_NAME ('81712.STEP',
    '2023-06-23T02:54:03',
    ( '' ),
    ( '' ),
    'SwSTEP 2.0',
    'SolidWorks 2023',
    '' );
FILE_SCHEMA (( 'AUTOMOTIVE_DESIGN' ));
ENDSEC;

DATA;
#1 = SHAPE_DEFINITION_REPRESENTATION ( #334, #49 ) ;
#2 =( NAMED_UNIT ( * ) PLANE_ANGLE_UNIT ( ) SI_UNIT ( $, .RADIAN. ) );
#3 =( GEOMETRIC_REPRESENTATION_CONTEXT ( 3 ) GLOBAL_UNCERTAINTY_ASSIGNED_CONTEXT ( ( #107 ) ) GLOBAL_UNIT_ASSIGNED_CONTEXT ( ( #155, #127, #178 ) ) REPRESENTATION_CONTEXT ( 'NONE', 'WORKASPACE' ) );
#4 = PRODUCT_DEFINITION_CONTEXT ( 'detailed design', #247, 'design' ) ;
#5 = PRESENTATION_STYLE_ASSIGNMENT (( #302 ) ) ;
#6 = DIRECTION ( 'NONE',  ( 0.000000000000000000, 0.000000000000000000, -1.000000000000000000 ) ) ;
#7 = VECTOR ( 'NONE', #54, 39.37007874015748143 ) ;
#8 =( GEOMETRIC_REPRESENTATION_CONTEXT ( 3 ) GLOBAL_UNCERTAINTY_ASSIGNED_CONTEXT ( ( #220 ) ) GLOBAL_UNIT_ASSIGNED_CONTEXT ( ( #186, #73, #268 ) ) REPRESENTATION_CONTEXT ( 'NONE', 'WORKASPACE' ) );
#9 = CYLINDRICAL_SURFACE ( 'NONE', #147, 0.1406000000000000028 ) ;
#10 = EDGE_LOOP ( 'NONE', ( #140, #250 ) ) ;
#11 = ADVANCED_FACE ( 'NONE', ( #42 ), #322, .T. ) ;
#12 = PLANE ( 'NONE',  #326 ) ;
#13 = AXIS2_PLACEMENT_3D ( 'NONE', #170, #245, #306 ) ;
#14 = DIRECTION ( 'NONE',  ( -1.000000000000000000, 0.000000000000000000, 0.000000000000000000 ) ) ;
#15 = ORIENTED_EDGE ( 'NONE', *, *, #200, .F. ) ;
#16 = EDGE_CURVE ( 'NONE', #124, #113, #274, .T. ) ;
#17 = EDGE_LOOP ( 'NONE', ( #258, #110 ) ) ;
#18 = CARTESIAN_POINT ( 'NONE',  ( 0.000000000000000000, 0.000000000000000000, 0.000000000000000000 ) ) ;
#19 = AXIS2_PLACEMENT_3D ( 'NONE', #72, #184, #45 ) ;
#20 = VERTEX_POINT ( 'NONE', #300 ) ;
#21 = PRODUCT_DEFINITION_FORMATION_WITH_SPECIFIED_SOURCE ( 'ANY', '', #77, .NOT_KNOWN. ) ;
#22 = ORIENTED_EDGE ( 'NONE', *, *, #222, .F. ) ;
#23 = CARTESIAN_POINT ( 'NONE',  ( 0.000000000000000000, 1.000000000000000000, 0.000000000000000000 ) ) ;
#24 = MECHANICAL_DESIGN_GEOMETRIC_PRESENTATION_REPRESENTATION (  '', ( #39 ), #8 ) ;
#25 = LENGTH_MEASURE_WITH_UNIT ( LENGTH_MEASURE( 0.02539999999999999897 ), #159 );
#26 = CARTESIAN_POINT ( 'NONE',  ( -0.1406000000000000028, 1.000000000000000000, 0.000000000000000000 ) ) ;
#27 = MANIFOLD_SOLID_BREP ( 'Revolve - Cutting Edge', #279 ) ;
#28 = CARTESIAN_POINT ( 'NONE',  ( 0.000000000000000000, 1.000000000000000000, 0.000000000000000000 ) ) ;
#29 = AXIS2_PLACEMENT_3D ( 'NONE', #163, #50, #271 ) ;
#30 = ORIENTED_EDGE ( 'NONE', *, *, #284, .F. ) ;
#31 = ORIENTED_EDGE ( 'NONE', *, *, #181, .F. ) ;
#32 = FILL_AREA_STYLE_COLOUR ( '', #60 ) ;
#33 = ORIENTED_EDGE ( 'NONE', *, *, #106, .F. ) ;
#34 = CARTESIAN_POINT ( 'NONE',  ( -0.1562500000000000833, 3.000000000000000444, 0.000000000000000000 ) ) ;
#35 = SURFACE_SIDE_STYLE ('',( #92 ) ) ;
#36 = VERTEX_POINT ( 'NONE', #26 ) ;
#37 =( GEOMETRIC_REPRESENTATION_CONTEXT ( 3 ) GLOBAL_UNCERTAINTY_ASSIGNED_CONTEXT ( ( #283 ) ) GLOBAL_UNIT_ASSIGNED_CONTEXT ( ( #89, #203, #66 ) ) REPRESENTATION_CONTEXT ( 'NONE', 'WORKASPACE' ) );
#38 = CARTESIAN_POINT ( 'NONE',  ( -0.1562499999999999445, 1.042998021614464532, 0.000000000000000000 ) ) ;
#39 = STYLED_ITEM ( 'NONE', ( #329 ), #303 ) ;
#40 = DIMENSIONAL_EXPONENTS ( 1.000000000000000000, 0.000000000000000000, 0.000000000000000000, 0.000000000000000000, 0.000000000000000000, 0.000000000000000000, 0.000000000000000000 ) ;
#41 = CARTESIAN_POINT ( 'NONE',  ( 0.000000000000000000, 0.000000000000000000, -0.1406000000000000028 ) ) ;
#42 = FACE_OUTER_BOUND ( 'NONE', #17, .T. ) ;
#43 =( LENGTH_UNIT ( ) NAMED_UNIT ( * ) SI_UNIT ( $, .METRE. ) );
#44 = STYLED_ITEM ( 'NONE', ( #129 ), #27 ) ;
#45 = DIRECTION ( 'NONE',  ( 0.000000000000000000, 0.000000000000000000, -1.000000000000000000 ) ) ;
#46 = COLOUR_RGB ( '',1.000000000000000000, 0.000000000000000000, 0.000000000000000000 ) ;
#47 = SURFACE_STYLE_USAGE ( .BOTH. , #79 ) ;
#48 = FILL_AREA_STYLE_COLOUR ( '', #325 ) ;
#49 = ADVANCED_BREP_SHAPE_REPRESENTATION ( '81712', ( #27, #141, #281 ), #305 ) ;
#50 = DIRECTION ( 'NONE',  ( 3.061616997868386099E-17, -1.000000000000000000, 0.000000000000000000 ) ) ;
#51 = DIRECTION ( 'NONE',  ( -0.000000000000000000, -1.000000000000000000, -0.000000000000000000 ) ) ;
#52 = AXIS2_PLACEMENT_3D ( 'NONE', #289, #205, #87 ) ;
#53 = DIRECTION ( 'NONE',  ( 1.000000000000000000, 0.000000000000000000, 0.000000000000000000 ) ) ;
#54 = DIRECTION ( 'NONE',  ( -3.061616997868386099E-17, 1.000000000000000000, -0.000000000000000000 ) ) ;
#55 = DIRECTION ( 'NONE',  ( -1.000000000000000000, 0.000000000000000000, 0.000000000000000000 ) ) ;
#56 = EDGE_CURVE ( 'NONE', #36, #234, #327, .T. ) ;
#57 = CIRCLE ( 'NONE', #80, 0.1562499999999999445 ) ;
#58 = ADVANCED_FACE ( 'NONE', ( #272 ), #333, .T. ) ;
#59 = CARTESIAN_POINT ( 'NONE',  ( -1.316434738495560095E-18, 1.042998021614464532, 0.000000000000000000 ) ) ;
#60 = COLOUR_RGB ( '',0.7921568627450980005, 0.8196078431372548767, 0.9333333333333333481 ) ;
#61 =( LENGTH_UNIT ( ) NAMED_UNIT ( * ) SI_UNIT ( $, .METRE. ) );
#62 = EDGE_CURVE ( 'NONE', #234, #292, #296, .T. ) ;
#63 = SURFACE_STYLE_USAGE ( .BOTH. , #316 ) ;
#64 = DIMENSIONAL_EXPONENTS ( 1.000000000000000000, 0.000000000000000000, 0.000000000000000000, 0.000000000000000000, 0.000000000000000000, 0.000000000000000000, 0.000000000000000000 ) ;
#65 = DIRECTION ( 'NONE',  ( -3.061616997868386099E-17, 1.000000000000000000, -0.000000000000000000 ) ) ;
#66 =( NAMED_UNIT ( * ) SI_UNIT ( $, .STERADIAN. ) SOLID_ANGLE_UNIT ( ) );
#67 = CONICAL_SURFACE ( 'NONE', #76, 0.1406000000000000028, 0.3490658503988668393 ) ;
#68 = VERTEX_POINT ( 'NONE', #102 ) ;
#69 = SURFACE_SIDE_STYLE ('',( #319 ) ) ;
#70 = ORIENTED_EDGE ( 'NONE', *, *, #181, .T. ) ;
#71 = DIRECTION ( 'NONE',  ( 0.000000000000000000, 0.000000000000000000, -1.000000000000000000 ) ) ;
#72 = CARTESIAN_POINT ( 'NONE',  ( 0.000000000000000000, 0.000000000000000000, 0.000000000000000000 ) ) ;
#73 =( NAMED_UNIT ( * ) PLANE_ANGLE_UNIT ( ) SI_UNIT ( $, .RADIAN. ) );
#74 = AXIS2_PLACEMENT_3D ( 'NONE', #97, #122, #317 ) ;
#75 = SURFACE_STYLE_FILL_AREA ( #103 ) ;
#76 = AXIS2_PLACEMENT_3D ( 'NONE', #182, #154, #285 ) ;
#77 = PRODUCT ( '81712', '81712', '', ( #243 ) ) ;
#78 = EDGE_CURVE ( 'NONE', #202, #345, #221, .T. ) ;
#79 = SURFACE_SIDE_STYLE ('',( #100 ) ) ;
#80 = AXIS2_PLACEMENT_3D ( 'NONE', #59, #172, #148 ) ;
#81 = CARTESIAN_POINT ( 'NONE',  ( 0.000000000000000000, 1.000000000000000000, 0.000000000000000000 ) ) ;
#82 = DIRECTION ( 'NONE',  ( -1.000000000000000000, 0.000000000000000000, 0.000000000000000000 ) ) ;
#83 = ORIENTED_EDGE ( 'NONE', *, *, #336, .T. ) ;
#84 = COLOUR_RGB ( '',1.000000000000000000, 0.000000000000000000, 0.000000000000000000 ) ;
#85 = FACE_OUTER_BOUND ( 'NONE', #171, .T. ) ;
#86 = MECHANICAL_DESIGN_GEOMETRIC_PRESENTATION_REPRESENTATION (  '', ( #173 ), #358 ) ;
#87 = DIRECTION ( 'NONE',  ( -1.000000000000000000, 0.000000000000000000, 0.000000000000000000 ) ) ;
#88 = ORIENTED_EDGE ( 'NONE', *, *, #284, .T. ) ;
#89 =( CONVERSION_BASED_UNIT ( 'INCH', #282 ) LENGTH_UNIT ( ) NAMED_UNIT ( #353 ) );
#90 = EDGE_LOOP ( 'NONE', ( #151, #88, #206, #261 ) ) ;
#91 = APPLICATION_CONTEXT ( 'automotive_design' ) ;
#92 = SURFACE_STYLE_FILL_AREA ( #224 ) ;
#93 = DIMENSIONAL_EXPONENTS ( 1.000000000000000000, 0.000000000000000000, 0.000000000000000000, 0.000000000000000000, 0.000000000000000000, 0.000000000000000000, 0.000000000000000000 ) ;
#94 = ORIENTED_EDGE ( 'NONE', *, *, #56, .T. ) ;
#95 = DIRECTION ( 'NONE',  ( -0.000000000000000000, -1.000000000000000000, -0.000000000000000000 ) ) ;
#96 = CIRCLE ( 'NONE', #242, 0.1562500000000000000 ) ;
#97 = CARTESIAN_POINT ( 'NONE',  ( 0.000000000000000000, 0.000000000000000000, 0.000000000000000000 ) ) ;
#98 = FACE_OUTER_BOUND ( 'NONE', #287, .T. ) ;
#99 = CYLINDRICAL_SURFACE ( 'NONE', #119, 0.1562499999999999722 ) ;
#100 = SURFACE_STYLE_FILL_AREA ( #299 ) ;
#101 = COLOUR_RGB ( '',1.000000000000000000, 0.000000000000000000, 0.000000000000000000 ) ;
#102 = CARTESIAN_POINT ( 'NONE',  ( 0.1562499999999999445, 1.042998021614464532, 1.913510623667738539E-17 ) ) ;
#103 = FILL_AREA_STYLE ('',( #240 ) ) ;
#104 =( LENGTH_UNIT ( ) NAMED_UNIT ( * ) SI_UNIT ( $, .METRE. ) );
#105 = PLANE ( 'NONE',  #29 ) ;
#106 = EDGE_CURVE ( 'NONE', #160, #36, #138, .T. ) ;
#107 = UNCERTAINTY_MEASURE_WITH_UNIT (LENGTH_MEASURE( 1.000000000000000082E-05 ), #155, 'distance_accuracy_value', 'NONE');
#108 =( CONVERSION_BASED_UNIT ( 'INCH', #167 ) LENGTH_UNIT ( ) NAMED_UNIT ( #150 ) );
#109 = LINE ( 'NONE', #278, #270 ) ;
#110 = ORIENTED_EDGE ( 'NONE', *, *, #16, .T. ) ;
#111 = COLOUR_RGB ( '',0.7921568627450980005, 0.8196078431372548767, 0.9333333333333333481 ) ;
#112 = EDGE_CURVE ( 'NONE', #36, #160, #340, .T. ) ;
#113 = VERTEX_POINT ( 'NONE', #194 ) ;
#114 = FILL_AREA_STYLE_COLOUR ( '', #101 ) ;
#115 = ORIENTED_EDGE ( 'NONE', *, *, #218, .F. ) ;
#116 = UNCERTAINTY_MEASURE_WITH_UNIT (LENGTH_MEASURE( 1.000000000000000082E-05 ), #136, 'distance_accuracy_value', 'NONE');
#117 = SURFACE_STYLE_USAGE ( .BOTH. , #69 ) ;
#118 =( GEOMETRIC_REPRESENTATION_CONTEXT ( 3 ) GLOBAL_UNCERTAINTY_ASSIGNED_CONTEXT ( ( #116 ) ) GLOBAL_UNIT_ASSIGNED_CONTEXT ( ( #136, #215, #330 ) ) REPRESENTATION_CONTEXT ( 'NONE', 'WORKASPACE' ) );
#119 = AXIS2_PLACEMENT_3D ( 'NONE', #213, #128, #266 ) ;
#120 = ORIENTED_EDGE ( 'NONE', *, *, #222, .T. ) ;
#121 = FACE_OUTER_BOUND ( 'NONE', #253, .T. ) ;
#122 = DIRECTION ( 'NONE',  ( 0.000000000000000000, -1.000000000000000000, -0.000000000000000000 ) ) ;
#123 = DIRECTION ( 'NONE',  ( -0.000000000000000000, -1.000000000000000000, -0.000000000000000000 ) ) ;
#124 = VERTEX_POINT ( 'NONE', #335 ) ;
#125 = MECHANICAL_DESIGN_GEOMETRIC_PRESENTATION_REPRESENTATION (  '', ( #44 ), #118 ) ;
#126 =( LENGTH_UNIT ( ) NAMED_UNIT ( * ) SI_UNIT ( $, .METRE. ) );
#127 =( NAMED_UNIT ( * ) PLANE_ANGLE_UNIT ( ) SI_UNIT ( $, .RADIAN. ) );
#128 = DIRECTION ( 'NONE',  ( -3.061616997868386099E-17, 1.000000000000000000, -0.000000000000000000 ) ) ;
#129 = PRESENTATION_STYLE_ASSIGNMENT (( #192 ) ) ;
#130 = DIRECTION ( 'NONE',  ( 0.000000000000000000, -0.000000000000000000, 1.000000000000000000 ) ) ;
#131 = DIRECTION ( 'NONE',  ( -0.3420201433256696011, 0.9396926207859079838, 0.000000000000000000 ) ) ;
#132 =( CONVERSION_BASED_UNIT ( 'INCH', #25 ) LENGTH_UNIT ( ) NAMED_UNIT ( #64 ) );
#133 = PRESENTATION_LAYER_ASSIGNMENT (  '', '', ( #44 ) ) ;
#134 = SURFACE_SIDE_STYLE ('',( #75 ) ) ;
#135 = DIRECTION ( 'NONE',  ( -3.061616997868386099E-17, 1.000000000000000000, -0.000000000000000000 ) ) ;
#136 =( CONVERSION_BASED_UNIT ( 'INCH', #295 ) LENGTH_UNIT ( ) NAMED_UNIT ( #40 ) );
#137 = ADVANCED_FACE ( 'NONE', ( #85 ), #309, .F. ) ;
#138 = CIRCLE ( 'NONE', #337, 0.1406000000000000028 ) ;
#139 = CARTESIAN_POINT ( 'NONE',  ( 7.582401355855259480E-33, 1.000000000000000000, 0.000000000000000000 ) ) ;
#140 = ORIENTED_EDGE ( 'NONE', *, *, #78, .F. ) ;
#141 = MANIFOLD_SOLID_BREP ( 'Revolve - Tool Body (Reduced Cut Diameter)', #152 ) ;
#142 = DIRECTION ( 'NONE',  ( -0.000000000000000000, -1.000000000000000000, -0.000000000000000000 ) ) ;
#143 = ORIENTED_EDGE ( 'NONE', *, *, #106, .T. ) ;
#144 = FILL_AREA_STYLE ('',( #32 ) ) ;
#145 = ORIENTED_EDGE ( 'NONE', *, *, #16, .F. ) ;
#146 = EDGE_CURVE ( 'NONE', #345, #202, #179, .T. ) ;
#147 = AXIS2_PLACEMENT_3D ( 'NONE', #291, #260, #343 ) ;
#148 = DIRECTION ( 'NONE',  ( -1.000000000000000000, 0.000000000000000000, 0.000000000000000000 ) ) ;
#149 = FACE_OUTER_BOUND ( 'NONE', #10, .T. ) ;
#150 = DIMENSIONAL_EXPONENTS ( 1.000000000000000000, 0.000000000000000000, 0.000000000000000000, 0.000000000000000000, 0.000000000000000000, 0.000000000000000000, 0.000000000000000000 ) ;
#151 = ORIENTED_EDGE ( 'NONE', *, *, #78, .T. ) ;
#152 = CLOSED_SHELL ( 'NONE', ( #355, #264, #137, #259, #256, #346 ) ) ;
#153 = CARTESIAN_POINT ( 'NONE',  ( -6.123233995736772199E-17, 3.000000000000000444, 0.000000000000000000 ) ) ;
#154 = DIRECTION ( 'NONE',  ( -3.061616997868386099E-17, 1.000000000000000000, -0.000000000000000000 ) ) ;
#155 =( CONVERSION_BASED_UNIT ( 'INCH', #211 ) LENGTH_UNIT ( ) NAMED_UNIT ( #176 ) );
#156 = EDGE_CURVE ( 'NONE', #68, #20, #109, .T. ) ;
#157 = STYLED_ITEM ( 'NONE', ( #5 ), #141 ) ;
#158 = PRESENTATION_LAYER_ASSIGNMENT (  '', '', ( #39 ) ) ;
#159 =( LENGTH_UNIT ( ) NAMED_UNIT ( * ) SI_UNIT ( $, .METRE. ) );
#160 = VERTEX_POINT ( 'NONE', #199 ) ;
#161 = CARTESIAN_POINT ( 'NONE',  ( 1.721853399601179049E-17, 1.000000000000000000, 0.1406000000000000305 ) ) ;
#162 = PRESENTATION_STYLE_ASSIGNMENT (( #47 ) ) ;
#163 = CARTESIAN_POINT ( 'NONE',  ( 0.1562499999999999445, 3.000000000000000444, 0.000000000000000000 ) ) ;
#164 = AXIS2_PLACEMENT_3D ( 'NONE', #315, #65, #341 ) ;
#165 = CARTESIAN_POINT ( 'NONE',  ( 0.000000000000000000, 0.000000000000000000, 0.000000000000000000 ) ) ;
#166 = CARTESIAN_POINT ( 'NONE',  ( 0.000000000000000000, 0.000000000000000000, 0.000000000000000000 ) ) ;
#167 = LENGTH_MEASURE_WITH_UNIT ( LENGTH_MEASURE( 0.02539999999999999897 ), #61 );
#168 = VECTOR ( 'NONE', #131, 39.37007874015748854 ) ;
#169 =( NAMED_UNIT ( * ) SI_UNIT ( $, .STERADIAN. ) SOLID_ANGLE_UNIT ( ) );
#170 = CARTESIAN_POINT ( 'NONE',  ( 6.589569545070551481E-35, 1.000000000000000000, 0.000000000000000000 ) ) ;
#171 = EDGE_LOOP ( 'NONE', ( #198, #33 ) ) ;
#172 = DIRECTION ( 'NONE',  ( -3.061616997868386099E-17, 1.000000000000000000, -0.000000000000000000 ) ) ;
#173 = STYLED_ITEM ( 'NONE', ( #162 ), #58 ) ;
#174 = CIRCLE ( 'NONE', #164, 0.1562500000000000000 ) ;
#175 = ORIENTED_EDGE ( 'NONE', *, *, #56, .F. ) ;
#176 = DIMENSIONAL_EXPONENTS ( 1.000000000000000000, 0.000000000000000000, 0.000000000000000000, 0.000000000000000000, 0.000000000000000000, 0.000000000000000000, 0.000000000000000000 ) ;
#177 = PRESENTATION_STYLE_ASSIGNMENT (( #321 ) ) ;
#178 =( NAMED_UNIT ( * ) SI_UNIT ( $, .STERADIAN. ) SOLID_ANGLE_UNIT ( ) );
#179 = CIRCLE ( 'NONE', #228, 0.1406000000000000028 ) ;
#180 = LINE ( 'NONE', #41, #236 ) ;
#181 = EDGE_CURVE ( 'NONE', #234, #68, #57, .T. ) ;
#182 = CARTESIAN_POINT ( 'NONE',  ( 7.582401355855259480E-33, 1.000000000000000000, 0.000000000000000000 ) ) ;
#183 = SURFACE_STYLE_FILL_AREA ( #314 ) ;
#184 = DIRECTION ( 'NONE',  ( -0.000000000000000000, -1.000000000000000000, -0.000000000000000000 ) ) ;
#185 =( GEOMETRIC_REPRESENTATION_CONTEXT ( 3 ) GLOBAL_UNCERTAINTY_ASSIGNED_CONTEXT ( ( #301 ) ) GLOBAL_UNIT_ASSIGNED_CONTEXT ( ( #108, #311, #169 ) ) REPRESENTATION_CONTEXT ( 'NONE', 'WORKASPACE' ) );
#186 =( CONVERSION_BASED_UNIT ( 'INCH', #323 ) LENGTH_UNIT ( ) NAMED_UNIT ( #262 ) );
#187 = DIRECTION ( 'NONE',  ( 0.000000000000000000, 0.000000000000000000, -1.000000000000000000 ) ) ;
#188 =( LENGTH_UNIT ( ) NAMED_UNIT ( * ) SI_UNIT ( $, .METRE. ) );
#189 =( LENGTH_UNIT ( ) NAMED_UNIT ( * ) SI_UNIT ( $, .METRE. ) );
#190 = FACE_OUTER_BOUND ( 'NONE', #290, .T. ) ;
#191 = VECTOR ( 'NONE', #352, 39.37007874015748143 ) ;
#192 = SURFACE_STYLE_USAGE ( .BOTH. , #134 ) ;
#193 = DIRECTION ( 'NONE',  ( -3.061616997868386099E-17, 1.000000000000000000, -0.000000000000000000 ) ) ;
#194 = CARTESIAN_POINT ( 'NONE',  ( 0.000000000000000000, 0.000000000000000000, -0.1406000000000000028 ) ) ;
#195 = ADVANCED_FACE ( 'NONE', ( #249 ), #9, .T. ) ;
#196 = CIRCLE ( 'NONE', #312, 0.1562499999999999445 ) ;
#197 = EDGE_CURVE ( 'NONE', #113, #124, #248, .T. ) ;
#198 = ORIENTED_EDGE ( 'NONE', *, *, #112, .F. ) ;
#199 = CARTESIAN_POINT ( 'NONE',  ( 0.1406000000000000028, 1.000000000000000000, 1.817682011634458948E-17 ) ) ;
#200 = EDGE_CURVE ( 'NONE', #68, #234, #196, .T. ) ;
#201 = CYLINDRICAL_SURFACE ( 'NONE', #229, 0.1562499999999999722 ) ;
#202 = VERTEX_POINT ( 'NONE', #255 ) ;
#203 =( NAMED_UNIT ( * ) PLANE_ANGLE_UNIT ( ) SI_UNIT ( $, .RADIAN. ) );
#204 = ORIENTED_EDGE ( 'NONE', *, *, #62, .F. ) ;
#205 = DIRECTION ( 'NONE',  ( -3.061616997868386099E-17, 1.000000000000000000, -0.000000000000000000 ) ) ;
#206 = ORIENTED_EDGE ( 'NONE', *, *, #197, .F. ) ;
#207 = PRESENTATION_LAYER_ASSIGNMENT (  '', '', ( #157 ) ) ;
#208 = FILL_AREA_STYLE ('',( #251 ) ) ;
#209 = ORIENTED_EDGE ( 'NONE', *, *, #62, .T. ) ;
#210 = CARTESIAN_POINT ( 'NONE',  ( 1.721853399601178741E-17, 0.000000000000000000, 0.1406000000000000028 ) ) ;
#211 = LENGTH_MEASURE_WITH_UNIT ( LENGTH_MEASURE( 0.02539999999999999897 ), #43 );
#212 =( CONVERSION_BASED_UNIT ( 'INCH', #244 ) LENGTH_UNIT ( ) NAMED_UNIT ( #93 ) );
#213 = CARTESIAN_POINT ( 'NONE',  ( -6.123233995736772199E-17, 3.000000000000000444, 0.000000000000000000 ) ) ;
#214 = CARTESIAN_POINT ( 'NONE',  ( 7.582401355855259480E-33, 1.000000000000000000, 0.000000000000000000 ) ) ;
#215 =( NAMED_UNIT ( * ) PLANE_ANGLE_UNIT ( ) SI_UNIT ( $, .RADIAN. ) );
#216 = PRODUCT_RELATED_PRODUCT_CATEGORY ( 'part', '', ( #77 ) ) ;
#217 = PRESENTATION_LAYER_ASSIGNMENT (  '', '', ( #254 ) ) ;
#218 = EDGE_CURVE ( 'NONE', #292, #20, #174, .T. ) ;
#219 =( NAMED_UNIT ( * ) SI_UNIT ( $, .STERADIAN. ) SOLID_ANGLE_UNIT ( ) );
#220 = UNCERTAINTY_MEASURE_WITH_UNIT (LENGTH_MEASURE( 1.000000000000000082E-05 ), #186, 'distance_accuracy_value', 'NONE');
#221 = CIRCLE ( 'NONE', #297, 0.1406000000000000028 ) ;
#222 = EDGE_CURVE ( 'NONE', #160, #68, #344, .T. ) ;
#223 = EDGE_LOOP ( 'NONE', ( #30, #342, #286, #145 ) ) ;
#224 = FILL_AREA_STYLE ('',( #114 ) ) ;
#225 = EDGE_LOOP ( 'NONE', ( #277, #83 ) ) ;
#226 = DIRECTION ( 'NONE',  ( -3.061616997868386099E-17, 1.000000000000000000, -0.000000000000000000 ) ) ;
#227 = ORIENTED_EDGE ( 'NONE', *, *, #200, .T. ) ;
#228 = AXIS2_PLACEMENT_3D ( 'NONE', #28, #142, #6 ) ;
#229 = AXIS2_PLACEMENT_3D ( 'NONE', #153, #226, #14 ) ;
#230 = UNCERTAINTY_MEASURE_WITH_UNIT (LENGTH_MEASURE( 1.000000000000000082E-05 ), #132, 'distance_accuracy_value', 'NONE');
#231 = FILL_AREA_STYLE_COLOUR ( '', #84 ) ;
#232 = FACE_OUTER_BOUND ( 'NONE', #238, .T. ) ;
#233 = CARTESIAN_POINT ( 'NONE',  ( -1.316434738495560095E-18, 1.042998021614464532, 0.000000000000000000 ) ) ;
#234 = VERTEX_POINT ( 'NONE', #38 ) ;
#235 = PRESENTATION_LAYER_ASSIGNMENT (  '', '', ( #298 ) ) ;
#236 = VECTOR ( 'NONE', #257, 39.37007874015748143 ) ;
#237 = DIRECTION ( 'NONE',  ( -3.061616997868386099E-17, 1.000000000000000000, -0.000000000000000000 ) ) ;
#238 = EDGE_LOOP ( 'NONE', ( #265, #120, #31, #175 ) ) ;
#239 = FACE_OUTER_BOUND ( 'NONE', #225, .T. ) ;
#240 = FILL_AREA_STYLE_COLOUR ( '', #111 ) ;
#241 = CARTESIAN_POINT ( 'NONE',  ( -6.123233995736772199E-17, 3.000000000000000444, 0.000000000000000000 ) ) ;
#242 = AXIS2_PLACEMENT_3D ( 'NONE', #241, #135, #356 ) ;
#243 = PRODUCT_CONTEXT ( 'NONE', #91, 'mechanical' ) ;
#244 = LENGTH_MEASURE_WITH_UNIT ( LENGTH_MEASURE( 0.02539999999999999897 ), #104 );
#245 = DIRECTION ( 'NONE',  ( -3.061616997868386099E-17, 1.000000000000000000, 0.000000000000000000 ) ) ;
#246 = ORIENTED_EDGE ( 'NONE', *, *, #156, .F. ) ;
#247 = APPLICATION_CONTEXT ( 'automotive_design' ) ;
#248 = CIRCLE ( 'NONE', #350, 0.1406000000000000028 ) ;
#249 = FACE_OUTER_BOUND ( 'NONE', #90, .T. ) ;
#250 = ORIENTED_EDGE ( 'NONE', *, *, #146, .F. ) ;
#251 = FILL_AREA_STYLE_COLOUR ( '', #46 ) ;
#252 = DIRECTION ( 'NONE',  ( -1.000000000000000000, 0.000000000000000000, 0.000000000000000000 ) ) ;
#253 = EDGE_LOOP ( 'NONE', ( #22, #143, #94, #15 ) ) ;
#254 = STYLED_ITEM ( 'NONE', ( #349 ), #11 ) ;
#255 = CARTESIAN_POINT ( 'NONE',  ( 0.000000000000000000, 1.000000000000000000, -0.1406000000000000028 ) ) ;
#256 = ADVANCED_FACE ( 'NONE', ( #98 ), #201, .T. ) ;
#257 = DIRECTION ( 'NONE',  ( -0.000000000000000000, -1.000000000000000000, -0.000000000000000000 ) ) ;
#258 = ORIENTED_EDGE ( 'NONE', *, *, #197, .T. ) ;
#259 = ADVANCED_FACE ( 'NONE', ( #121 ), #67, .T. ) ;
#260 = DIRECTION ( 'NONE',  ( -0.000000000000000000, -1.000000000000000000, -0.000000000000000000 ) ) ;
#261 = ORIENTED_EDGE ( 'NONE', *, *, #269, .F. ) ;
#262 = DIMENSIONAL_EXPONENTS ( 1.000000000000000000, 0.000000000000000000, 0.000000000000000000, 0.000000000000000000, 0.000000000000000000, 0.000000000000000000, 0.000000000000000000 ) ;
#263 = MECHANICAL_DESIGN_GEOMETRIC_PRESENTATION_REPRESENTATION (  '', ( #157 ), #185 ) ;
#264 = ADVANCED_FACE ( 'NONE', ( #232 ), #275, .T. ) ;
#265 = ORIENTED_EDGE ( 'NONE', *, *, #112, .T. ) ;
#266 = DIRECTION ( 'NONE',  ( -1.000000000000000000, 0.000000000000000000, 0.000000000000000000 ) ) ;
#267 = CARTESIAN_POINT ( 'NONE',  ( -0.1406000000000000028, 1.000000000000000000, 0.000000000000000000 ) ) ;
#268 =( NAMED_UNIT ( * ) SI_UNIT ( $, .STERADIAN. ) SOLID_ANGLE_UNIT ( ) );
#269 = EDGE_CURVE ( 'NONE', #202, #113, #180, .T. ) ;
#270 = VECTOR ( 'NONE', #338, 39.37007874015748143 ) ;
#271 = DIRECTION ( 'NONE',  ( 1.000000000000000000, 3.061616997868386099E-17, 0.000000000000000000 ) ) ;
#272 = FACE_OUTER_BOUND ( 'NONE', #223, .T. ) ;
#273 = APPLICATION_PROTOCOL_DEFINITION ( 'draft international standard', 'automotive_design', 1998, #91 ) ;
#274 = CIRCLE ( 'NONE', #19, 0.1406000000000000028 ) ;
#275 = CONICAL_SURFACE ( 'NONE', #52, 0.1406000000000000028, 0.3490658503988668393 ) ;
#276 = SURFACE_STYLE_FILL_AREA ( #144 ) ;
#277 = ORIENTED_EDGE ( 'NONE', *, *, #218, .T. ) ;
#278 = CARTESIAN_POINT ( 'NONE',  ( 0.1562499999999999167, 3.000000000000000444, 1.913510623667738847E-17 ) ) ;
#279 = CLOSED_SHELL ( 'NONE', ( #195, #303, #58, #11 ) ) ;
#280 = SURFACE_SIDE_STYLE ('',( #276 ) ) ;
#281 = AXIS2_PLACEMENT_3D ( 'NONE', #165, #332, #53 ) ;
#282 = LENGTH_MEASURE_WITH_UNIT ( LENGTH_MEASURE( 0.02539999999999999897 ), #126 );
#283 = UNCERTAINTY_MEASURE_WITH_UNIT (LENGTH_MEASURE( 1.000000000000000082E-05 ), #89, 'distance_accuracy_value', 'NONE');
#284 = EDGE_CURVE ( 'NONE', #345, #124, #347, .T. ) ;
#285 = DIRECTION ( 'NONE',  ( -1.000000000000000000, 0.000000000000000000, 0.000000000000000000 ) ) ;
#286 = ORIENTED_EDGE ( 'NONE', *, *, #269, .T. ) ;
#287 = EDGE_LOOP ( 'NONE', ( #246, #227, #209, #320 ) ) ;
#288 = MECHANICAL_DESIGN_GEOMETRIC_PRESENTATION_REPRESENTATION (  '', ( #254 ), #3 ) ;
#289 = CARTESIAN_POINT ( 'NONE',  ( 7.582401355855259480E-33, 1.000000000000000000, 0.000000000000000000 ) ) ;
#290 = EDGE_LOOP ( 'NONE', ( #70, #308, #115, #204 ) ) ;
#291 = CARTESIAN_POINT ( 'NONE',  ( 0.000000000000000000, 0.000000000000000000, 0.000000000000000000 ) ) ;
#292 = VERTEX_POINT ( 'NONE', #34 ) ;
#293 = APPLICATION_PROTOCOL_DEFINITION ( 'draft international standard', 'automotive_design', 1998, #247 ) ;
#294 = DIRECTION ( 'NONE',  ( 0.000000000000000000, 1.000000000000000000, 0.000000000000000000 ) ) ;
#295 = LENGTH_MEASURE_WITH_UNIT ( LENGTH_MEASURE( 0.02539999999999999897 ), #189 );
#296 = LINE ( 'NONE', #357, #7 ) ;
#297 = AXIS2_PLACEMENT_3D ( 'NONE', #81, #51, #331 ) ;
#298 = STYLED_ITEM ( 'NONE', ( #177 ), #195 ) ;
#299 = FILL_AREA_STYLE ('',( #48 ) ) ;
#300 = CARTESIAN_POINT ( 'NONE',  ( 0.1562499999999999445, 3.000000000000000444, 1.913510623667738847E-17 ) ) ;
#301 = UNCERTAINTY_MEASURE_WITH_UNIT (LENGTH_MEASURE( 1.000000000000000082E-05 ), #108, 'distance_accuracy_value', 'NONE');
#302 = SURFACE_STYLE_USAGE ( .BOTH. , #280 ) ;
#303 = ADVANCED_FACE ( 'NONE', ( #149 ), #12, .T. ) ;
#304 = MECHANICAL_DESIGN_GEOMETRIC_PRESENTATION_REPRESENTATION (  '', ( #298 ), #37 ) ;
#305 =( GEOMETRIC_REPRESENTATION_CONTEXT ( 3 ) GLOBAL_UNCERTAINTY_ASSIGNED_CONTEXT ( ( #230 ) ) GLOBAL_UNIT_ASSIGNED_CONTEXT ( ( #132, #354, #359 ) ) REPRESENTATION_CONTEXT ( 'NONE', 'WORKASPACE' ) );
#306 = DIRECTION ( 'NONE',  ( -1.000000000000000000, -3.061616997868386099E-17, 0.000000000000000000 ) ) ;
#307 = PRODUCT_DEFINITION ( 'UNKNOWN', '', #21, #4 ) ;
#308 = ORIENTED_EDGE ( 'NONE', *, *, #156, .T. ) ;
#309 = PLANE ( 'NONE',  #13 ) ;
#310 = AXIS2_PLACEMENT_3D ( 'NONE', #166, #324, #187 ) ;
#311 =( NAMED_UNIT ( * ) PLANE_ANGLE_UNIT ( ) SI_UNIT ( $, .RADIAN. ) );
#312 = AXIS2_PLACEMENT_3D ( 'NONE', #233, #237, #252 ) ;
#313 = CARTESIAN_POINT ( 'NONE',  ( 0.1406000000000000028, 1.000000000000000000, 1.721853399601178741E-17 ) ) ;
#314 = FILL_AREA_STYLE ('',( #231 ) ) ;
#315 = CARTESIAN_POINT ( 'NONE',  ( -6.123233995736772199E-17, 3.000000000000000444, 0.000000000000000000 ) ) ;
#316 = SURFACE_SIDE_STYLE ('',( #183 ) ) ;
#317 = DIRECTION ( 'NONE',  ( 0.000000000000000000, 0.000000000000000000, -1.000000000000000000 ) ) ;
#318 = PRESENTATION_LAYER_ASSIGNMENT (  '', '', ( #173 ) ) ;
#319 = SURFACE_STYLE_FILL_AREA ( #208 ) ;
#320 = ORIENTED_EDGE ( 'NONE', *, *, #336, .F. ) ;
#321 = SURFACE_STYLE_USAGE ( .BOTH. , #35 ) ;
#322 = PLANE ( 'NONE',  #74 ) ;
#323 = LENGTH_MEASURE_WITH_UNIT ( LENGTH_MEASURE( 0.02539999999999999897 ), #188 );
#324 = DIRECTION ( 'NONE',  ( -0.000000000000000000, -1.000000000000000000, -0.000000000000000000 ) ) ;
#325 = COLOUR_RGB ( '',1.000000000000000000, 0.000000000000000000, 0.000000000000000000 ) ;
#326 = AXIS2_PLACEMENT_3D ( 'NONE', #23, #294, #130 ) ;
#327 = LINE ( 'NONE', #267, #168 ) ;
#328 = UNCERTAINTY_MEASURE_WITH_UNIT (LENGTH_MEASURE( 1.000000000000000082E-05 ), #212, 'distance_accuracy_value', 'NONE');
#329 = PRESENTATION_STYLE_ASSIGNMENT (( #117 ) ) ;
#330 =( NAMED_UNIT ( * ) SI_UNIT ( $, .STERADIAN. ) SOLID_ANGLE_UNIT ( ) );
#331 = DIRECTION ( 'NONE',  ( 0.000000000000000000, 0.000000000000000000, -1.000000000000000000 ) ) ;
#332 = DIRECTION ( 'NONE',  ( 0.000000000000000000, 0.000000000000000000, 1.000000000000000000 ) ) ;
#333 = CYLINDRICAL_SURFACE ( 'NONE', #310, 0.1406000000000000028 ) ;
#334 = PRODUCT_DEFINITION_SHAPE ( 'NONE', 'NONE',  #307 ) ;
#335 = CARTESIAN_POINT ( 'NONE',  ( 1.721853399601178741E-17, 0.000000000000000000, 0.1406000000000000028 ) ) ;
#336 = EDGE_CURVE ( 'NONE', #20, #292, #96, .T. ) ;
#337 = AXIS2_PLACEMENT_3D ( 'NONE', #214, #193, #55 ) ;
#338 = DIRECTION ( 'NONE',  ( -3.061616997868386099E-17, 1.000000000000000000, -0.000000000000000000 ) ) ;
#339 = DIRECTION ( 'NONE',  ( -3.061616997868386099E-17, 1.000000000000000000, -0.000000000000000000 ) ) ;
#340 = CIRCLE ( 'NONE', #348, 0.1406000000000000028 ) ;
#341 = DIRECTION ( 'NONE',  ( -1.000000000000000000, 0.000000000000000000, 0.000000000000000000 ) ) ;
#342 = ORIENTED_EDGE ( 'NONE', *, *, #146, .T. ) ;
#343 = DIRECTION ( 'NONE',  ( 0.000000000000000000, 0.000000000000000000, -1.000000000000000000 ) ) ;
#344 = LINE ( 'NONE', #313, #191 ) ;
#345 = VERTEX_POINT ( 'NONE', #161 ) ;
#346 = ADVANCED_FACE ( 'NONE', ( #239 ), #105, .F. ) ;
#347 = LINE ( 'NONE', #210, #351 ) ;
#348 = AXIS2_PLACEMENT_3D ( 'NONE', #139, #339, #82 ) ;
#349 = PRESENTATION_STYLE_ASSIGNMENT (( #63 ) ) ;
#350 = AXIS2_PLACEMENT_3D ( 'NONE', #18, #123, #71 ) ;
#351 = VECTOR ( 'NONE', #95, 39.37007874015748143 ) ;
#352 = DIRECTION ( 'NONE',  ( 0.3420201433256695456, 0.9396926207859080948, 4.188538737677002858E-17 ) ) ;
#353 = DIMENSIONAL_EXPONENTS ( 1.000000000000000000, 0.000000000000000000, 0.000000000000000000, 0.000000000000000000, 0.000000000000000000, 0.000000000000000000, 0.000000000000000000 ) ;
#354 =( NAMED_UNIT ( * ) PLANE_ANGLE_UNIT ( ) SI_UNIT ( $, .RADIAN. ) );
#355 = ADVANCED_FACE ( 'NONE', ( #190 ), #99, .T. ) ;
#356 = DIRECTION ( 'NONE',  ( -1.000000000000000000, 0.000000000000000000, 0.000000000000000000 ) ) ;
#357 = CARTESIAN_POINT ( 'NONE',  ( -0.1562500000000000278, 3.000000000000000444, 0.000000000000000000 ) ) ;
#358 =( GEOMETRIC_REPRESENTATION_CONTEXT ( 3 ) GLOBAL_UNCERTAINTY_ASSIGNED_CONTEXT ( ( #328 ) ) GLOBAL_UNIT_ASSIGNED_CONTEXT ( ( #212, #2, #219 ) ) REPRESENTATION_CONTEXT ( 'NONE', 'WORKASPACE' ) );
#359 =( NAMED_UNIT ( * ) SI_UNIT ( $, .STERADIAN. ) SOLID_ANGLE_UNIT ( ) );
ENDSEC;
END-ISO-10303-21;
