ISO-10303-21;
HEADER;
FILE_DESCRIPTION (( 'STEP AP214' ),
    '1' );
FILE_NAME ('Micro_SBMM-080-424.STEP',
    '2021-09-02T17:18:23',
    ( '' ),
    ( '' ),
    'SwSTEP 2.0',
    'SolidWorks 2020',
    '' );
FILE_SCHEMA (( 'AUTOMOTIVE_DESIGN' ));
ENDSEC;

DATA;
#1 = FACE_OUTER_BOUND ( 'NONE', #313, .T. ) ;
#2 = VERTEX_POINT ( 'NONE', #237 ) ;
#3 = ADVANCED_FACE ( 'NONE', ( #150 ), #330, .T. ) ;
#4 = SURFACE_STYLE_USAGE ( .BOTH. , #33 ) ;
#5 = CIRCLE ( 'NONE', #165, 0.1062989999999999768 ) ;
#6 = FILL_AREA_STYLE_COLOUR ( '', #328 ) ;
#7 = ORIENTED_EDGE ( 'NONE', *, *, #136, .T. ) ;
#8 = CARTESIAN_POINT ( 'NONE',  ( -0.1062989999999999491, 0.0000000000000000000, 0.2736715358320045977 ) ) ;
#9 = DIRECTION ( 'NONE',  ( 0.0000000000000000000, 0.0000000000000000000, 1.000000000000000000 ) ) ;
#10 = VERTEX_POINT ( 'NONE', #287 ) ;
#11 = UNCERTAINTY_MEASURE_WITH_UNIT (LENGTH_MEASURE( 1.000000000000000082E-05 ), #336, 'distance_accuracy_value', 'NONE');
#12 = CIRCLE ( 'NONE', #56, 0.1424805000000004540 ) ;
#13 = ORIENTED_EDGE ( 'NONE', *, *, #54, .T. ) ;
#14 = ORIENTED_EDGE ( 'NONE', *, *, #280, .T. ) ;
#15 = SHAPE_DEFINITION_REPRESENTATION ( #261, #205 ) ;
#16 = EDGE_LOOP ( 'NONE', ( #72, #198, #331, #233 ) ) ;
#17 = AXIS2_PLACEMENT_3D ( 'NONE', #244, #48, #292 ) ;
#18 = CARTESIAN_POINT ( 'NONE',  ( 0.1424805000000004540, 1.744882882659150076E-17, 3.937007999999999619 ) ) ;
#19 = DIMENSIONAL_EXPONENTS ( 1.000000000000000000, 0.0000000000000000000, 0.0000000000000000000, 0.0000000000000000000, 0.0000000000000000000, 0.0000000000000000000, 0.0000000000000000000 ) ;
#20 = EDGE_CURVE ( 'NONE', #167, #36, #43, .T. ) ;
#21 = EDGE_LOOP ( 'NONE', ( #286, #301, #58, #279 ) ) ;
#22 = DIRECTION ( 'NONE',  ( 0.0000000000000000000, 0.0000000000000000000, 1.000000000000000000 ) ) ;
#23 = CARTESIAN_POINT ( 'NONE',  ( -0.1062989999999999352, 0.0000000000000000000, 0.0000000000000000000 ) ) ;
#24 = AXIS2_PLACEMENT_3D ( 'NONE', #106, #320, #101 ) ;
#25 = CARTESIAN_POINT ( 'NONE',  ( 0.1062989999999999491, 1.301787301025644591E-17, 0.2736715358320045977 ) ) ;
#26 = ADVANCED_FACE ( 'NONE', ( #203 ), #213, .T. ) ;
#27 = DIRECTION ( 'NONE',  ( -0.0000000000000000000, -0.0000000000000000000, -1.000000000000000000 ) ) ;
#28 = CARTESIAN_POINT ( 'NONE',  ( 0.0000000000000000000, 0.0000000000000000000, 1.717139801784820952 ) ) ;
#29 = VECTOR ( 'NONE', #86, 39.37007874015748143 ) ;
#30 = CARTESIAN_POINT ( 'NONE',  ( 0.0000000000000000000, 0.0000000000000000000, 3.937007999999999619 ) ) ;
#31 = EDGE_CURVE ( 'NONE', #260, #298, #5, .T. ) ;
#32 = CARTESIAN_POINT ( 'NONE',  ( -0.1574804999999999955, 0.0000000000000000000, 3.922008000000000827 ) ) ;
#33 = SURFACE_SIDE_STYLE ('',( #303 ) ) ;
#34 = AXIS2_PLACEMENT_3D ( 'NONE', #245, #74, #340 ) ;
#35 = CARTESIAN_POINT ( 'NONE',  ( 0.0000000000000000000, 9.642868896486256968E-18, 3.414809992080329023E-17 ) ) ;
#36 = VERTEX_POINT ( 'NONE', #67 ) ;
#37 = DIRECTION ( 'NONE',  ( -0.0000000000000000000, -0.0000000000000000000, -1.000000000000000000 ) ) ;
#38 = FILL_AREA_STYLE_COLOUR ( '', #121 ) ;
#39 = EDGE_LOOP ( 'NONE', ( #201, #14, #93, #206, #207 ) ) ;
#40 = PRODUCT_RELATED_PRODUCT_CATEGORY ( 'part', '', ( #232 ) ) ;
#41 = LENGTH_MEASURE_WITH_UNIT ( LENGTH_MEASURE( 0.02539999999999999897 ), #211 );
#42 = ORIENTED_EDGE ( 'NONE', *, *, #169, .F. ) ;
#43 = LINE ( 'NONE', #18, #102 ) ;
#44 = EDGE_CURVE ( 'NONE', #167, #2, #12, .T. ) ;
#45 = MECHANICAL_DESIGN_GEOMETRIC_PRESENTATION_REPRESENTATION (  '', ( #110 ), #51 ) ;
#46 = CARTESIAN_POINT ( 'NONE',  ( 0.0000000000000000000, 0.0000000000000000000, 3.937007999999999619 ) ) ;
#47 = LINE ( 'NONE', #23, #208 ) ;
#48 = DIRECTION ( 'NONE',  ( 0.0000000000000000000, 0.0000000000000000000, 1.000000000000000000 ) ) ;
#49 = CLOSED_SHELL ( 'NONE', ( #290, #26, #249, #258, #3, #147, #254, #214, #87, #339, #332 ) ) ;
#50 = FACE_OUTER_BOUND ( 'NONE', #126, .T. ) ;
#51 =( GEOMETRIC_REPRESENTATION_CONTEXT ( 3 ) GLOBAL_UNCERTAINTY_ASSIGNED_CONTEXT ( ( #149 ) ) GLOBAL_UNIT_ASSIGNED_CONTEXT ( ( #225, #305, #85 ) ) REPRESENTATION_CONTEXT ( 'NONE', 'WORKASPACE' ) );
#52 = CARTESIAN_POINT ( 'NONE',  ( -0.1732285499999997036, 2.121437892784368764E-17, 1.717139801784820952 ) ) ;
#53 = DIRECTION ( 'NONE',  ( -0.0000000000000000000, -0.0000000000000000000, -1.000000000000000000 ) ) ;
#54 = EDGE_CURVE ( 'NONE', #10, #298, #47, .T. ) ;
#55 = DIRECTION ( 'NONE',  ( -1.000000000000000000, 0.0000000000000000000, 0.0000000000000000000 ) ) ;
#56 = AXIS2_PLACEMENT_3D ( 'NONE', #75, #77, #344 ) ;
#57 = VECTOR ( 'NONE', #267, 39.37007874015748143 ) ;
#58 = ORIENTED_EDGE ( 'NONE', *, *, #116, .T. ) ;
#59 = DIRECTION ( 'NONE',  ( 0.0000000000000000000, 0.0000000000000000000, 1.000000000000000000 ) ) ;
#60 = VERTEX_POINT ( 'NONE', #158 ) ;
#61 = CARTESIAN_POINT ( 'NONE',  ( 0.0000000000000000000, 0.0000000000000000000, 0.1574800000000000089 ) ) ;
#62 = ORIENTED_EDGE ( 'NONE', *, *, #105, .T. ) ;
#63 = PRESENTATION_STYLE_ASSIGNMENT (( #4 ) ) ;
#64 = FACE_OUTER_BOUND ( 'NONE', #89, .T. ) ;
#65 = ORIENTED_EDGE ( 'NONE', *, *, #133, .F. ) ;
#66 = EDGE_CURVE ( 'NONE', #36, #112, #266, .T. ) ;
#67 = CARTESIAN_POINT ( 'NONE',  ( 0.1574804999999999955, 1.928579902531247412E-17, 3.922008000000000827 ) ) ;
#68 =( GEOMETRIC_REPRESENTATION_CONTEXT ( 3 ) GLOBAL_UNCERTAINTY_ASSIGNED_CONTEXT ( ( #11 ) ) GLOBAL_UNIT_ASSIGNED_CONTEXT ( ( #336, #97, #315 ) ) REPRESENTATION_CONTEXT ( 'NONE', 'WORKASPACE' ) );
#69 = ORIENTED_EDGE ( 'NONE', *, *, #120, .T. ) ;
#70 = VERTEX_POINT ( 'NONE', #219 ) ;
#71 = FILL_AREA_STYLE ('',( #38 ) ) ;
#72 = ORIENTED_EDGE ( 'NONE', *, *, #157, .F. ) ;
#73 = AXIS2_PLACEMENT_3D ( 'NONE', #61, #117, #170 ) ;
#74 = DIRECTION ( 'NONE',  ( -0.0000000000000000000, -0.0000000000000000000, -1.000000000000000000 ) ) ;
#75 = CARTESIAN_POINT ( 'NONE',  ( 0.0000000000000000000, 0.0000000000000000000, 3.937007999999999619 ) ) ;
#76 = PRODUCT_DEFINITION ( 'UNKNOWN', '', #222, #109 ) ;
#77 = DIRECTION ( 'NONE',  ( 0.0000000000000000000, 0.0000000000000000000, 1.000000000000000000 ) ) ;
#78 = DIRECTION ( 'NONE',  ( 1.000000000000000000, 0.0000000000000000000, 0.0000000000000000000 ) ) ;
#79 = UNCERTAINTY_MEASURE_WITH_UNIT (LENGTH_MEASURE( 1.000000000000000082E-05 ), #259, 'distance_accuracy_value', 'NONE');
#80 = CIRCLE ( 'NONE', #140, 0.1062989999999998797 ) ;
#81 = CARTESIAN_POINT ( 'NONE',  ( 0.0000000000000000000, 0.0000000000000000000, 3.937007999999999619 ) ) ;
#82 = EDGE_CURVE ( 'NONE', #70, #112, #188, .T. ) ;
#83 = CYLINDRICAL_SURFACE ( 'NONE', #283, 0.1062989999999999352 ) ;
#84 = CARTESIAN_POINT ( 'NONE',  ( -0.1574804999999999955, 0.0000000000000000000, 3.937007999999999619 ) ) ;
#85 =( NAMED_UNIT ( * ) SI_UNIT ( $, .STERADIAN. ) SOLID_ANGLE_UNIT ( ) );
#86 = DIRECTION ( 'NONE',  ( -0.0000000000000000000, -0.0000000000000000000, -1.000000000000000000 ) ) ;
#87 = ADVANCED_FACE ( 'NONE', ( #50 ), #114, .T. ) ;
#88 = DIRECTION ( 'NONE',  ( 0.0000000000000000000, 0.0000000000000000000, -1.000000000000000000 ) ) ;
#89 = EDGE_LOOP ( 'NONE', ( #312, #152, #13, #119, #277 ) ) ;
#90 = CIRCLE ( 'NONE', #179, 0.1062989999999999768 ) ;
#91 = PRODUCT_CONTEXT ( 'NONE', #226, 'mechanical' ) ;
#92 = ORIENTED_EDGE ( 'NONE', *, *, #44, .T. ) ;
#93 = ORIENTED_EDGE ( 'NONE', *, *, #173, .F. ) ;
#94 = EDGE_LOOP ( 'NONE', ( #148, #310, #7, #127 ) ) ;
#95 = VECTOR ( 'NONE', #246, 39.37007874015748143 ) ;
#96 = CIRCLE ( 'NONE', #185, 0.1062989999999998797 ) ;
#97 =( NAMED_UNIT ( * ) PLANE_ANGLE_UNIT ( ) SI_UNIT ( $, .RADIAN. ) );
#98 = ORIENTED_EDGE ( 'NONE', *, *, #234, .T. ) ;
#99 = APPLICATION_PROTOCOL_DEFINITION ( 'draft international standard', 'automotive_design', 1998, #226 ) ;
#100 = CARTESIAN_POINT ( 'NONE',  ( 0.0000000000000000000, 0.0000000000000000000, 0.2736715358320045977 ) ) ;
#101 = DIRECTION ( 'NONE',  ( -1.000000000000000000, 0.0000000000000000000, 0.0000000000000000000 ) ) ;
#102 = VECTOR ( 'NONE', #130, 39.37007874015748143 ) ;
#103 = CARTESIAN_POINT ( 'NONE',  ( 0.0000000000000000000, 0.0000000000000000000, 1.535432999999999826 ) ) ;
#104 = DIMENSIONAL_EXPONENTS ( 1.000000000000000000, 0.0000000000000000000, 0.0000000000000000000, 0.0000000000000000000, 0.0000000000000000000, 0.0000000000000000000, 0.0000000000000000000 ) ;
#105 = EDGE_CURVE ( 'NONE', #260, #262, #172, .T. ) ;
#106 = CARTESIAN_POINT ( 'NONE',  ( 0.0000000000000000000, 0.0000000000000000000, 0.2736715358320045977 ) ) ;
#107 = DIRECTION ( 'NONE',  ( -0.0000000000000000000, -0.0000000000000000000, -1.000000000000000000 ) ) ;
#108 = DIRECTION ( 'NONE',  ( -1.000000000000000000, 0.0000000000000000000, 0.0000000000000000000 ) ) ;
#109 = PRODUCT_DEFINITION_CONTEXT ( 'detailed design', #210, 'design' ) ;
#110 = STYLED_ITEM ( 'NONE', ( #63 ), #297 ) ;
#111 = CARTESIAN_POINT ( 'NONE',  ( 0.1062989999999999352, 1.301787301025644282E-17, 0.0000000000000000000 ) ) ;
#112 = VERTEX_POINT ( 'NONE', #321 ) ;
#113 =( LENGTH_UNIT ( ) NAMED_UNIT ( * ) SI_UNIT ( $, .METRE. ) );
#114 = CONICAL_SURFACE ( 'NONE', #311, 0.1732285499999997036, 0.08645134638073882771 ) ;
#115 = ORIENTED_EDGE ( 'NONE', *, *, #306, .T. ) ;
#116 = EDGE_CURVE ( 'NONE', #112, #60, #268, .T. ) ;
#117 = DIRECTION ( 'NONE',  ( -1.000000000000000000, 0.0000000000000000000, 0.0000000000000000000 ) ) ;
#118 = EDGE_LOOP ( 'NONE', ( #151, #263, #62, #123 ) ) ;
#119 = ORIENTED_EDGE ( 'NONE', *, *, #31, .F. ) ;
#120 = EDGE_CURVE ( 'NONE', #2, #285, #137, .T. ) ;
#121 = COLOUR_RGB ( '',0.7921568627450980005, 0.8196078431372548767, 0.9333333333333333481 ) ;
#122 = MECHANICAL_DESIGN_GEOMETRIC_PRESENTATION_REPRESENTATION (  '', ( #144 ), #217 ) ;
#123 = ORIENTED_EDGE ( 'NONE', *, *, #302, .F. ) ;
#124 = DIMENSIONAL_EXPONENTS ( 1.000000000000000000, 0.0000000000000000000, 0.0000000000000000000, 0.0000000000000000000, 0.0000000000000000000, 0.0000000000000000000, 0.0000000000000000000 ) ;
#125 = CARTESIAN_POINT ( 'NONE',  ( 0.0000000000000000000, 0.0000000000000000000, 0.1574800000000000089 ) ) ;
#126 = EDGE_LOOP ( 'NONE', ( #65, #42, #153, #146 ) ) ;
#127 = ORIENTED_EDGE ( 'NONE', *, *, #302, .T. ) ;
#128 = AXIS2_PLACEMENT_3D ( 'NONE', #253, #59, #274 ) ;
#129 = SPHERICAL_SURFACE ( 'NONE', #166, 0.1574799999999999811 ) ;
#130 = DIRECTION ( 'NONE',  ( 0.7071067811865563435, 8.659560562355041327E-17, -0.7071067811865386910 ) ) ;
#131 = EDGE_LOOP ( 'NONE', ( #265, #229, #284, #98 ) ) ;
#132 = DIRECTION ( 'NONE',  ( 1.000000000000000000, 1.224646799147353207E-16, -0.0000000000000000000 ) ) ;
#133 = EDGE_CURVE ( 'NONE', #10, #60, #270, .T. ) ;
#134 = DIRECTION ( 'NONE',  ( 1.000000000000000000, 0.0000000000000000000, 0.0000000000000000000 ) ) ;
#135 = CARTESIAN_POINT ( 'NONE',  ( 0.0000000000000000000, 0.0000000000000000000, 3.922008000000000827 ) ) ;
#136 = EDGE_CURVE ( 'NONE', #298, #236, #299, .T. ) ;
#137 = LINE ( 'NONE', #342, #216 ) ;
#138 = AXIS2_PLACEMENT_3D ( 'NONE', #308, #316, #282 ) ;
#139 = CARTESIAN_POINT ( 'NONE',  ( 0.0000000000000000000, 0.0000000000000000000, 3.937007999999999619 ) ) ;
#140 = AXIS2_PLACEMENT_3D ( 'NONE', #187, #27, #108 ) ;
#141 = EDGE_LOOP ( 'NONE', ( #115, #92 ) ) ;
#142 = DIRECTION ( 'NONE',  ( -1.000000000000000000, 0.0000000000000000000, 0.0000000000000000000 ) ) ;
#143 = CARTESIAN_POINT ( 'NONE',  ( 0.0000000000000000000, 0.0000000000000000000, 3.937007999999999619 ) ) ;
#144 = STYLED_ITEM ( 'NONE', ( #235 ), #205 ) ;
#145 = CARTESIAN_POINT ( 'NONE',  ( 0.0000000000000000000, 0.0000000000000000000, 0.0000000000000000000 ) ) ;
#146 = ORIENTED_EDGE ( 'NONE', *, *, #234, .F. ) ;
#147 = ADVANCED_FACE ( 'NONE', ( #323 ), #189, .T. ) ;
#148 = ORIENTED_EDGE ( 'NONE', *, *, #105, .F. ) ;
#149 = UNCERTAINTY_MEASURE_WITH_UNIT (LENGTH_MEASURE( 1.000000000000000082E-05 ), #225, 'distance_accuracy_value', 'NONE');
#150 = FACE_OUTER_BOUND ( 'NONE', #21, .T. ) ;
#151 = ORIENTED_EDGE ( 'NONE', *, *, #173, .T. ) ;
#152 = ORIENTED_EDGE ( 'NONE', *, *, #169, .T. ) ;
#153 = ORIENTED_EDGE ( 'NONE', *, *, #82, .T. ) ;
#154 = CIRCLE ( 'NONE', #73, 0.1574799999999999256 ) ;
#155 = PRESENTATION_LAYER_ASSIGNMENT (  '', '', ( #144 ) ) ;
#156 = ORIENTED_EDGE ( 'NONE', *, *, #20, .F. ) ;
#157 = EDGE_CURVE ( 'NONE', #10, #70, #96, .T. ) ;
#158 = CARTESIAN_POINT ( 'NONE',  ( -0.1574804999999999955, 0.0000000000000000000, 1.535432999999999826 ) ) ;
#159 = DIRECTION ( 'NONE',  ( -0.7071067811865563435, 0.0000000000000000000, -0.7071067811865386910 ) ) ;
#160 = AXIS2_PLACEMENT_3D ( 'NONE', #46, #182, #337 ) ;
#161 = CIRCLE ( 'NONE', #221, 0.1574804999999999955 ) ;
#162 = CARTESIAN_POINT ( 'NONE',  ( 0.0000000000000000000, 0.0000000000000000000, 0.2736715358320045977 ) ) ;
#163 = DIRECTION ( 'NONE',  ( -1.000000000000000000, 0.0000000000000000000, 0.0000000000000000000 ) ) ;
#164 = DIRECTION ( 'NONE',  ( -0.0000000000000000000, -0.0000000000000000000, -1.000000000000000000 ) ) ;
#165 = AXIS2_PLACEMENT_3D ( 'NONE', #100, #37, #257 ) ;
#166 = AXIS2_PLACEMENT_3D ( 'NONE', #125, #281, #239 ) ;
#167 = VERTEX_POINT ( 'NONE', #338 ) ;
#168 = DIRECTION ( 'NONE',  ( 0.0000000000000000000, 0.0000000000000000000, 1.000000000000000000 ) ) ;
#169 = EDGE_CURVE ( 'NONE', #70, #10, #80, .T. ) ;
#170 = DIRECTION ( 'NONE',  ( 0.0000000000000000000, 0.0000000000000000000, 1.000000000000000000 ) ) ;
#171 = CARTESIAN_POINT ( 'NONE',  ( 1.301787301025644282E-17, -0.1062989999999999491, 0.2736715358320045977 ) ) ;
#172 = CIRCLE ( 'NONE', #238, 0.1574799999999999811 ) ;
#173 = EDGE_CURVE ( 'NONE', #236, #176, #275, .T. ) ;
#174 = FACE_OUTER_BOUND ( 'NONE', #39, .T. ) ;
#175 = FACE_OUTER_BOUND ( 'NONE', #94, .T. ) ;
#176 = VERTEX_POINT ( 'NONE', #25 ) ;
#177 = SURFACE_STYLE_FILL_AREA ( #71 ) ;
#178 = ORIENTED_EDGE ( 'NONE', *, *, #20, .T. ) ;
#179 = AXIS2_PLACEMENT_3D ( 'NONE', #295, #164, #215 ) ;
#180 = ORIENTED_EDGE ( 'NONE', *, *, #314, .F. ) ;
#181 =( NAMED_UNIT ( * ) PLANE_ANGLE_UNIT ( ) SI_UNIT ( $, .RADIAN. ) );
#182 = DIRECTION ( 'NONE',  ( -0.0000000000000000000, -0.0000000000000000000, -1.000000000000000000 ) ) ;
#183 = SURFACE_STYLE_USAGE ( .BOTH. , #307 ) ;
#184 = ORIENTED_EDGE ( 'NONE', *, *, #44, .F. ) ;
#185 = AXIS2_PLACEMENT_3D ( 'NONE', #294, #53, #163 ) ;
#186 = EDGE_CURVE ( 'NONE', #36, #285, #161, .T. ) ;
#187 = CARTESIAN_POINT ( 'NONE',  ( 0.0000000000000000000, 0.0000000000000000000, 0.9448819999999999997 ) ) ;
#188 = LINE ( 'NONE', #220, #247 ) ;
#189 = CYLINDRICAL_SURFACE ( 'NONE', #34, 0.1574804999999999955 ) ;
#190 = AXIS2_PLACEMENT_3D ( 'NONE', #145, #248, #142 ) ;
#191 = FACE_OUTER_BOUND ( 'NONE', #329, .T. ) ;
#192 = DIRECTION ( 'NONE',  ( 0.0000000000000000000, 0.0000000000000000000, -1.000000000000000000 ) ) ;
#193 = CARTESIAN_POINT ( 'NONE',  ( 0.0000000000000000000, 0.0000000000000000000, 0.0000000000000000000 ) ) ;
#194 = AXIS2_PLACEMENT_3D ( 'NONE', #30, #272, #276 ) ;
#195 = DIRECTION ( 'NONE',  ( -0.0000000000000000000, -0.0000000000000000000, -1.000000000000000000 ) ) ;
#196 = ORIENTED_EDGE ( 'NONE', *, *, #306, .F. ) ;
#197 = CYLINDRICAL_SURFACE ( 'NONE', #190, 0.1062989999999999352 ) ;
#198 = ORIENTED_EDGE ( 'NONE', *, *, #133, .T. ) ;
#199 = DIRECTION ( 'NONE',  ( 1.000000000000000000, 0.0000000000000000000, 0.0000000000000000000 ) ) ;
#200 = AXIS2_PLACEMENT_3D ( 'NONE', #103, #289, #218 ) ;
#201 = ORIENTED_EDGE ( 'NONE', *, *, #157, .T. ) ;
#202 = APPLICATION_PROTOCOL_DEFINITION ( 'draft international standard', 'automotive_design', 1998, #210 ) ;
#203 = FACE_OUTER_BOUND ( 'NONE', #118, .T. ) ;
#204 = CARTESIAN_POINT ( 'NONE',  ( 0.0000000000000000000, 0.0000000000000000000, 0.0000000000000000000 ) ) ;
#205 = ADVANCED_BREP_SHAPE_REPRESENTATION ( 'Micro_SBMM-080-424', ( #297, #231 ), #68 ) ;
#206 = ORIENTED_EDGE ( 'NONE', *, *, #136, .F. ) ;
#207 = ORIENTED_EDGE ( 'NONE', *, *, #54, .F. ) ;
#208 = VECTOR ( 'NONE', #107, 39.37007874015748143 ) ;
#209 = CONICAL_SURFACE ( 'NONE', #194, 0.1424805000000004540, 0.7853981633974608245 ) ;
#210 = APPLICATION_CONTEXT ( 'automotive_design' ) ;
#211 =( LENGTH_UNIT ( ) NAMED_UNIT ( * ) SI_UNIT ( $, .METRE. ) );
#212 = ORIENTED_EDGE ( 'NONE', *, *, #186, .F. ) ;
#213 = SPHERICAL_SURFACE ( 'NONE', #138, 0.1574799999999999811 ) ;
#214 = ADVANCED_FACE ( 'NONE', ( #191 ), #318, .T. ) ;
#215 = DIRECTION ( 'NONE',  ( -1.000000000000000000, 0.0000000000000000000, 0.0000000000000000000 ) ) ;
#216 = VECTOR ( 'NONE', #159, 39.37007874015748143 ) ;
#217 =( GEOMETRIC_REPRESENTATION_CONTEXT ( 3 ) GLOBAL_UNCERTAINTY_ASSIGNED_CONTEXT ( ( #79 ) ) GLOBAL_UNIT_ASSIGNED_CONTEXT ( ( #259, #181, #255 ) ) REPRESENTATION_CONTEXT ( 'NONE', 'WORKASPACE' ) );
#218 = DIRECTION ( 'NONE',  ( 1.000000000000000000, 0.0000000000000000000, 0.0000000000000000000 ) ) ;
#219 = CARTESIAN_POINT ( 'NONE',  ( 0.1062989999999998797, 0.0000000000000000000, 0.9448819999999999997 ) ) ;
#220 = CARTESIAN_POINT ( 'NONE',  ( 0.1732285499999997036, 0.0000000000000000000, 1.717139801784820952 ) ) ;
#221 = AXIS2_PLACEMENT_3D ( 'NONE', #135, #343, #78 ) ;
#222 = PRODUCT_DEFINITION_FORMATION_WITH_SPECIFIED_SOURCE ( 'ANY', '', #232, .NOT_KNOWN. ) ;
#223 = DIRECTION ( 'NONE',  ( -0.0000000000000000000, -0.0000000000000000000, -1.000000000000000000 ) ) ;
#224 = EDGE_CURVE ( 'NONE', #176, #260, #90, .T. ) ;
#225 =( CONVERSION_BASED_UNIT ( 'INCH', #345 ) LENGTH_UNIT ( ) NAMED_UNIT ( #104 ) );
#226 = APPLICATION_CONTEXT ( 'automotive_design' ) ;
#227 = FACE_OUTER_BOUND ( 'NONE', #141, .T. ) ;
#228 = DIRECTION ( 'NONE',  ( 1.000000000000000000, 0.0000000000000000000, 0.0000000000000000000 ) ) ;
#229 = ORIENTED_EDGE ( 'NONE', *, *, #186, .T. ) ;
#230 = DIRECTION ( 'NONE',  ( 1.000000000000000000, 0.0000000000000000000, 0.0000000000000000000 ) ) ;
#231 = AXIS2_PLACEMENT_3D ( 'NONE', #204, #9, #230 ) ;
#232 = PRODUCT ( 'Micro_SBMM-080-424', 'Micro_SBMM-080-424', '', ( #91 ) ) ;
#233 = ORIENTED_EDGE ( 'NONE', *, *, #82, .F. ) ;
#234 = EDGE_CURVE ( 'NONE', #60, #112, #322, .T. ) ;
#235 = PRESENTATION_STYLE_ASSIGNMENT (( #183 ) ) ;
#236 = VERTEX_POINT ( 'NONE', #319 ) ;
#237 = CARTESIAN_POINT ( 'NONE',  ( -0.1424805000000004540, 0.0000000000000000000, 3.937007999999999619 ) ) ;
#238 = AXIS2_PLACEMENT_3D ( 'NONE', #291, #132, #242 ) ;
#239 = DIRECTION ( 'NONE',  ( 0.0000000000000000000, 1.000000000000000000, 0.0000000000000000000 ) ) ;
#240 = EDGE_CURVE ( 'NONE', #285, #60, #278, .T. ) ;
#241 = DIRECTION ( 'NONE',  ( -1.000000000000000000, 0.0000000000000000000, 0.0000000000000000000 ) ) ;
#242 = DIRECTION ( 'NONE',  ( -1.224646799147352961E-16, 1.000000000000000000, 0.0000000000000000000 ) ) ;
#243 = CIRCLE ( 'NONE', #293, 0.1574804999999999955 ) ;
#244 = CARTESIAN_POINT ( 'NONE',  ( 0.0000000000000000000, 0.0000000000000000000, 1.535432999999999826 ) ) ;
#245 = CARTESIAN_POINT ( 'NONE',  ( 0.0000000000000000000, 0.0000000000000000000, 3.937007999999999619 ) ) ;
#246 = DIRECTION ( 'NONE',  ( -0.0000000000000000000, -0.0000000000000000000, -1.000000000000000000 ) ) ;
#247 = VECTOR ( 'NONE', #317, 39.37007874015748143 ) ;
#248 = DIRECTION ( 'NONE',  ( -0.0000000000000000000, -0.0000000000000000000, -1.000000000000000000 ) ) ;
#249 = ADVANCED_FACE ( 'NONE', ( #324 ), #288, .T. ) ;
#250 = PLANE ( 'NONE',  #341 ) ;
#251 = FILL_AREA_STYLE ('',( #6 ) ) ;
#252 = VECTOR ( 'NONE', #195, 39.37007874015748143 ) ;
#253 = CARTESIAN_POINT ( 'NONE',  ( 0.0000000000000000000, 0.0000000000000000000, 1.717139801784820952 ) ) ;
#254 = ADVANCED_FACE ( 'NONE', ( #227 ), #250, .T. ) ;
#255 =( NAMED_UNIT ( * ) SI_UNIT ( $, .STERADIAN. ) SOLID_ANGLE_UNIT ( ) );
#256 = AXIS2_PLACEMENT_3D ( 'NONE', #162, #223, #269 ) ;
#257 = DIRECTION ( 'NONE',  ( -1.000000000000000000, 0.0000000000000000000, 0.0000000000000000000 ) ) ;
#258 = ADVANCED_FACE ( 'NONE', ( #1 ), #209, .T. ) ;
#259 =( CONVERSION_BASED_UNIT ( 'INCH', #41 ) LENGTH_UNIT ( ) NAMED_UNIT ( #124 ) );
#260 = VERTEX_POINT ( 'NONE', #171 ) ;
#261 = PRODUCT_DEFINITION_SHAPE ( 'NONE', 'NONE',  #76 ) ;
#262 = VERTEX_POINT ( 'NONE', #35 ) ;
#263 = ORIENTED_EDGE ( 'NONE', *, *, #224, .T. ) ;
#264 = AXIS2_PLACEMENT_3D ( 'NONE', #143, #325, #228 ) ;
#265 = ORIENTED_EDGE ( 'NONE', *, *, #66, .F. ) ;
#266 = LINE ( 'NONE', #271, #95 ) ;
#267 = DIRECTION ( 'NONE',  ( -0.08634369942813718835, 1.057405351312093567E-17, 0.9962654092003110362 ) ) ;
#268 = CIRCLE ( 'NONE', #17, 0.1574804999999999955 ) ;
#269 = DIRECTION ( 'NONE',  ( -1.000000000000000000, 0.0000000000000000000, 0.0000000000000000000 ) ) ;
#270 = LINE ( 'NONE', #52, #57 ) ;
#271 = CARTESIAN_POINT ( 'NONE',  ( 0.1574804999999999955, 1.928579902531247412E-17, 3.937007999999999619 ) ) ;
#272 = DIRECTION ( 'NONE',  ( 0.0000000000000000000, 0.0000000000000000000, -1.000000000000000000 ) ) ;
#273 = DIRECTION ( 'NONE',  ( 1.000000000000000000, 0.0000000000000000000, -0.0000000000000000000 ) ) ;
#274 = DIRECTION ( 'NONE',  ( 1.000000000000000000, 0.0000000000000000000, 0.0000000000000000000 ) ) ;
#275 = CIRCLE ( 'NONE', #256, 0.1062989999999999768 ) ;
#276 = DIRECTION ( 'NONE',  ( -1.000000000000000000, 0.0000000000000000000, 0.0000000000000000000 ) ) ;
#277 = ORIENTED_EDGE ( 'NONE', *, *, #224, .F. ) ;
#278 = LINE ( 'NONE', #84, #29 ) ;
#279 = ORIENTED_EDGE ( 'NONE', *, *, #240, .F. ) ;
#280 = EDGE_CURVE ( 'NONE', #70, #176, #300, .T. ) ;
#281 = DIRECTION ( 'NONE',  ( 1.000000000000000000, 0.0000000000000000000, 0.0000000000000000000 ) ) ;
#282 = DIRECTION ( 'NONE',  ( 0.0000000000000000000, 1.000000000000000000, 0.0000000000000000000 ) ) ;
#283 = AXIS2_PLACEMENT_3D ( 'NONE', #193, #296, #55 ) ;
#284 = ORIENTED_EDGE ( 'NONE', *, *, #240, .T. ) ;
#285 = VERTEX_POINT ( 'NONE', #32 ) ;
#286 = ORIENTED_EDGE ( 'NONE', *, *, #314, .T. ) ;
#287 = CARTESIAN_POINT ( 'NONE',  ( -0.1062989999999998797, 1.615183601778445462E-17, 0.9448819999999999997 ) ) ;
#288 = CONICAL_SURFACE ( 'NONE', #128, 0.1732285499999997036, 0.08645134638073882771 ) ;
#289 = DIRECTION ( 'NONE',  ( 0.0000000000000000000, 0.0000000000000000000, 1.000000000000000000 ) ) ;
#290 = ADVANCED_FACE ( 'NONE', ( #174 ), #197, .T. ) ;
#291 = CARTESIAN_POINT ( 'NONE',  ( 0.0000000000000000000, 0.0000000000000000000, 0.1574800000000000089 ) ) ;
#292 = DIRECTION ( 'NONE',  ( 1.000000000000000000, 0.0000000000000000000, 0.0000000000000000000 ) ) ;
#293 = AXIS2_PLACEMENT_3D ( 'NONE', #326, #88, #199 ) ;
#294 = CARTESIAN_POINT ( 'NONE',  ( 0.0000000000000000000, 0.0000000000000000000, 0.9448819999999999997 ) ) ;
#295 = CARTESIAN_POINT ( 'NONE',  ( 0.0000000000000000000, 0.0000000000000000000, 0.2736715358320045977 ) ) ;
#296 = DIRECTION ( 'NONE',  ( -0.0000000000000000000, -0.0000000000000000000, -1.000000000000000000 ) ) ;
#297 = MANIFOLD_SOLID_BREP ( 'Cut-Revolve3', #49 ) ;
#298 = VERTEX_POINT ( 'NONE', #8 ) ;
#299 = CIRCLE ( 'NONE', #24, 0.1062989999999999768 ) ;
#300 = LINE ( 'NONE', #111, #252 ) ;
#301 = ORIENTED_EDGE ( 'NONE', *, *, #66, .T. ) ;
#302 = EDGE_CURVE ( 'NONE', #236, #262, #154, .T. ) ;
#303 = SURFACE_STYLE_FILL_AREA ( #251 ) ;
#304 = CIRCLE ( 'NONE', #264, 0.1424805000000004540 ) ;
#305 =( NAMED_UNIT ( * ) PLANE_ANGLE_UNIT ( ) SI_UNIT ( $, .RADIAN. ) );
#306 = EDGE_CURVE ( 'NONE', #2, #167, #304, .T. ) ;
#307 = SURFACE_SIDE_STYLE ('',( #177 ) ) ;
#308 = CARTESIAN_POINT ( 'NONE',  ( 0.0000000000000000000, 0.0000000000000000000, 0.1574800000000000089 ) ) ;
#309 = LENGTH_MEASURE_WITH_UNIT ( LENGTH_MEASURE( 0.02539999999999999897 ), #333 );
#310 = ORIENTED_EDGE ( 'NONE', *, *, #31, .T. ) ;
#311 = AXIS2_PLACEMENT_3D ( 'NONE', #28, #22, #134 ) ;
#312 = ORIENTED_EDGE ( 'NONE', *, *, #280, .F. ) ;
#313 = EDGE_LOOP ( 'NONE', ( #184, #178, #180, #335 ) ) ;
#314 = EDGE_CURVE ( 'NONE', #285, #36, #243, .T. ) ;
#315 =( NAMED_UNIT ( * ) SI_UNIT ( $, .STERADIAN. ) SOLID_ANGLE_UNIT ( ) );
#316 = DIRECTION ( 'NONE',  ( 1.000000000000000000, 0.0000000000000000000, 0.0000000000000000000 ) ) ;
#317 = DIRECTION ( 'NONE',  ( 0.08634369942813718835, 0.0000000000000000000, 0.9962654092003110362 ) ) ;
#318 = CONICAL_SURFACE ( 'NONE', #327, 0.1424805000000004540, 0.7853981633974608245 ) ;
#319 = CARTESIAN_POINT ( 'NONE',  ( 0.0000000000000000000, 0.1062989999999999491, 0.2736715358320045977 ) ) ;
#320 = DIRECTION ( 'NONE',  ( -0.0000000000000000000, -0.0000000000000000000, -1.000000000000000000 ) ) ;
#321 = CARTESIAN_POINT ( 'NONE',  ( 0.1574804999999999955, 1.928579902531247412E-17, 1.535432999999999826 ) ) ;
#322 = CIRCLE ( 'NONE', #200, 0.1574804999999999955 ) ;
#323 = FACE_OUTER_BOUND ( 'NONE', #131, .T. ) ;
#324 = FACE_OUTER_BOUND ( 'NONE', #16, .T. ) ;
#325 = DIRECTION ( 'NONE',  ( 0.0000000000000000000, 0.0000000000000000000, 1.000000000000000000 ) ) ;
#326 = CARTESIAN_POINT ( 'NONE',  ( 0.0000000000000000000, 0.0000000000000000000, 3.922008000000000827 ) ) ;
#327 = AXIS2_PLACEMENT_3D ( 'NONE', #81, #192, #241 ) ;
#328 = COLOUR_RGB ( '',0.7921568627450980005, 0.8196078431372548767, 0.9333333333333333481 ) ;
#329 = EDGE_LOOP ( 'NONE', ( #156, #196, #69, #212 ) ) ;
#330 = CYLINDRICAL_SURFACE ( 'NONE', #160, 0.1574804999999999955 ) ;
#331 = ORIENTED_EDGE ( 'NONE', *, *, #116, .F. ) ;
#332 = ADVANCED_FACE ( 'NONE', ( #64 ), #83, .T. ) ;
#333 =( LENGTH_UNIT ( ) NAMED_UNIT ( * ) SI_UNIT ( $, .METRE. ) );
#334 = PRESENTATION_LAYER_ASSIGNMENT (  '', '', ( #110 ) ) ;
#335 = ORIENTED_EDGE ( 'NONE', *, *, #120, .F. ) ;
#336 =( CONVERSION_BASED_UNIT ( 'INCH', #309 ) LENGTH_UNIT ( ) NAMED_UNIT ( #19 ) );
#337 = DIRECTION ( 'NONE',  ( -1.000000000000000000, 0.0000000000000000000, 0.0000000000000000000 ) ) ;
#338 = CARTESIAN_POINT ( 'NONE',  ( 0.1424805000000004540, 1.836731392595198898E-17, 3.937007999999999619 ) ) ;
#339 = ADVANCED_FACE ( 'NONE', ( #175 ), #129, .T. ) ;
#340 = DIRECTION ( 'NONE',  ( -1.000000000000000000, 0.0000000000000000000, 0.0000000000000000000 ) ) ;
#341 = AXIS2_PLACEMENT_3D ( 'NONE', #139, #168, #273 ) ;
#342 = CARTESIAN_POINT ( 'NONE',  ( -0.1424805000000004540, 0.0000000000000000000, 3.937007999999999619 ) ) ;
#343 = DIRECTION ( 'NONE',  ( 0.0000000000000000000, 0.0000000000000000000, -1.000000000000000000 ) ) ;
#344 = DIRECTION ( 'NONE',  ( 1.000000000000000000, 0.0000000000000000000, 0.0000000000000000000 ) ) ;
#345 = LENGTH_MEASURE_WITH_UNIT ( LENGTH_MEASURE( 0.02539999999999999897 ), #113 );
ENDSEC;
END-ISO-10303-21;
