ISO-10303-21;
HEADER;
FILE_DESCRIPTION (( 'STEP AP214' ),
    '1' );
FILE_NAME ('17090.STEP',
    '2023-06-30T21:52:09',
    ( '' ),
    ( '' ),
    'SwSTEP 2.0',
    'SolidWorks 2023',
    '' );
FILE_SCHEMA (( 'AUTOMOTIVE_DESIGN' ));
ENDSEC;

DATA;
#1 = VERTEX_POINT ( 'NONE', #256 ) ;
#2 = DIRECTION ( 'NONE',  ( 1.000000000000000000, 1.231614398321443036E-16, 0.000000000000000000 ) ) ;
#3 = CARTESIAN_POINT ( 'NONE',  ( -0.09374999999999943101, 0.3125000000000000000, 0.000000000000000000 ) ) ;
#4 =( GEOMETRIC_REPRESENTATION_CONTEXT ( 3 ) GLOBAL_UNCERTAINTY_ASSIGNED_CONTEXT ( ( #370 ) ) GLOBAL_UNIT_ASSIGNED_CONTEXT ( ( #26, #116, #353 ) ) REPRESENTATION_CONTEXT ( 'NONE', 'WORKASPACE' ) );
#5 = ADVANCED_FACE ( 'NONE', ( #101 ), #331, .F. ) ;
#6 = DIRECTION ( 'NONE',  ( 0.000000000000000000, 0.000000000000000000, -1.000000000000000000 ) ) ;
#7 = CARTESIAN_POINT ( 'NONE',  ( 0.09374999999999998612, 0.09375000000000004163, 0.000000000000000000 ) ) ;
#8 = DIRECTION ( 'NONE',  ( -1.000000000000000000, 0.000000000000000000, 0.000000000000000000 ) ) ;
#9 = CARTESIAN_POINT ( 'NONE',  ( 2.690672696741111573E-16, 0.3125000000000000000, 0.000000000000000000 ) ) ;
#10 = APPLICATION_PROTOCOL_DEFINITION ( 'draft international standard', 'automotive_design', 1998, #234 ) ;
#11 = AXIS2_PLACEMENT_3D ( 'NONE', #9, #95, #274 ) ;
#12 = PRESENTATION_LAYER_ASSIGNMENT (  '', '', ( #111 ) ) ;
#13 = DIRECTION ( 'NONE',  ( -0.000000000000000000, -1.000000000000000000, -0.000000000000000000 ) ) ;
#14 = DIRECTION ( 'NONE',  ( 0.000000000000000000, 0.000000000000000000, -1.000000000000000000 ) ) ;
#15 = SURFACE_STYLE_USAGE ( .BOTH. , #368 ) ;
#16 = ORIENTED_EDGE ( 'NONE', *, *, #259, .F. ) ;
#17 =( NAMED_UNIT ( * ) PLANE_ANGLE_UNIT ( ) SI_UNIT ( $, .RADIAN. ) );
#18 =( NAMED_UNIT ( * ) SI_UNIT ( $, .STERADIAN. ) SOLID_ANGLE_UNIT ( ) );
#19 =( GEOMETRIC_REPRESENTATION_CONTEXT ( 3 ) GLOBAL_UNCERTAINTY_ASSIGNED_CONTEXT ( ( #49 ) ) GLOBAL_UNIT_ASSIGNED_CONTEXT ( ( #81, #237, #233 ) ) REPRESENTATION_CONTEXT ( 'NONE', 'WORKASPACE' ) );
#20 = CARTESIAN_POINT ( 'NONE',  ( 0.000000000000000000, 0.3125000000000000000, 0.000000000000000000 ) ) ;
#21 = ADVANCED_BREP_SHAPE_REPRESENTATION ( '17090', ( #218, #344, #131 ), #29 ) ;
#22 = EDGE_CURVE ( 'NONE', #1, #103, #296, .T. ) ;
#23 = UNCERTAINTY_MEASURE_WITH_UNIT (LENGTH_MEASURE( 1.000000000000000082E-05 ), #149, 'distance_accuracy_value', 'NONE');
#24 = CARTESIAN_POINT ( 'NONE',  ( -1.148106374200644017E-17, 0.09375000000000002776, 0.000000000000000000 ) ) ;
#25 = AXIS2_PLACEMENT_3D ( 'NONE', #323, #58, #328 ) ;
#26 =( CONVERSION_BASED_UNIT ( 'INCH', #125 ) LENGTH_UNIT ( ) NAMED_UNIT ( #312 ) );
#27 = EDGE_CURVE ( 'NONE', #76, #350, #91, .T. ) ;
#28 = COLOUR_RGB ( '',1.000000000000000000, 0.000000000000000000, 0.000000000000000000 ) ;
#29 =( GEOMETRIC_REPRESENTATION_CONTEXT ( 3 ) GLOBAL_UNCERTAINTY_ASSIGNED_CONTEXT ( ( #207 ) ) GLOBAL_UNIT_ASSIGNED_CONTEXT ( ( #194, #17, #18 ) ) REPRESENTATION_CONTEXT ( 'NONE', 'WORKASPACE' ) );
#30 = LENGTH_MEASURE_WITH_UNIT ( LENGTH_MEASURE( 0.02539999999999999897 ), #56 );
#31 = CARTESIAN_POINT ( 'NONE',  ( 6.123233995736766036E-17, 2.000000000000000000, 0.000000000000000000 ) ) ;
#32 = CARTESIAN_POINT ( 'NONE',  ( 1.148106374200643401E-17, 0.09375000000000004163, 0.09374999999999998612 ) ) ;
#33 = LENGTH_MEASURE_WITH_UNIT ( LENGTH_MEASURE( 0.02539999999999999897 ), #48 );
#34 = AXIS2_PLACEMENT_3D ( 'NONE', #354, #152, #8 ) ;
#35 = LINE ( 'NONE', #151, #143 ) ;
#36 = DIRECTION ( 'NONE',  ( -1.231614398321443036E-16, 1.000000000000000000, -0.000000000000000000 ) ) ;
#37 = DIRECTION ( 'NONE',  ( 0.000000000000000000, -0.000000000000000000, 1.000000000000000000 ) ) ;
#38 = ORIENTED_EDGE ( 'NONE', *, *, #355, .T. ) ;
#39 = SPHERICAL_SURFACE ( 'NONE', #92, 0.09375000000000002776 ) ;
#40 = CARTESIAN_POINT ( 'NONE',  ( 0.000000000000000000, 0.09375000000000004163, 0.000000000000000000 ) ) ;
#41 = DIRECTION ( 'NONE',  ( 0.000000000000000000, 0.000000000000000000, 1.000000000000000000 ) ) ;
#42 = DIMENSIONAL_EXPONENTS ( 1.000000000000000000, 0.000000000000000000, 0.000000000000000000, 0.000000000000000000, 0.000000000000000000, 0.000000000000000000, 0.000000000000000000 ) ;
#43 = CIRCLE ( 'NONE', #121, 0.09374999999999969469 ) ;
#44 = ORIENTED_EDGE ( 'NONE', *, *, #204, .T. ) ;
#45 = PRODUCT_DEFINITION_SHAPE ( 'NONE', 'NONE',  #301 ) ;
#46 = DIMENSIONAL_EXPONENTS ( 1.000000000000000000, 0.000000000000000000, 0.000000000000000000, 0.000000000000000000, 0.000000000000000000, 0.000000000000000000, 0.000000000000000000 ) ;
#47 = CARTESIAN_POINT ( 'NONE',  ( 0.000000000000000000, 0.3125000000000000000, 0.000000000000000000 ) ) ;
#48 =( LENGTH_UNIT ( ) NAMED_UNIT ( * ) SI_UNIT ( $, .METRE. ) );
#49 = UNCERTAINTY_MEASURE_WITH_UNIT (LENGTH_MEASURE( 1.000000000000000082E-05 ), #81, 'distance_accuracy_value', 'NONE');
#50 = DIMENSIONAL_EXPONENTS ( 1.000000000000000000, 0.000000000000000000, 0.000000000000000000, 0.000000000000000000, 0.000000000000000000, 0.000000000000000000, 0.000000000000000000 ) ;
#51 = DIRECTION ( 'NONE',  ( 1.224646799147353207E-16, -0.000000000000000000, 1.000000000000000000 ) ) ;
#52 = LINE ( 'NONE', #206, #177 ) ;
#53 = SURFACE_STYLE_USAGE ( .BOTH. , #348 ) ;
#54 = VERTEX_POINT ( 'NONE', #254 ) ;
#55 = ADVANCED_FACE ( 'NONE', ( #168 ), #132, .T. ) ;
#56 =( LENGTH_UNIT ( ) NAMED_UNIT ( * ) SI_UNIT ( $, .METRE. ) );
#57 = ORIENTED_EDGE ( 'NONE', *, *, #369, .F. ) ;
#58 = DIRECTION ( 'NONE',  ( -1.231614398321443036E-16, 1.000000000000000000, -0.000000000000000000 ) ) ;
#59 =( NAMED_UNIT ( * ) PLANE_ANGLE_UNIT ( ) SI_UNIT ( $, .RADIAN. ) );
#60 = SURFACE_SIDE_STYLE ('',( #271 ) ) ;
#61 = FACE_OUTER_BOUND ( 'NONE', #147, .T. ) ;
#62 = AXIS2_PLACEMENT_3D ( 'NONE', #137, #248, #14 ) ;
#63 = AXIS2_PLACEMENT_3D ( 'NONE', #66, #212, #298 ) ;
#64 = FILL_AREA_STYLE_COLOUR ( '', #146 ) ;
#65 = FILL_AREA_STYLE ('',( #115 ) ) ;
#66 = CARTESIAN_POINT ( 'NONE',  ( -1.148106374200644017E-17, 0.09375000000000002776, 0.000000000000000000 ) ) ;
#67 = ORIENTED_EDGE ( 'NONE', *, *, #27, .T. ) ;
#68 = SURFACE_STYLE_USAGE ( .BOTH. , #329 ) ;
#69 = MECHANICAL_DESIGN_GEOMETRIC_PRESENTATION_REPRESENTATION (  '', ( #165 ), #334 ) ;
#70 = AXIS2_PLACEMENT_3D ( 'NONE', #40, #333, #99 ) ;
#71 = ORIENTED_EDGE ( 'NONE', *, *, #283, .T. ) ;
#72 = VECTOR ( 'NONE', #171, 39.37007874015748143 ) ;
#73 = SURFACE_STYLE_USAGE ( .BOTH. , #364 ) ;
#74 = ADVANCED_FACE ( 'NONE', ( #251 ), #228, .T. ) ;
#75 = DIMENSIONAL_EXPONENTS ( 1.000000000000000000, 0.000000000000000000, 0.000000000000000000, 0.000000000000000000, 0.000000000000000000, 0.000000000000000000, 0.000000000000000000 ) ;
#76 = VERTEX_POINT ( 'NONE', #358 ) ;
#77 = DIMENSIONAL_EXPONENTS ( 1.000000000000000000, 0.000000000000000000, 0.000000000000000000, 0.000000000000000000, 0.000000000000000000, 0.000000000000000000, 0.000000000000000000 ) ;
#78 = COLOUR_RGB ( '',1.000000000000000000, 0.000000000000000000, 0.000000000000000000 ) ;
#79 = FILL_AREA_STYLE ('',( #201 ) ) ;
#80 = PRESENTATION_STYLE_ASSIGNMENT (( #162 ) ) ;
#81 =( CONVERSION_BASED_UNIT ( 'INCH', #311 ) LENGTH_UNIT ( ) NAMED_UNIT ( #108 ) );
#82 = ORIENTED_EDGE ( 'NONE', *, *, #303, .F. ) ;
#83 = MECHANICAL_DESIGN_GEOMETRIC_PRESENTATION_REPRESENTATION (  '', ( #174 ), #315 ) ;
#84 = EDGE_CURVE ( 'NONE', #209, #307, #173, .T. ) ;
#85 = PRESENTATION_STYLE_ASSIGNMENT (( #122 ) ) ;
#86 = EDGE_LOOP ( 'NONE', ( #67, #226, #134, #57, #309 ) ) ;
#87 = SPHERICAL_SURFACE ( 'NONE', #63, 0.09375000000000002776 ) ;
#88 = DIRECTION ( 'NONE',  ( -0.000000000000000000, -1.000000000000000000, -0.000000000000000000 ) ) ;
#89 = ORIENTED_EDGE ( 'NONE', *, *, #291, .T. ) ;
#90 = SURFACE_STYLE_USAGE ( .BOTH. , #240 ) ;
#91 = CIRCLE ( 'NONE', #276, 0.09374999999999997224 ) ;
#92 = AXIS2_PLACEMENT_3D ( 'NONE', #336, #41, #308 ) ;
#93 = FACE_OUTER_BOUND ( 'NONE', #96, .T. ) ;
#94 = CARTESIAN_POINT ( 'NONE',  ( 0.000000000000000000, 0.09375000000000004163, -0.09374999999999998612 ) ) ;
#95 = DIRECTION ( 'NONE',  ( -1.231614398321443036E-16, 1.000000000000000000, 0.000000000000000000 ) ) ;
#96 = EDGE_LOOP ( 'NONE', ( #144, #360, #337, #71 ) ) ;
#97 = DIRECTION ( 'NONE',  ( -0.000000000000000000, -1.000000000000000000, -0.000000000000000000 ) ) ;
#98 = PRESENTATION_LAYER_ASSIGNMENT (  '', '', ( #154 ) ) ;
#99 = DIRECTION ( 'NONE',  ( 0.000000000000000000, 0.000000000000000000, -1.000000000000000000 ) ) ;
#100 = PRESENTATION_STYLE_ASSIGNMENT (( #73 ) ) ;
#101 = FACE_OUTER_BOUND ( 'NONE', #287, .T. ) ;
#102 = DIRECTION ( 'NONE',  ( 0.000000000000000000, 0.000000000000000000, -1.000000000000000000 ) ) ;
#103 = VERTEX_POINT ( 'NONE', #94 ) ;
#104 = LENGTH_MEASURE_WITH_UNIT ( LENGTH_MEASURE( 0.02539999999999999897 ), #366 );
#105 = ADVANCED_FACE ( 'NONE', ( #219 ), #153, .T. ) ;
#106 =( GEOMETRIC_REPRESENTATION_CONTEXT ( 3 ) GLOBAL_UNCERTAINTY_ASSIGNED_CONTEXT ( ( #231 ) ) GLOBAL_UNIT_ASSIGNED_CONTEXT ( ( #249, #195, #338 ) ) REPRESENTATION_CONTEXT ( 'NONE', 'WORKASPACE' ) );
#107 = CARTESIAN_POINT ( 'NONE',  ( 0.000000000000000000, 0.3125000000000000000, 0.000000000000000000 ) ) ;
#108 = DIMENSIONAL_EXPONENTS ( 1.000000000000000000, 0.000000000000000000, 0.000000000000000000, 0.000000000000000000, 0.000000000000000000, 0.000000000000000000, 0.000000000000000000 ) ;
#109 = PRESENTATION_STYLE_ASSIGNMENT (( #15 ) ) ;
#110 =( GEOMETRIC_REPRESENTATION_CONTEXT ( 3 ) GLOBAL_UNCERTAINTY_ASSIGNED_CONTEXT ( ( #181 ) ) GLOBAL_UNIT_ASSIGNED_CONTEXT ( ( #273, #124, #245 ) ) REPRESENTATION_CONTEXT ( 'NONE', 'WORKASPACE' ) );
#111 = STYLED_ITEM ( 'NONE', ( #100 ), #217 ) ;
#112 =( LENGTH_UNIT ( ) NAMED_UNIT ( * ) SI_UNIT ( $, .METRE. ) );
#113 = PRODUCT_DEFINITION_CONTEXT ( 'detailed design', #253, 'design' ) ;
#114 = ORIENTED_EDGE ( 'NONE', *, *, #84, .F. ) ;
#115 = FILL_AREA_STYLE_COLOUR ( '', #166 ) ;
#116 =( NAMED_UNIT ( * ) PLANE_ANGLE_UNIT ( ) SI_UNIT ( $, .RADIAN. ) );
#117 = ORIENTED_EDGE ( 'NONE', *, *, #84, .T. ) ;
#118 = CARTESIAN_POINT ( 'NONE',  ( 0.09374999999999997224, 2.000000000000000000, 0.000000000000000000 ) ) ;
#119 = MECHANICAL_DESIGN_GEOMETRIC_PRESENTATION_REPRESENTATION (  '', ( #242 ), #4 ) ;
#120 = DIRECTION ( 'NONE',  ( 1.231614398321443036E-16, -1.000000000000000000, 0.000000000000000000 ) ) ;
#121 = AXIS2_PLACEMENT_3D ( 'NONE', #277, #302, #361 ) ;
#122 = SURFACE_STYLE_USAGE ( .BOTH. , #60 ) ;
#123 =( LENGTH_UNIT ( ) NAMED_UNIT ( * ) SI_UNIT ( $, .METRE. ) );
#124 =( NAMED_UNIT ( * ) PLANE_ANGLE_UNIT ( ) SI_UNIT ( $, .RADIAN. ) );
#125 = LENGTH_MEASURE_WITH_UNIT ( LENGTH_MEASURE( 0.02539999999999999897 ), #123 );
#126 = ADVANCED_FACE ( 'NONE', ( #150 ), #319, .F. ) ;
#127 = EDGE_LOOP ( 'NONE', ( #182, #203, #89, #314, #82 ) ) ;
#128 = DIRECTION ( 'NONE',  ( 1.000000000000000000, 0.000000000000000000, 0.000000000000000000 ) ) ;
#129 = FILL_AREA_STYLE_COLOUR ( '', #347 ) ;
#130 = AXIS2_PLACEMENT_3D ( 'NONE', #31, #36, #272 ) ;
#131 = AXIS2_PLACEMENT_3D ( 'NONE', #367, #163, #128 ) ;
#132 = CYLINDRICAL_SURFACE ( 'NONE', #320, 0.09374999999999998612 ) ;
#133 = CARTESIAN_POINT ( 'NONE',  ( 0.09374999999999995837, 2.000000000000000000, 1.148106374200641706E-17 ) ) ;
#134 = ORIENTED_EDGE ( 'NONE', *, *, #216, .F. ) ;
#135 = CARTESIAN_POINT ( 'NONE',  ( 0.09374999999999987510, 2.000000000000000000, 1.148106374200641089E-17 ) ) ;
#136 = ADVANCED_FACE ( 'NONE', ( #93 ), #87, .T. ) ;
#137 = CARTESIAN_POINT ( 'NONE',  ( 0.000000000000000000, 0.09375000000000004163, 0.000000000000000000 ) ) ;
#138 = CARTESIAN_POINT ( 'NONE',  ( 1.148106374200643247E-17, 0.3125000000000000000, 0.09374999999999997224 ) ) ;
#139 = CLOSED_SHELL ( 'NONE', ( #105, #5, #345, #126 ) ) ;
#140 = CIRCLE ( 'NONE', #335, 0.09374999999999998612 ) ;
#141 = FILL_AREA_STYLE ('',( #185 ) ) ;
#142 = DIMENSIONAL_EXPONENTS ( 1.000000000000000000, 0.000000000000000000, 0.000000000000000000, 0.000000000000000000, 0.000000000000000000, 0.000000000000000000, 0.000000000000000000 ) ;
#143 = VECTOR ( 'NONE', #88, 39.37007874015748143 ) ;
#144 = ORIENTED_EDGE ( 'NONE', *, *, #285, .F. ) ;
#145 = EDGE_LOOP ( 'NONE', ( #349, #117 ) ) ;
#146 = COLOUR_RGB ( '',1.000000000000000000, 0.000000000000000000, 0.000000000000000000 ) ;
#147 = EDGE_LOOP ( 'NONE', ( #186, #16 ) ) ;
#148 = CIRCLE ( 'NONE', #130, 0.09374999999999990286 ) ;
#149 =( CONVERSION_BASED_UNIT ( 'INCH', #30 ) LENGTH_UNIT ( ) NAMED_UNIT ( #77 ) );
#150 = FACE_OUTER_BOUND ( 'NONE', #145, .T. ) ;
#151 = CARTESIAN_POINT ( 'NONE',  ( 0.000000000000000000, 0.000000000000000000, -0.09374999999999998612 ) ) ;
#152 = DIRECTION ( 'NONE',  ( -1.231614398321443036E-16, 1.000000000000000000, -0.000000000000000000 ) ) ;
#153 = CYLINDRICAL_SURFACE ( 'NONE', #25, 0.09374999999999980571 ) ;
#154 = STYLED_ITEM ( 'NONE', ( #290 ), #218 ) ;
#155 = LINE ( 'NONE', #322, #205 ) ;
#156 = EDGE_CURVE ( 'NONE', #307, #209, #148, .T. ) ;
#157 = PLANE ( 'NONE',  #341 ) ;
#158 = PRODUCT_RELATED_PRODUCT_CATEGORY ( 'part', '', ( #346 ) ) ;
#159 = PRESENTATION_STYLE_ASSIGNMENT (( #68 ) ) ;
#160 = LINE ( 'NONE', #135, #72 ) ;
#161 = CARTESIAN_POINT ( 'NONE',  ( 2.690672696741111573E-16, 0.3125000000000000000, 0.000000000000000000 ) ) ;
#162 = SURFACE_STYLE_USAGE ( .BOTH. , #193 ) ;
#163 = DIRECTION ( 'NONE',  ( 0.000000000000000000, 0.000000000000000000, 1.000000000000000000 ) ) ;
#164 =( LENGTH_UNIT ( ) NAMED_UNIT ( * ) SI_UNIT ( $, .METRE. ) );
#165 = STYLED_ITEM ( 'NONE', ( #80 ), #74 ) ;
#166 = COLOUR_RGB ( '',0.7921568627450980005, 0.8196078431372548767, 0.9333333333333333481 ) ;
#167 = DIRECTION ( 'NONE',  ( -0.000000000000000000, -1.000000000000000000, -0.000000000000000000 ) ) ;
#168 = FACE_OUTER_BOUND ( 'NONE', #86, .T. ) ;
#169 = LENGTH_MEASURE_WITH_UNIT ( LENGTH_MEASURE( 0.02539999999999999897 ), #365 );
#170 = FILL_AREA_STYLE ('',( #129 ) ) ;
#171 = DIRECTION ( 'NONE',  ( -1.231614398321443036E-16, 1.000000000000000000, -0.000000000000000000 ) ) ;
#172 = SURFACE_STYLE_FILL_AREA ( #141 ) ;
#173 = CIRCLE ( 'NONE', #34, 0.09374999999999990286 ) ;
#174 = STYLED_ITEM ( 'NONE', ( #109 ), #187 ) ;
#175 = VERTEX_POINT ( 'NONE', #3 ) ;
#176 = CARTESIAN_POINT ( 'NONE',  ( 0.09374999999999995837, 0.3125000000000000000, 1.148106374200641706E-17 ) ) ;
#177 = VECTOR ( 'NONE', #179, 39.37007874015748143 ) ;
#178 = DIRECTION ( 'NONE',  ( 1.000000000000000000, 0.000000000000000000, -1.224646799147353207E-16 ) ) ;
#179 = DIRECTION ( 'NONE',  ( -0.000000000000000000, -1.000000000000000000, -0.000000000000000000 ) ) ;
#180 = ORIENTED_EDGE ( 'NONE', *, *, #285, .T. ) ;
#181 = UNCERTAINTY_MEASURE_WITH_UNIT (LENGTH_MEASURE( 1.000000000000000082E-05 ), #273, 'distance_accuracy_value', 'NONE');
#182 = ORIENTED_EDGE ( 'NONE', *, *, #239, .F. ) ;
#183 = ORIENTED_EDGE ( 'NONE', *, *, #283, .F. ) ;
#184 = AXIS2_PLACEMENT_3D ( 'NONE', #161, #281, #275 ) ;
#185 = FILL_AREA_STYLE_COLOUR ( '', #28 ) ;
#186 = ORIENTED_EDGE ( 'NONE', *, *, #27, .F. ) ;
#187 = ADVANCED_FACE ( 'NONE', ( #61 ), #157, .T. ) ;
#188 = PRESENTATION_LAYER_ASSIGNMENT (  '', '', ( #165 ) ) ;
#189 = MECHANICAL_DESIGN_GEOMETRIC_PRESENTATION_REPRESENTATION (  '', ( #154 ), #19 ) ;
#190 = FILL_AREA_STYLE ('',( #64 ) ) ;
#191 = CARTESIAN_POINT ( 'NONE',  ( 0.000000000000000000, 0.09375000000000004163, 0.000000000000000000 ) ) ;
#192 = DIRECTION ( 'NONE',  ( 0.000000000000000000, 1.000000000000000000, 0.000000000000000000 ) ) ;
#193 = SURFACE_SIDE_STYLE ('',( #223 ) ) ;
#194 =( CONVERSION_BASED_UNIT ( 'INCH', #169 ) LENGTH_UNIT ( ) NAMED_UNIT ( #142 ) );
#195 =( NAMED_UNIT ( * ) PLANE_ANGLE_UNIT ( ) SI_UNIT ( $, .RADIAN. ) );
#196 = LENGTH_MEASURE_WITH_UNIT ( LENGTH_MEASURE( 0.02539999999999999897 ), #362 );
#197 = CARTESIAN_POINT ( 'NONE',  ( 0.000000000000000000, 0.09375000000000004163, 0.000000000000000000 ) ) ;
#198 = COLOUR_RGB ( '',1.000000000000000000, 0.000000000000000000, 0.000000000000000000 ) ;
#199 =( GEOMETRIC_REPRESENTATION_CONTEXT ( 3 ) GLOBAL_UNCERTAINTY_ASSIGNED_CONTEXT ( ( #23 ) ) GLOBAL_UNIT_ASSIGNED_CONTEXT ( ( #149, #59, #269 ) ) REPRESENTATION_CONTEXT ( 'NONE', 'WORKASPACE' ) );
#200 = PRODUCT_CONTEXT ( 'NONE', #234, 'mechanical' ) ;
#201 = FILL_AREA_STYLE_COLOUR ( '', #258 ) ;
#202 = EDGE_CURVE ( 'NONE', #267, #175, #43, .T. ) ;
#203 = ORIENTED_EDGE ( 'NONE', *, *, #259, .T. ) ;
#204 = EDGE_CURVE ( 'NONE', #175, #267, #352, .T. ) ;
#205 = VECTOR ( 'NONE', #214, 39.37007874015748143 ) ;
#206 = CARTESIAN_POINT ( 'NONE',  ( 1.148106374200643401E-17, 0.000000000000000000, 0.09374999999999998612 ) ) ;
#207 = UNCERTAINTY_MEASURE_WITH_UNIT (LENGTH_MEASURE( 1.000000000000000082E-05 ), #194, 'distance_accuracy_value', 'NONE');
#208 = DIRECTION ( 'NONE',  ( -1.000000000000000000, 0.000000000000000000, 0.000000000000000000 ) ) ;
#209 = VERTEX_POINT ( 'NONE', #133 ) ;
#210 = CIRCLE ( 'NONE', #321, 0.09374999999999998612 ) ;
#211 = EDGE_LOOP ( 'NONE', ( #262, #288, #236, #114 ) ) ;
#212 = DIRECTION ( 'NONE',  ( 0.000000000000000000, 0.000000000000000000, 1.000000000000000000 ) ) ;
#213 = ORIENTED_EDGE ( 'NONE', *, *, #216, .T. ) ;
#214 = DIRECTION ( 'NONE',  ( -1.231614398321443036E-16, 1.000000000000000000, -0.000000000000000000 ) ) ;
#215 =( NAMED_UNIT ( * ) PLANE_ANGLE_UNIT ( ) SI_UNIT ( $, .RADIAN. ) );
#216 = EDGE_CURVE ( 'NONE', #294, #317, #140, .T. ) ;
#217 = ADVANCED_FACE ( 'NONE', ( #305 ), #39, .T. ) ;
#218 = MANIFOLD_SOLID_BREP ( 'Revolve - Cutting Edge', #257 ) ;
#219 = FACE_OUTER_BOUND ( 'NONE', #282, .T. ) ;
#220 = ORIENTED_EDGE ( 'NONE', *, *, #303, .T. ) ;
#221 = DIRECTION ( 'NONE',  ( 0.000000000000000000, 0.000000000000000000, -1.000000000000000000 ) ) ;
#222 = MECHANICAL_DESIGN_GEOMETRIC_PRESENTATION_REPRESENTATION (  '', ( #372 ), #199 ) ;
#223 = SURFACE_STYLE_FILL_AREA ( #190 ) ;
#224 = APPLICATION_PROTOCOL_DEFINITION ( 'draft international standard', 'automotive_design', 1998, #253 ) ;
#225 = SURFACE_STYLE_FILL_AREA ( #332 ) ;
#226 = ORIENTED_EDGE ( 'NONE', *, *, #239, .T. ) ;
#227 = MECHANICAL_DESIGN_GEOMETRIC_PRESENTATION_REPRESENTATION (  '', ( #340 ), #110 ) ;
#228 = CYLINDRICAL_SURFACE ( 'NONE', #324, 0.09374999999999998612 ) ;
#229 = DIRECTION ( 'NONE',  ( -1.231614398321443036E-16, 1.000000000000000000, -0.000000000000000000 ) ) ;
#230 = FACE_OUTER_BOUND ( 'NONE', #211, .T. ) ;
#231 = UNCERTAINTY_MEASURE_WITH_UNIT (LENGTH_MEASURE( 1.000000000000000082E-05 ), #249, 'distance_accuracy_value', 'NONE');
#232 = UNCERTAINTY_MEASURE_WITH_UNIT (LENGTH_MEASURE( 1.000000000000000082E-05 ), #284, 'distance_accuracy_value', 'NONE');
#233 =( NAMED_UNIT ( * ) SI_UNIT ( $, .STERADIAN. ) SOLID_ANGLE_UNIT ( ) );
#234 = APPLICATION_CONTEXT ( 'automotive_design' ) ;
#235 = DIRECTION ( 'NONE',  ( 0.000000000000000000, 0.000000000000000000, -1.000000000000000000 ) ) ;
#236 = ORIENTED_EDGE ( 'NONE', *, *, #293, .T. ) ;
#237 =( NAMED_UNIT ( * ) PLANE_ANGLE_UNIT ( ) SI_UNIT ( $, .RADIAN. ) );
#238 = AXIS2_PLACEMENT_3D ( 'NONE', #47, #263, #342 ) ;
#239 = EDGE_CURVE ( 'NONE', #350, #317, #52, .T. ) ;
#240 = SURFACE_SIDE_STYLE ('',( #268 ) ) ;
#241 = PRESENTATION_STYLE_ASSIGNMENT (( #90 ) ) ;
#242 = STYLED_ITEM ( 'NONE', ( #241 ), #136 ) ;
#243 = CIRCLE ( 'NONE', #70, 0.09374999999999998612 ) ;
#244 = AXIS2_PLACEMENT_3D ( 'NONE', #280, #229, #363 ) ;
#245 =( NAMED_UNIT ( * ) SI_UNIT ( $, .STERADIAN. ) SOLID_ANGLE_UNIT ( ) );
#246 = DIRECTION ( 'NONE',  ( 0.000000000000000000, 0.000000000000000000, -1.000000000000000000 ) ) ;
#247 = CARTESIAN_POINT ( 'NONE',  ( 0.000000000000000000, 0.000000000000000000, 0.000000000000000000 ) ) ;
#248 = DIRECTION ( 'NONE',  ( -0.000000000000000000, -1.000000000000000000, -0.000000000000000000 ) ) ;
#249 =( CONVERSION_BASED_UNIT ( 'INCH', #104 ) LENGTH_UNIT ( ) NAMED_UNIT ( #46 ) );
#250 = CIRCLE ( 'NONE', #278, 0.09375000000000002776 ) ;
#251 = FACE_OUTER_BOUND ( 'NONE', #127, .T. ) ;
#252 =( NAMED_UNIT ( * ) PLANE_ANGLE_UNIT ( ) SI_UNIT ( $, .RADIAN. ) );
#253 = APPLICATION_CONTEXT ( 'automotive_design' ) ;
#254 = CARTESIAN_POINT ( 'NONE',  ( -5.740531871003220085E-18, 0.000000000000000000, 0.000000000000000000 ) ) ;
#255 = SURFACE_STYLE_FILL_AREA ( #170 ) ;
#256 = CARTESIAN_POINT ( 'NONE',  ( -0.09375000000000002776, 0.09375000000000004163, 1.148106374200643555E-17 ) ) ;
#257 = CLOSED_SHELL ( 'NONE', ( #217, #55, #187, #74, #136 ) ) ;
#258 = COLOUR_RGB ( '',0.7921568627450980005, 0.8196078431372548767, 0.9333333333333333481 ) ;
#259 = EDGE_CURVE ( 'NONE', #350, #76, #306, .T. ) ;
#260 = LENGTH_MEASURE_WITH_UNIT ( LENGTH_MEASURE( 0.02539999999999999897 ), #164 );
#261 = SURFACE_STYLE_FILL_AREA ( #79 ) ;
#262 = ORIENTED_EDGE ( 'NONE', *, *, #355, .F. ) ;
#263 = DIRECTION ( 'NONE',  ( -0.000000000000000000, -1.000000000000000000, -0.000000000000000000 ) ) ;
#264 = MECHANICAL_DESIGN_GEOMETRIC_PRESENTATION_REPRESENTATION (  '', ( #111 ), #106 ) ;
#265 = ORIENTED_EDGE ( 'NONE', *, *, #204, .F. ) ;
#266 =( NAMED_UNIT ( * ) SI_UNIT ( $, .STERADIAN. ) SOLID_ANGLE_UNIT ( ) );
#267 = VERTEX_POINT ( 'NONE', #176 ) ;
#268 = SURFACE_STYLE_FILL_AREA ( #270 ) ;
#269 =( NAMED_UNIT ( * ) SI_UNIT ( $, .STERADIAN. ) SOLID_ANGLE_UNIT ( ) );
#270 = FILL_AREA_STYLE ('',( #295 ) ) ;
#271 = SURFACE_STYLE_FILL_AREA ( #65 ) ;
#272 = DIRECTION ( 'NONE',  ( -1.000000000000000000, 0.000000000000000000, 0.000000000000000000 ) ) ;
#273 =( CONVERSION_BASED_UNIT ( 'INCH', #196 ) LENGTH_UNIT ( ) NAMED_UNIT ( #42 ) );
#274 = DIRECTION ( 'NONE',  ( -1.000000000000000000, -1.231614398321443036E-16, 0.000000000000000000 ) ) ;
#275 = DIRECTION ( 'NONE',  ( -1.000000000000000000, 0.000000000000000000, 0.000000000000000000 ) ) ;
#276 = AXIS2_PLACEMENT_3D ( 'NONE', #107, #304, #6 ) ;
#277 = CARTESIAN_POINT ( 'NONE',  ( 2.690672696741111573E-16, 0.3125000000000000000, 0.000000000000000000 ) ) ;
#278 = AXIS2_PLACEMENT_3D ( 'NONE', #24, #235, #208 ) ;
#279 = ORIENTED_EDGE ( 'NONE', *, *, #156, .F. ) ;
#280 = CARTESIAN_POINT ( 'NONE',  ( 6.123233995736766036E-17, 2.000000000000000000, 0.000000000000000000 ) ) ;
#281 = DIRECTION ( 'NONE',  ( -1.231614398321443036E-16, 1.000000000000000000, -0.000000000000000000 ) ) ;
#282 = EDGE_LOOP ( 'NONE', ( #44, #38, #279, #292 ) ) ;
#283 = EDGE_CURVE ( 'NONE', #294, #54, #250, .T. ) ;
#284 =( CONVERSION_BASED_UNIT ( 'INCH', #260 ) LENGTH_UNIT ( ) NAMED_UNIT ( #50 ) );
#285 = EDGE_CURVE ( 'NONE', #1, #54, #326, .T. ) ;
#286 = PRESENTATION_LAYER_ASSIGNMENT (  '', '', ( #340 ) ) ;
#287 = EDGE_LOOP ( 'NONE', ( #265, #318 ) ) ;
#288 = ORIENTED_EDGE ( 'NONE', *, *, #202, .T. ) ;
#289 = PRESENTATION_LAYER_ASSIGNMENT (  '', '', ( #242 ) ) ;
#290 = PRESENTATION_STYLE_ASSIGNMENT (( #53 ) ) ;
#291 = EDGE_CURVE ( 'NONE', #76, #103, #35, .T. ) ;
#292 = ORIENTED_EDGE ( 'NONE', *, *, #293, .F. ) ;
#293 = EDGE_CURVE ( 'NONE', #175, #307, #155, .T. ) ;
#294 = VERTEX_POINT ( 'NONE', #7 ) ;
#295 = FILL_AREA_STYLE_COLOUR ( '', #198 ) ;
#296 = CIRCLE ( 'NONE', #62, 0.09374999999999998612 ) ;
#297 = PRESENTATION_LAYER_ASSIGNMENT (  '', '', ( #372 ) ) ;
#298 = DIRECTION ( 'NONE',  ( 1.000000000000000000, 0.000000000000000000, 0.000000000000000000 ) ) ;
#299 =( CONVERSION_BASED_UNIT ( 'INCH', #33 ) LENGTH_UNIT ( ) NAMED_UNIT ( #75 ) );
#300 = FILL_AREA_STYLE_COLOUR ( '', #78 ) ;
#301 = PRODUCT_DEFINITION ( 'UNKNOWN', '', #316, #113 ) ;
#302 = DIRECTION ( 'NONE',  ( -1.231614398321443036E-16, 1.000000000000000000, -0.000000000000000000 ) ) ;
#303 = EDGE_CURVE ( 'NONE', #317, #1, #210, .T. ) ;
#304 = DIRECTION ( 'NONE',  ( -0.000000000000000000, -1.000000000000000000, -0.000000000000000000 ) ) ;
#305 = FACE_OUTER_BOUND ( 'NONE', #371, .T. ) ;
#306 = CIRCLE ( 'NONE', #238, 0.09374999999999997224 ) ;
#307 = VERTEX_POINT ( 'NONE', #357 ) ;
#308 = DIRECTION ( 'NONE',  ( 1.000000000000000000, 0.000000000000000000, 0.000000000000000000 ) ) ;
#309 = ORIENTED_EDGE ( 'NONE', *, *, #291, .F. ) ;
#310 = AXIS2_PLACEMENT_3D ( 'NONE', #313, #51, #178 ) ;
#311 = LENGTH_MEASURE_WITH_UNIT ( LENGTH_MEASURE( 0.02539999999999999897 ), #112 );
#312 = DIMENSIONAL_EXPONENTS ( 1.000000000000000000, 0.000000000000000000, 0.000000000000000000, 0.000000000000000000, 0.000000000000000000, 0.000000000000000000, 0.000000000000000000 ) ;
#313 = CARTESIAN_POINT ( 'NONE',  ( -1.148106374200644017E-17, 0.09375000000000002776, 0.000000000000000000 ) ) ;
#314 = ORIENTED_EDGE ( 'NONE', *, *, #22, .F. ) ;
#315 =( GEOMETRIC_REPRESENTATION_CONTEXT ( 3 ) GLOBAL_UNCERTAINTY_ASSIGNED_CONTEXT ( ( #232 ) ) GLOBAL_UNIT_ASSIGNED_CONTEXT ( ( #284, #252, #339 ) ) REPRESENTATION_CONTEXT ( 'NONE', 'WORKASPACE' ) );
#316 = PRODUCT_DEFINITION_FORMATION_WITH_SPECIFIED_SOURCE ( 'ANY', '', #346, .NOT_KNOWN. ) ;
#317 = VERTEX_POINT ( 'NONE', #32 ) ;
#318 = ORIENTED_EDGE ( 'NONE', *, *, #202, .F. ) ;
#319 = PLANE ( 'NONE',  #351 ) ;
#320 = AXIS2_PLACEMENT_3D ( 'NONE', #356, #167, #325 ) ;
#321 = AXIS2_PLACEMENT_3D ( 'NONE', #191, #327, #246 ) ;
#322 = CARTESIAN_POINT ( 'NONE',  ( -0.09374999999999973632, 2.000000000000000000, 0.000000000000000000 ) ) ;
#323 = CARTESIAN_POINT ( 'NONE',  ( 6.123233995736766036E-17, 2.000000000000000000, 0.000000000000000000 ) ) ;
#324 = AXIS2_PLACEMENT_3D ( 'NONE', #247, #97, #221 ) ;
#325 = DIRECTION ( 'NONE',  ( 0.000000000000000000, 0.000000000000000000, -1.000000000000000000 ) ) ;
#326 = CIRCLE ( 'NONE', #310, 0.09375000000000002776 ) ;
#327 = DIRECTION ( 'NONE',  ( -0.000000000000000000, -1.000000000000000000, -0.000000000000000000 ) ) ;
#328 = DIRECTION ( 'NONE',  ( -1.000000000000000000, 0.000000000000000000, 0.000000000000000000 ) ) ;
#329 = SURFACE_SIDE_STYLE ('',( #225 ) ) ;
#330 = SHAPE_DEFINITION_REPRESENTATION ( #45, #21 ) ;
#331 = PLANE ( 'NONE',  #11 ) ;
#332 = FILL_AREA_STYLE ('',( #300 ) ) ;
#333 = DIRECTION ( 'NONE',  ( -0.000000000000000000, -1.000000000000000000, -0.000000000000000000 ) ) ;
#334 =( GEOMETRIC_REPRESENTATION_CONTEXT ( 3 ) GLOBAL_UNCERTAINTY_ASSIGNED_CONTEXT ( ( #343 ) ) GLOBAL_UNIT_ASSIGNED_CONTEXT ( ( #299, #215, #266 ) ) REPRESENTATION_CONTEXT ( 'NONE', 'WORKASPACE' ) );
#335 = AXIS2_PLACEMENT_3D ( 'NONE', #197, #13, #102 ) ;
#336 = CARTESIAN_POINT ( 'NONE',  ( -1.148106374200644017E-17, 0.09375000000000002776, 0.000000000000000000 ) ) ;
#337 = ORIENTED_EDGE ( 'NONE', *, *, #369, .T. ) ;
#338 =( NAMED_UNIT ( * ) SI_UNIT ( $, .STERADIAN. ) SOLID_ANGLE_UNIT ( ) );
#339 =( NAMED_UNIT ( * ) SI_UNIT ( $, .STERADIAN. ) SOLID_ANGLE_UNIT ( ) );
#340 = STYLED_ITEM ( 'NONE', ( #159 ), #55 ) ;
#341 = AXIS2_PLACEMENT_3D ( 'NONE', #20, #192, #37 ) ;
#342 = DIRECTION ( 'NONE',  ( 0.000000000000000000, 0.000000000000000000, -1.000000000000000000 ) ) ;
#343 = UNCERTAINTY_MEASURE_WITH_UNIT (LENGTH_MEASURE( 1.000000000000000082E-05 ), #299, 'distance_accuracy_value', 'NONE');
#344 = MANIFOLD_SOLID_BREP ( 'Revolve - Tool Body (Straight Shanked)', #139 ) ;
#345 = ADVANCED_FACE ( 'NONE', ( #230 ), #373, .T. ) ;
#346 = PRODUCT ( '17090', '17090', '', ( #200 ) ) ;
#347 = COLOUR_RGB ( '',1.000000000000000000, 0.000000000000000000, 0.000000000000000000 ) ;
#348 = SURFACE_SIDE_STYLE ('',( #261 ) ) ;
#349 = ORIENTED_EDGE ( 'NONE', *, *, #156, .T. ) ;
#350 = VERTEX_POINT ( 'NONE', #138 ) ;
#351 = AXIS2_PLACEMENT_3D ( 'NONE', #118, #120, #2 ) ;
#352 = CIRCLE ( 'NONE', #184, 0.09374999999999969469 ) ;
#353 =( NAMED_UNIT ( * ) SI_UNIT ( $, .STERADIAN. ) SOLID_ANGLE_UNIT ( ) );
#354 = CARTESIAN_POINT ( 'NONE',  ( 6.123233995736766036E-17, 2.000000000000000000, 0.000000000000000000 ) ) ;
#355 = EDGE_CURVE ( 'NONE', #267, #209, #160, .T. ) ;
#356 = CARTESIAN_POINT ( 'NONE',  ( 0.000000000000000000, 0.000000000000000000, 0.000000000000000000 ) ) ;
#357 = CARTESIAN_POINT ( 'NONE',  ( -0.09374999999999983347, 2.000000000000000000, 0.000000000000000000 ) ) ;
#358 = CARTESIAN_POINT ( 'NONE',  ( 0.000000000000000000, 0.3125000000000000000, -0.09374999999999997224 ) ) ;
#359 = PRESENTATION_LAYER_ASSIGNMENT (  '', '', ( #174 ) ) ;
#360 = ORIENTED_EDGE ( 'NONE', *, *, #22, .T. ) ;
#361 = DIRECTION ( 'NONE',  ( -1.000000000000000000, 0.000000000000000000, 0.000000000000000000 ) ) ;
#362 =( LENGTH_UNIT ( ) NAMED_UNIT ( * ) SI_UNIT ( $, .METRE. ) );
#363 = DIRECTION ( 'NONE',  ( -1.000000000000000000, 0.000000000000000000, 0.000000000000000000 ) ) ;
#364 = SURFACE_SIDE_STYLE ('',( #255 ) ) ;
#365 =( LENGTH_UNIT ( ) NAMED_UNIT ( * ) SI_UNIT ( $, .METRE. ) );
#366 =( LENGTH_UNIT ( ) NAMED_UNIT ( * ) SI_UNIT ( $, .METRE. ) );
#367 = CARTESIAN_POINT ( 'NONE',  ( 0.000000000000000000, 0.000000000000000000, 0.000000000000000000 ) ) ;
#368 = SURFACE_SIDE_STYLE ('',( #172 ) ) ;
#369 = EDGE_CURVE ( 'NONE', #103, #294, #243, .T. ) ;
#370 = UNCERTAINTY_MEASURE_WITH_UNIT (LENGTH_MEASURE( 1.000000000000000082E-05 ), #26, 'distance_accuracy_value', 'NONE');
#371 = EDGE_LOOP ( 'NONE', ( #220, #180, #183, #213 ) ) ;
#372 = STYLED_ITEM ( 'NONE', ( #85 ), #344 ) ;
#373 = CYLINDRICAL_SURFACE ( 'NONE', #244, 0.09374999999999980571 ) ;
ENDSEC;
END-ISO-10303-21;
