ISO-10303-21;
HEADER;
FILE_DESCRIPTION (( 'STEP AP214' ),
    '1' );
FILE_NAME ('Micro_BMR-020-2.STEP',
    '2021-09-03T13:50:23',
    ( '' ),
    ( '' ),
    'SwSTEP 2.0',
    'SolidWorks 2020',
    '' );
FILE_SCHEMA (( 'AUTOMOTIVE_DESIGN' ));
ENDSEC;

DATA;
#1 = MANIFOLD_SOLID_BREP ( 'Fillet1', #14 ) ;
#2 =( NAMED_UNIT ( * ) PLANE_ANGLE_UNIT ( ) SI_UNIT ( $, .RADIAN. ) );
#3 = CARTESIAN_POINT ( 'NONE',  ( -0.009989999999999993677, 4.438732323509582995E-18, 0.05999999999999999778 ) ) ;
#4 = AXIS2_PLACEMENT_3D ( 'NONE', #278, #62, #104 ) ;
#5 =( NAMED_UNIT ( * ) SI_UNIT ( $, .STERADIAN. ) SOLID_ANGLE_UNIT ( ) );
#6 = DIRECTION ( 'NONE',  ( -0.0000000000000000000, -0.0000000000000000000, -1.000000000000000000 ) ) ;
#7 = CARTESIAN_POINT ( 'NONE',  ( 0.0000000000000000000, 0.0000000000000000000, 1.500000000000000222 ) ) ;
#8 = EDGE_CURVE ( 'NONE', #24, #101, #108, .T. ) ;
#9 = CARTESIAN_POINT ( 'NONE',  ( 7.347880794884121462E-18, 0.0000000000000000000, 0.05999999999999999778 ) ) ;
#10 = DIRECTION ( 'NONE',  ( -1.000000000000000000, 0.0000000000000000000, 0.0000000000000000000 ) ) ;
#11 = EDGE_CURVE ( 'NONE', #154, #24, #228, .T. ) ;
#12 = DIRECTION ( 'NONE',  ( -1.224646799147353454E-16, -0.0000000000000000000, -1.000000000000000000 ) ) ;
#13 = EDGE_LOOP ( 'NONE', ( #68, #271, #306, #159 ) ) ;
#14 = CLOSED_SHELL ( 'NONE', ( #279, #111, #35, #202, #248, #109, #147, #161, #48, #125, #227 ) ) ;
#15 = PRODUCT_DEFINITION_FORMATION_WITH_SPECIFIED_SOURCE ( 'ANY', '', #272, .NOT_KNOWN. ) ;
#16 = DIRECTION ( 'NONE',  ( 0.0000000000000000000, 1.000000000000000000, 0.0000000000000000000 ) ) ;
#17 =( LENGTH_UNIT ( ) NAMED_UNIT ( * ) SI_UNIT ( $, .METRE. ) );
#18 = CARTESIAN_POINT ( 'NONE',  ( 0.04750000000000064587, 5.817072295950006528E-18, 1.500000000000000222 ) ) ;
#19 = EDGE_LOOP ( 'NONE', ( #265, #76, #288, #225 ) ) ;
#20 = PRODUCT_DEFINITION_CONTEXT ( 'detailed design', #188, 'design' ) ;
#21 = EDGE_CURVE ( 'NONE', #268, #315, #27, .T. ) ;
#22 = FILL_AREA_STYLE_COLOUR ( '', #217 ) ;
#23 = AXIS2_PLACEMENT_3D ( 'NONE', #226, #53, #184 ) ;
#24 = VERTEX_POINT ( 'NONE', #282 ) ;
#25 =( CONVERSION_BASED_UNIT ( 'INCH', #103 ) LENGTH_UNIT ( ) NAMED_UNIT ( #308 ) );
#26 = DIRECTION ( 'NONE',  ( 0.0000000000000000000, 0.0000000000000000000, -1.000000000000000000 ) ) ;
#27 = CIRCLE ( 'NONE', #197, 0.009990000000000000616 ) ;
#28 = AXIS2_PLACEMENT_3D ( 'NONE', #117, #186, #264 ) ;
#29 = CARTESIAN_POINT ( 'NONE',  ( 1.223422152348206134E-18, 0.0000000000000000000, 0.009990000000000000616 ) ) ;
#30 = FILL_AREA_STYLE_COLOUR ( '', #324 ) ;
#31 = DIRECTION ( 'NONE',  ( -1.000000000000000000, 0.0000000000000000000, 1.224646799147353454E-16 ) ) ;
#32 = AXIS2_PLACEMENT_3D ( 'NONE', #237, #135, #36 ) ;
#33 = DIRECTION ( 'NONE',  ( 1.000000000000000000, 0.0000000000000000000, 0.0000000000000000000 ) ) ;
#34 = APPLICATION_PROTOCOL_DEFINITION ( 'draft international standard', 'automotive_design', 1998, #169 ) ;
#35 = ADVANCED_FACE ( 'NONE', ( #105 ), #100, .T. ) ;
#36 = DIRECTION ( 'NONE',  ( -1.000000000000000000, 1.224646799147353207E-16, 0.0000000000000000000 ) ) ;
#37 = CARTESIAN_POINT ( 'NONE',  ( 0.0000000000000000000, 0.0000000000000000000, 1.500000000000000222 ) ) ;
#38 = AXIS2_PLACEMENT_3D ( 'NONE', #221, #65, #113 ) ;
#39 = DIRECTION ( 'NONE',  ( -1.224646799147353454E-16, -0.0000000000000000000, -1.000000000000000000 ) ) ;
#40 = ORIENTED_EDGE ( 'NONE', *, *, #78, .F. ) ;
#41 = DIRECTION ( 'NONE',  ( -1.224646799147353454E-16, -0.0000000000000000000, -1.000000000000000000 ) ) ;
#42 = ORIENTED_EDGE ( 'NONE', *, *, #214, .F. ) ;
#43 = VECTOR ( 'NONE', #6, 39.37007874015748143 ) ;
#44 =( GEOMETRIC_REPRESENTATION_CONTEXT ( 3 ) GLOBAL_UNCERTAINTY_ASSIGNED_CONTEXT ( ( #142 ) ) GLOBAL_UNIT_ASSIGNED_CONTEXT ( ( #234, #2, #298 ) ) REPRESENTATION_CONTEXT ( 'NONE', 'WORKASPACE' ) );
#45 = CARTESIAN_POINT ( 'NONE',  ( 0.009990000000000002350, 1.223422152348205941E-18, 0.009989999999999998881 ) ) ;
#46 = UNCERTAINTY_MEASURE_WITH_UNIT (LENGTH_MEASURE( 1.000000000000000082E-05 ), #75, 'distance_accuracy_value', 'NONE');
#47 = ORIENTED_EDGE ( 'NONE', *, *, #152, .T. ) ;
#48 = ADVANCED_FACE ( 'NONE', ( #112 ), #259, .T. ) ;
#49 = VERTEX_POINT ( 'NONE', #305 ) ;
#50 = EDGE_LOOP ( 'NONE', ( #216, #313, #247, #290 ) ) ;
#51 = CARTESIAN_POINT ( 'NONE',  ( 0.0000000000000000000, 0.0000000000000000000, 1.500000000000000222 ) ) ;
#52 = PRODUCT_RELATED_PRODUCT_CATEGORY ( 'part', '', ( #272 ) ) ;
#53 = DIRECTION ( 'NONE',  ( 1.224646799147353454E-16, 0.0000000000000000000, 1.000000000000000000 ) ) ;
#54 = FACE_OUTER_BOUND ( 'NONE', #317, .T. ) ;
#55 = AXIS2_PLACEMENT_3D ( 'NONE', #252, #299, #295 ) ;
#56 = CONICAL_SURFACE ( 'NONE', #243, 0.04750000000000064587, 0.7853981633974466137 ) ;
#57 = CYLINDRICAL_SURFACE ( 'NONE', #93, 0.06250000000000002776 ) ;
#58 = LENGTH_MEASURE_WITH_UNIT ( LENGTH_MEASURE( 0.02539999999999999897 ), #153 );
#59 = PRODUCT_DEFINITION_SHAPE ( 'NONE', 'NONE',  #128 ) ;
#60 = PRESENTATION_STYLE_ASSIGNMENT (( #231 ) ) ;
#61 = VERTEX_POINT ( 'NONE', #275 ) ;
#62 = DIRECTION ( 'NONE',  ( -1.224646799147353454E-16, -0.0000000000000000000, -1.000000000000000000 ) ) ;
#63 = LINE ( 'NONE', #262, #301 ) ;
#64 = ORIENTED_EDGE ( 'NONE', *, *, #180, .T. ) ;
#65 = DIRECTION ( 'NONE',  ( -1.224646799147353454E-16, -0.0000000000000000000, -1.000000000000000000 ) ) ;
#66 = EDGE_CURVE ( 'NONE', #269, #120, #149, .T. ) ;
#67 = CONICAL_SURFACE ( 'NONE', #267, 0.04750000000000064587, 0.7853981633974466137 ) ;
#68 = ORIENTED_EDGE ( 'NONE', *, *, #321, .F. ) ;
#69 = DIRECTION ( 'NONE',  ( -0.1736481776669311639, 2.126576849575783008E-17, 0.9848077530122080203 ) ) ;
#70 = SURFACE_SIDE_STYLE ('',( #198 ) ) ;
#71 = DIRECTION ( 'NONE',  ( -1.000000000000000000, 0.0000000000000000000, 0.0000000000000000000 ) ) ;
#72 = ORIENTED_EDGE ( 'NONE', *, *, #21, .T. ) ;
#73 = CARTESIAN_POINT ( 'NONE',  ( 0.06250000000000002776, 7.654042494670959086E-18, 1.485000000000000764 ) ) ;
#74 = ORIENTED_EDGE ( 'NONE', *, *, #253, .F. ) ;
#75 =( CONVERSION_BASED_UNIT ( 'INCH', #291 ) LENGTH_UNIT ( ) NAMED_UNIT ( #296 ) );
#76 = ORIENTED_EDGE ( 'NONE', *, *, #190, .T. ) ;
#77 = PRESENTATION_STYLE_ASSIGNMENT (( #220 ) ) ;
#78 = EDGE_CURVE ( 'NONE', #49, #315, #318, .T. ) ;
#79 = DIRECTION ( 'NONE',  ( 1.000000000000000000, 0.0000000000000000000, 0.0000000000000000000 ) ) ;
#80 = AXIS2_PLACEMENT_3D ( 'NONE', #240, #41, #310 ) ;
#81 = CARTESIAN_POINT ( 'NONE',  ( -0.06249999999999997918, 0.0000000000000000000, 0.3577990083481244477 ) ) ;
#82 = ADVANCED_BREP_SHAPE_REPRESENTATION ( 'Micro_BMR-020-2', ( #1, #102 ), #173 ) ;
#83 =( NAMED_UNIT ( * ) SI_UNIT ( $, .STERADIAN. ) SOLID_ANGLE_UNIT ( ) );
#84 = FACE_OUTER_BOUND ( 'NONE', #50, .T. ) ;
#85 = EDGE_CURVE ( 'NONE', #315, #49, #300, .T. ) ;
#86 = CIRCLE ( 'NONE', #80, 0.009990000000000000616 ) ;
#87 = PRODUCT_CONTEXT ( 'NONE', #169, 'mechanical' ) ;
#88 = DIRECTION ( 'NONE',  ( -1.000000000000000000, 0.0000000000000000000, 2.136392637687893513E-16 ) ) ;
#89 = FACE_OUTER_BOUND ( 'NONE', #19, .T. ) ;
#90 = DIRECTION ( 'NONE',  ( 0.0000000000000000000, 1.000000000000000000, 0.0000000000000000000 ) ) ;
#91 = EDGE_CURVE ( 'NONE', #120, #269, #207, .T. ) ;
#92 = CARTESIAN_POINT ( 'NONE',  ( -0.04750000000000064587, 0.0000000000000000000, 1.500000000000000222 ) ) ;
#93 = AXIS2_PLACEMENT_3D ( 'NONE', #254, #172, #322 ) ;
#94 = EDGE_LOOP ( 'NONE', ( #304, #280, #200, #162 ) ) ;
#95 = CARTESIAN_POINT ( 'NONE',  ( -0.04750000000000064587, 0.0000000000000000000, 1.500000000000000222 ) ) ;
#96 = ORIENTED_EDGE ( 'NONE', *, *, #190, .F. ) ;
#97 = DIRECTION ( 'NONE',  ( -0.0000000000000000000, -0.0000000000000000000, -1.000000000000000000 ) ) ;
#98 = FILL_AREA_STYLE ('',( #22 ) ) ;
#99 = DIRECTION ( 'NONE',  ( 0.7071067811865462405, 8.659560562354916834E-17, -0.7071067811865486830 ) ) ;
#100 = CONICAL_SURFACE ( 'NONE', #114, 0.009990000000000000616, 0.1745329251994338637 ) ;
#101 = VERTEX_POINT ( 'NONE', #81 ) ;
#102 = AXIS2_PLACEMENT_3D ( 'NONE', #185, #177, #33 ) ;
#103 = LENGTH_MEASURE_WITH_UNIT ( LENGTH_MEASURE( 0.02539999999999999897 ), #17 );
#104 = DIRECTION ( 'NONE',  ( -1.000000000000000000, 0.0000000000000000000, 1.224646799147353454E-16 ) ) ;
#105 = FACE_OUTER_BOUND ( 'NONE', #244, .T. ) ;
#106 = AXIS2_PLACEMENT_3D ( 'NONE', #213, #97, #71 ) ;
#107 =( NAMED_UNIT ( * ) PLANE_ANGLE_UNIT ( ) SI_UNIT ( $, .RADIAN. ) );
#108 = LINE ( 'NONE', #204, #43 ) ;
#109 = ADVANCED_FACE ( 'NONE', ( #54 ), #57, .T. ) ;
#110 = VECTOR ( 'NONE', #289, 39.37007874015748143 ) ;
#111 = ADVANCED_FACE ( 'NONE', ( #84 ), #146, .T. ) ;
#112 = FACE_OUTER_BOUND ( 'NONE', #94, .T. ) ;
#113 = DIRECTION ( 'NONE',  ( 1.000000000000000000, 0.0000000000000000000, 0.0000000000000000000 ) ) ;
#114 = AXIS2_PLACEMENT_3D ( 'NONE', #126, #323, #178 ) ;
#115 = VECTOR ( 'NONE', #39, 39.37007874015748143 ) ;
#116 = DIRECTION ( 'NONE',  ( -1.000000000000000000, 0.0000000000000000000, 0.0000000000000000000 ) ) ;
#117 = CARTESIAN_POINT ( 'NONE',  ( 0.0000000000000000000, 0.0000000000000000000, 1.500000000000000222 ) ) ;
#118 = DIRECTION ( 'NONE',  ( 0.1736481776669313581, 0.0000000000000000000, 0.9848077530122077983 ) ) ;
#119 = AXIS2_PLACEMENT_3D ( 'NONE', #9, #257, #116 ) ;
#120 = VERTEX_POINT ( 'NONE', #127 ) ;
#121 = DIRECTION ( 'NONE',  ( 1.000000000000000000, 0.0000000000000000000, 0.0000000000000000000 ) ) ;
#122 = LINE ( 'NONE', #18, #281 ) ;
#123 = ORIENTED_EDGE ( 'NONE', *, *, #78, .T. ) ;
#124 = AXIS2_PLACEMENT_3D ( 'NONE', #29, #249, #88 ) ;
#125 = ADVANCED_FACE ( 'NONE', ( #148 ), #155, .T. ) ;
#126 = CARTESIAN_POINT ( 'NONE',  ( 7.347880794884121462E-18, 0.0000000000000000000, 0.05999999999999999778 ) ) ;
#127 = CARTESIAN_POINT ( 'NONE',  ( 0.04750000000000064587, 6.735557395310483192E-18, 1.500000000000000222 ) ) ;
#128 = PRODUCT_DEFINITION ( 'UNKNOWN', '', #15, #20 ) ;
#129 = AXIS2_PLACEMENT_3D ( 'NONE', #187, #136, #316 ) ;
#130 = SHAPE_DEFINITION_REPRESENTATION ( #59, #82 ) ;
#131 = CARTESIAN_POINT ( 'NONE',  ( -0.009989999999999993677, 1.223422152348205941E-18, 0.05999999999999999778 ) ) ;
#132 = FACE_OUTER_BOUND ( 'NONE', #286, .T. ) ;
#133 = AXIS2_PLACEMENT_3D ( 'NONE', #229, #325, #31 ) ;
#134 = EDGE_CURVE ( 'NONE', #238, #315, #145, .T. ) ;
#135 = DIRECTION ( 'NONE',  ( 1.224646799147353207E-16, 1.000000000000000000, -0.0000000000000000000 ) ) ;
#136 = DIRECTION ( 'NONE',  ( 0.0000000000000000000, 0.0000000000000000000, -1.000000000000000000 ) ) ;
#137 = VERTEX_POINT ( 'NONE', #3 ) ;
#138 = EDGE_CURVE ( 'NONE', #137, #49, #256, .T. ) ;
#139 = DIRECTION ( 'NONE',  ( -1.000000000000000000, 0.0000000000000000000, 0.0000000000000000000 ) ) ;
#140 = AXIS2_PLACEMENT_3D ( 'NONE', #284, #12, #307 ) ;
#141 = EDGE_LOOP ( 'NONE', ( #164, #72, #40 ) ) ;
#142 = UNCERTAINTY_MEASURE_WITH_UNIT (LENGTH_MEASURE( 1.000000000000000082E-05 ), #234, 'distance_accuracy_value', 'NONE');
#143 = ORIENTED_EDGE ( 'NONE', *, *, #211, .F. ) ;
#144 = EDGE_LOOP ( 'NONE', ( #245, #191, #263, #123 ) ) ;
#145 = LINE ( 'NONE', #232, #208 ) ;
#146 = CYLINDRICAL_SURFACE ( 'NONE', #4, 0.009990000000000000616 ) ;
#147 = ADVANCED_FACE ( 'NONE', ( #132 ), #312, .T. ) ;
#148 = FACE_OUTER_BOUND ( 'NONE', #144, .T. ) ;
#149 = CIRCLE ( 'NONE', #276, 0.04750000000000064587 ) ;
#150 = CIRCLE ( 'NONE', #38, 0.06250000000000002776 ) ;
#151 = DIRECTION ( 'NONE',  ( 0.0000000000000000000, 0.0000000000000000000, 1.000000000000000000 ) ) ;
#152 = EDGE_CURVE ( 'NONE', #101, #61, #273, .T. ) ;
#153 =( LENGTH_UNIT ( ) NAMED_UNIT ( * ) SI_UNIT ( $, .METRE. ) );
#154 = VERTEX_POINT ( 'NONE', #73 ) ;
#155 = CYLINDRICAL_SURFACE ( 'NONE', #133, 0.009990000000000000616 ) ;
#156 = CARTESIAN_POINT ( 'NONE',  ( 1.835133228522309201E-18, 0.0000000000000000000, 0.0000000000000000000 ) ) ;
#157 = ORIENTED_EDGE ( 'NONE', *, *, #170, .T. ) ;
#158 = LINE ( 'NONE', #92, #260 ) ;
#159 = ORIENTED_EDGE ( 'NONE', *, *, #11, .F. ) ;
#160 = CYLINDRICAL_SURFACE ( 'NONE', #106, 0.06250000000000002776 ) ;
#161 = ADVANCED_FACE ( 'NONE', ( #165 ), #67, .T. ) ;
#162 = ORIENTED_EDGE ( 'NONE', *, *, #211, .T. ) ;
#163 = DIRECTION ( 'NONE',  ( 1.000000000000000000, 0.0000000000000000000, 0.0000000000000000000 ) ) ;
#164 = ORIENTED_EDGE ( 'NONE', *, *, #170, .F. ) ;
#165 = FACE_OUTER_BOUND ( 'NONE', #13, .T. ) ;
#166 = AXIS2_PLACEMENT_3D ( 'NONE', #195, #205, #250 ) ;
#167 = ORIENTED_EDGE ( 'NONE', *, *, #91, .F. ) ;
#168 = ORIENTED_EDGE ( 'NONE', *, *, #66, .T. ) ;
#169 = APPLICATION_CONTEXT ( 'automotive_design' ) ;
#170 = EDGE_CURVE ( 'NONE', #268, #49, #219, .T. ) ;
#171 = ORIENTED_EDGE ( 'NONE', *, *, #199, .F. ) ;
#172 = DIRECTION ( 'NONE',  ( -0.0000000000000000000, -0.0000000000000000000, -1.000000000000000000 ) ) ;
#173 =( GEOMETRIC_REPRESENTATION_CONTEXT ( 3 ) GLOBAL_UNCERTAINTY_ASSIGNED_CONTEXT ( ( #46 ) ) GLOBAL_UNIT_ASSIGNED_CONTEXT ( ( #75, #251, #5 ) ) REPRESENTATION_CONTEXT ( 'NONE', 'WORKASPACE' ) );
#174 = DIMENSIONAL_EXPONENTS ( 1.000000000000000000, 0.0000000000000000000, 0.0000000000000000000, 0.0000000000000000000, 0.0000000000000000000, 0.0000000000000000000, 0.0000000000000000000 ) ;
#175 = CARTESIAN_POINT ( 'NONE',  ( 1.223422152348206134E-18, 0.0000000000000000000, 0.009990000000000000616 ) ) ;
#176 = CARTESIAN_POINT ( 'NONE',  ( 0.0000000000000000000, 0.0000000000000000000, 1.500000000000000222 ) ) ;
#177 = DIRECTION ( 'NONE',  ( 0.0000000000000000000, 0.0000000000000000000, 1.000000000000000000 ) ) ;
#178 = DIRECTION ( 'NONE',  ( 1.000000000000000000, 0.0000000000000000000, 0.0000000000000000000 ) ) ;
#179 = PRESENTATION_LAYER_ASSIGNMENT (  '', '', ( #236 ) ) ;
#180 = EDGE_CURVE ( 'NONE', #137, #101, #215, .T. ) ;
#181 = SURFACE_SIDE_STYLE ('',( #209 ) ) ;
#182 =( GEOMETRIC_REPRESENTATION_CONTEXT ( 3 ) GLOBAL_UNCERTAINTY_ASSIGNED_CONTEXT ( ( #303 ) ) GLOBAL_UNIT_ASSIGNED_CONTEXT ( ( #25, #107, #83 ) ) REPRESENTATION_CONTEXT ( 'NONE', 'WORKASPACE' ) );
#183 = MECHANICAL_DESIGN_GEOMETRIC_PRESENTATION_REPRESENTATION (  '', ( #236 ), #44 ) ;
#184 = DIRECTION ( 'NONE',  ( -1.000000000000000000, 0.0000000000000000000, 2.136392637687893513E-16 ) ) ;
#185 = CARTESIAN_POINT ( 'NONE',  ( 0.0000000000000000000, 0.0000000000000000000, 0.0000000000000000000 ) ) ;
#186 = DIRECTION ( 'NONE',  ( 0.0000000000000000000, 0.0000000000000000000, 1.000000000000000000 ) ) ;
#187 = CARTESIAN_POINT ( 'NONE',  ( 0.0000000000000000000, 0.0000000000000000000, 1.485000000000000764 ) ) ;
#188 = APPLICATION_CONTEXT ( 'automotive_design' ) ;
#189 = DIRECTION ( 'NONE',  ( 0.0000000000000000000, 0.0000000000000000000, -1.000000000000000000 ) ) ;
#190 = EDGE_CURVE ( 'NONE', #154, #61, #239, .T. ) ;
#191 = ORIENTED_EDGE ( 'NONE', *, *, #270, .T. ) ;
#192 = FACE_OUTER_BOUND ( 'NONE', #193, .T. ) ;
#193 = EDGE_LOOP ( 'NONE', ( #241, #157, #258 ) ) ;
#194 = DIRECTION ( 'NONE',  ( -0.7071067811865462405, 0.0000000000000000000, -0.7071067811865486830 ) ) ;
#195 = CARTESIAN_POINT ( 'NONE',  ( 0.0000000000000000000, 0.0000000000000000000, 1.485000000000000764 ) ) ;
#196 = STYLED_ITEM ( 'NONE', ( #77 ), #1 ) ;
#197 = AXIS2_PLACEMENT_3D ( 'NONE', #175, #210, #26 ) ;
#198 = SURFACE_STYLE_FILL_AREA ( #98 ) ;
#199 = EDGE_CURVE ( 'NONE', #137, #238, #86, .T. ) ;
#200 = ORIENTED_EDGE ( 'NONE', *, *, #253, .T. ) ;
#201 = CARTESIAN_POINT ( 'NONE',  ( -0.009990000000000000616, 0.0000000000000000000, 1.223422152348206134E-18 ) ) ;
#202 = ADVANCED_FACE ( 'NONE', ( #314 ), #56, .T. ) ;
#203 = MECHANICAL_DESIGN_GEOMETRIC_PRESENTATION_REPRESENTATION (  '', ( #196 ), #182 ) ;
#204 = CARTESIAN_POINT ( 'NONE',  ( -0.06250000000000002776, 0.0000000000000000000, 1.500000000000000222 ) ) ;
#205 = DIRECTION ( 'NONE',  ( 0.0000000000000000000, 0.0000000000000000000, -1.000000000000000000 ) ) ;
#206 = APPLICATION_PROTOCOL_DEFINITION ( 'draft international standard', 'automotive_design', 1998, #188 ) ;
#207 = CIRCLE ( 'NONE', #246, 0.04750000000000064587 ) ;
#208 = VECTOR ( 'NONE', #233, 39.37007874015748143 ) ;
#209 = SURFACE_STYLE_FILL_AREA ( #255 ) ;
#210 = DIRECTION ( 'NONE',  ( 0.0000000000000000000, -1.000000000000000000, 0.0000000000000000000 ) ) ;
#211 = EDGE_CURVE ( 'NONE', #61, #101, #150, .T. ) ;
#212 = AXIS2_PLACEMENT_3D ( 'NONE', #283, #16, #121 ) ;
#213 = CARTESIAN_POINT ( 'NONE',  ( 0.0000000000000000000, 0.0000000000000000000, 1.500000000000000222 ) ) ;
#214 = EDGE_CURVE ( 'NONE', #269, #24, #158, .T. ) ;
#215 = LINE ( 'NONE', #131, #292 ) ;
#216 = ORIENTED_EDGE ( 'NONE', *, *, #199, .T. ) ;
#217 = COLOUR_RGB ( '',0.7921568627450980005, 0.8196078431372548767, 0.9333333333333333481 ) ;
#218 = CARTESIAN_POINT ( 'NONE',  ( 0.06250000000000002776, 7.654042494670959086E-18, 1.500000000000000222 ) ) ;
#219 = CIRCLE ( 'NONE', #32, 0.009990000000000000616 ) ;
#220 = SURFACE_STYLE_USAGE ( .BOTH. , #70 ) ;
#221 = CARTESIAN_POINT ( 'NONE',  ( 4.381774103116277669E-17, 0.0000000000000000000, 0.3577990083481244477 ) ) ;
#222 = ORIENTED_EDGE ( 'NONE', *, *, #302, .F. ) ;
#223 =( LENGTH_UNIT ( ) NAMED_UNIT ( * ) SI_UNIT ( $, .METRE. ) );
#224 = EDGE_LOOP ( 'NONE', ( #167, #294, #222, #42 ) ) ;
#225 = ORIENTED_EDGE ( 'NONE', *, *, #8, .F. ) ;
#226 = CARTESIAN_POINT ( 'NONE',  ( 1.223422152348206134E-18, 0.0000000000000000000, 0.009990000000000000616 ) ) ;
#227 = ADVANCED_FACE ( 'NONE', ( #242 ), #261, .T. ) ;
#228 = CIRCLE ( 'NONE', #166, 0.06250000000000002776 ) ;
#229 = CARTESIAN_POINT ( 'NONE',  ( 0.0000000000000000000, 0.0000000000000000000, 0.0000000000000000000 ) ) ;
#230 = AXIS2_PLACEMENT_3D ( 'NONE', #287, #90, #163 ) ;
#231 = SURFACE_STYLE_USAGE ( .BOTH. , #181 ) ;
#232 = CARTESIAN_POINT ( 'NONE',  ( 0.009990000000000000616, 1.223422152348205941E-18, -1.223422152348206134E-18 ) ) ;
#233 = DIRECTION ( 'NONE',  ( -1.224646799147353454E-16, -0.0000000000000000000, -1.000000000000000000 ) ) ;
#234 =( CONVERSION_BASED_UNIT ( 'INCH', #58 ) LENGTH_UNIT ( ) NAMED_UNIT ( #174 ) );
#235 = DIRECTION ( 'NONE',  ( 0.0000000000000000000, 0.0000000000000000000, -1.000000000000000000 ) ) ;
#236 = STYLED_ITEM ( 'NONE', ( #60 ), #82 ) ;
#237 = CARTESIAN_POINT ( 'NONE',  ( 1.223422152348206134E-18, 0.0000000000000000000, 0.009990000000000000616 ) ) ;
#238 = VERTEX_POINT ( 'NONE', #285 ) ;
#239 = LINE ( 'NONE', #218, #110 ) ;
#240 = CARTESIAN_POINT ( 'NONE',  ( 7.347880794884121462E-18, 0.0000000000000000000, 0.05999999999999999778 ) ) ;
#241 = ORIENTED_EDGE ( 'NONE', *, *, #21, .F. ) ;
#242 = FACE_OUTER_BOUND ( 'NONE', #141, .T. ) ;
#243 = AXIS2_PLACEMENT_3D ( 'NONE', #7, #235, #139 ) ;
#244 = EDGE_LOOP ( 'NONE', ( #171, #64, #47, #74 ) ) ;
#245 = ORIENTED_EDGE ( 'NONE', *, *, #134, .F. ) ;
#246 = AXIS2_PLACEMENT_3D ( 'NONE', #176, #274, #79 ) ;
#247 = ORIENTED_EDGE ( 'NONE', *, *, #85, .T. ) ;
#248 = ADVANCED_FACE ( 'NONE', ( #89 ), #160, .T. ) ;
#249 = DIRECTION ( 'NONE',  ( 1.224646799147353454E-16, 0.0000000000000000000, 1.000000000000000000 ) ) ;
#250 = DIRECTION ( 'NONE',  ( 1.000000000000000000, 0.0000000000000000000, 0.0000000000000000000 ) ) ;
#251 =( NAMED_UNIT ( * ) PLANE_ANGLE_UNIT ( ) SI_UNIT ( $, .RADIAN. ) );
#252 = CARTESIAN_POINT ( 'NONE',  ( 7.347880794884121462E-18, 0.0000000000000000000, 0.05999999999999999778 ) ) ;
#253 = EDGE_CURVE ( 'NONE', #238, #61, #63, .T. ) ;
#254 = CARTESIAN_POINT ( 'NONE',  ( 0.0000000000000000000, 0.0000000000000000000, 1.500000000000000222 ) ) ;
#255 = FILL_AREA_STYLE ('',( #30 ) ) ;
#256 = LINE ( 'NONE', #201, #115 ) ;
#257 = DIRECTION ( 'NONE',  ( -1.224646799147353454E-16, -0.0000000000000000000, -1.000000000000000000 ) ) ;
#258 = ORIENTED_EDGE ( 'NONE', *, *, #85, .F. ) ;
#259 = CONICAL_SURFACE ( 'NONE', #55, 0.009990000000000000616, 0.1745329251994338637 ) ;
#260 = VECTOR ( 'NONE', #194, 39.37007874015748854 ) ;
#261 = SPHERICAL_SURFACE ( 'NONE', #212, 0.009990000000000000616 ) ;
#262 = CARTESIAN_POINT ( 'NONE',  ( 0.009990000000000007555, 0.0000000000000000000, 0.05999999999999999778 ) ) ;
#263 = ORIENTED_EDGE ( 'NONE', *, *, #138, .T. ) ;
#264 = DIRECTION ( 'NONE',  ( 1.000000000000000000, 0.0000000000000000000, -0.0000000000000000000 ) ) ;
#265 = ORIENTED_EDGE ( 'NONE', *, *, #302, .T. ) ;
#266 = PRESENTATION_LAYER_ASSIGNMENT (  '', '', ( #196 ) ) ;
#267 = AXIS2_PLACEMENT_3D ( 'NONE', #37, #189, #10 ) ;
#268 = VERTEX_POINT ( 'NONE', #156 ) ;
#269 = VERTEX_POINT ( 'NONE', #95 ) ;
#270 = EDGE_CURVE ( 'NONE', #238, #137, #277, .T. ) ;
#271 = ORIENTED_EDGE ( 'NONE', *, *, #66, .F. ) ;
#272 = PRODUCT ( 'Micro_BMR-020-2', 'Micro_BMR-020-2', '', ( #87 ) ) ;
#273 = CIRCLE ( 'NONE', #140, 0.06250000000000002776 ) ;
#274 = DIRECTION ( 'NONE',  ( 0.0000000000000000000, 0.0000000000000000000, 1.000000000000000000 ) ) ;
#275 = CARTESIAN_POINT ( 'NONE',  ( 0.06250000000000006939, 7.654042494670963708E-18, 0.3577990083481244477 ) ) ;
#276 = AXIS2_PLACEMENT_3D ( 'NONE', #51, #151, #297 ) ;
#277 = CIRCLE ( 'NONE', #119, 0.009990000000000000616 ) ;
#278 = CARTESIAN_POINT ( 'NONE',  ( 0.0000000000000000000, 0.0000000000000000000, 0.0000000000000000000 ) ) ;
#279 = ADVANCED_FACE ( 'NONE', ( #192 ), #309, .T. ) ;
#280 = ORIENTED_EDGE ( 'NONE', *, *, #270, .F. ) ;
#281 = VECTOR ( 'NONE', #99, 39.37007874015748854 ) ;
#282 = CARTESIAN_POINT ( 'NONE',  ( -0.06250000000000002776, 0.0000000000000000000, 1.485000000000000764 ) ) ;
#283 = CARTESIAN_POINT ( 'NONE',  ( 1.223422152348206134E-18, 0.0000000000000000000, 0.009990000000000000616 ) ) ;
#284 = CARTESIAN_POINT ( 'NONE',  ( 4.381774103116277669E-17, 0.0000000000000000000, 0.3577990083481244477 ) ) ;
#285 = CARTESIAN_POINT ( 'NONE',  ( 0.009990000000000007555, 0.0000000000000000000, 0.05999999999999999778 ) ) ;
#286 = EDGE_LOOP ( 'NONE', ( #168, #293 ) ) ;
#287 = CARTESIAN_POINT ( 'NONE',  ( 1.223422152348206134E-18, 0.0000000000000000000, 0.009990000000000000616 ) ) ;
#288 = ORIENTED_EDGE ( 'NONE', *, *, #152, .F. ) ;
#289 = DIRECTION ( 'NONE',  ( -0.0000000000000000000, -0.0000000000000000000, -1.000000000000000000 ) ) ;
#290 = ORIENTED_EDGE ( 'NONE', *, *, #138, .F. ) ;
#291 = LENGTH_MEASURE_WITH_UNIT ( LENGTH_MEASURE( 0.02539999999999999897 ), #223 );
#292 = VECTOR ( 'NONE', #69, 39.37007874015747433 ) ;
#293 = ORIENTED_EDGE ( 'NONE', *, *, #91, .T. ) ;
#294 = ORIENTED_EDGE ( 'NONE', *, *, #321, .T. ) ;
#295 = DIRECTION ( 'NONE',  ( 1.000000000000000000, 0.0000000000000000000, 0.0000000000000000000 ) ) ;
#296 = DIMENSIONAL_EXPONENTS ( 1.000000000000000000, 0.0000000000000000000, 0.0000000000000000000, 0.0000000000000000000, 0.0000000000000000000, 0.0000000000000000000, 0.0000000000000000000 ) ;
#297 = DIRECTION ( 'NONE',  ( 1.000000000000000000, 0.0000000000000000000, 0.0000000000000000000 ) ) ;
#298 =( NAMED_UNIT ( * ) SI_UNIT ( $, .STERADIAN. ) SOLID_ANGLE_UNIT ( ) );
#299 = DIRECTION ( 'NONE',  ( 1.224646799147353454E-16, 0.0000000000000000000, 1.000000000000000000 ) ) ;
#300 = CIRCLE ( 'NONE', #23, 0.009990000000000000616 ) ;
#301 = VECTOR ( 'NONE', #118, 39.37007874015748143 ) ;
#302 = EDGE_CURVE ( 'NONE', #24, #154, #319, .T. ) ;
#303 = UNCERTAINTY_MEASURE_WITH_UNIT (LENGTH_MEASURE( 1.000000000000000082E-05 ), #25, 'distance_accuracy_value', 'NONE');
#304 = ORIENTED_EDGE ( 'NONE', *, *, #180, .F. ) ;
#305 = CARTESIAN_POINT ( 'NONE',  ( -0.009989999999999998881, 0.0000000000000000000, 0.009990000000000002350 ) ) ;
#306 = ORIENTED_EDGE ( 'NONE', *, *, #214, .T. ) ;
#307 = DIRECTION ( 'NONE',  ( 1.000000000000000000, 0.0000000000000000000, 0.0000000000000000000 ) ) ;
#308 = DIMENSIONAL_EXPONENTS ( 1.000000000000000000, 0.0000000000000000000, 0.0000000000000000000, 0.0000000000000000000, 0.0000000000000000000, 0.0000000000000000000, 0.0000000000000000000 ) ;
#309 = SPHERICAL_SURFACE ( 'NONE', #230, 0.009990000000000000616 ) ;
#310 = DIRECTION ( 'NONE',  ( -1.000000000000000000, 0.0000000000000000000, 0.0000000000000000000 ) ) ;
#311 = ORIENTED_EDGE ( 'NONE', *, *, #11, .T. ) ;
#312 = PLANE ( 'NONE',  #28 ) ;
#313 = ORIENTED_EDGE ( 'NONE', *, *, #134, .T. ) ;
#314 = FACE_OUTER_BOUND ( 'NONE', #224, .T. ) ;
#315 = VERTEX_POINT ( 'NONE', #45 ) ;
#316 = DIRECTION ( 'NONE',  ( 1.000000000000000000, 0.0000000000000000000, 0.0000000000000000000 ) ) ;
#317 = EDGE_LOOP ( 'NONE', ( #96, #311, #320, #143 ) ) ;
#318 = CIRCLE ( 'NONE', #124, 0.009990000000000000616 ) ;
#319 = CIRCLE ( 'NONE', #129, 0.06250000000000002776 ) ;
#320 = ORIENTED_EDGE ( 'NONE', *, *, #8, .T. ) ;
#321 = EDGE_CURVE ( 'NONE', #120, #154, #122, .T. ) ;
#322 = DIRECTION ( 'NONE',  ( -1.000000000000000000, 0.0000000000000000000, 0.0000000000000000000 ) ) ;
#323 = DIRECTION ( 'NONE',  ( 1.224646799147353454E-16, 0.0000000000000000000, 1.000000000000000000 ) ) ;
#324 = COLOUR_RGB ( '',0.7921568627450980005, 0.8196078431372548767, 0.9333333333333333481 ) ;
#325 = DIRECTION ( 'NONE',  ( -1.224646799147353454E-16, -0.0000000000000000000, -1.000000000000000000 ) ) ;
ENDSEC;
END-ISO-10303-21;
