ISO-10303-21;
HEADER;
FILE_DESCRIPTION (( 'STEP AP214' ),
    '1' );
FILE_NAME ('48586.STEP',
    '2023-06-22T21:50:57',
    ( '' ),
    ( '' ),
    'SwSTEP 2.0',
    'SolidWorks 2023',
    '' );
FILE_SCHEMA (( 'AUTOMOTIVE_DESIGN' ));
ENDSEC;

DATA;
#1 = ORIENTED_EDGE ( 'NONE', *, *, #52, .F. ) ;
#2 = DIRECTION ( 'NONE',  ( -1.000000000000000000, 0.000000000000000000, 0.000000000000000000 ) ) ;
#3 = AXIS2_PLACEMENT_3D ( 'NONE', #24, #193, #144 ) ;
#4 = DIRECTION ( 'NONE',  ( -0.000000000000000000, -1.000000000000000000, -0.000000000000000000 ) ) ;
#5 = EDGE_LOOP ( 'NONE', ( #136, #114 ) ) ;
#6 = LENGTH_MEASURE_WITH_UNIT ( LENGTH_MEASURE( 0.02539999999999999897 ), #296 );
#7 = DIRECTION ( 'NONE',  ( -1.000000000000000000, 0.000000000000000000, 0.000000000000000000 ) ) ;
#8 = LENGTH_MEASURE_WITH_UNIT ( LENGTH_MEASURE( 0.02539999999999999897 ), #309 );
#9 = DIMENSIONAL_EXPONENTS ( 1.000000000000000000, 0.000000000000000000, 0.000000000000000000, 0.000000000000000000, 0.000000000000000000, 0.000000000000000000, 0.000000000000000000 ) ;
#10 = FACE_OUTER_BOUND ( 'NONE', #113, .T. ) ;
#11 = ADVANCED_FACE ( 'NONE', ( #257 ), #92, .T. ) ;
#12 = CIRCLE ( 'NONE', #292, 0.3750000000000000555 ) ;
#13 =( LENGTH_UNIT ( ) NAMED_UNIT ( * ) SI_UNIT ( $, .METRE. ) );
#14 = DIRECTION ( 'NONE',  ( 0.000000000000000000, 0.000000000000000000, -1.000000000000000000 ) ) ;
#15 = ORIENTED_EDGE ( 'NONE', *, *, #52, .T. ) ;
#16 = LINE ( 'NONE', #308, #23 ) ;
#17 = DIRECTION ( 'NONE',  ( -6.123233995736763571E-17, -1.000000000000000000, 0.000000000000000000 ) ) ;
#18 = CYLINDRICAL_SURFACE ( 'NONE', #143, 0.3749999999999999445 ) ;
#19 = ORIENTED_EDGE ( 'NONE', *, *, #306, .T. ) ;
#20 = UNCERTAINTY_MEASURE_WITH_UNIT (LENGTH_MEASURE( 1.000000000000000082E-05 ), #26, 'distance_accuracy_value', 'NONE');
#21 = PLANE ( 'NONE',  #238 ) ;
#22 = ORIENTED_EDGE ( 'NONE', *, *, #272, .T. ) ;
#23 = VECTOR ( 'NONE', #158, 39.37007874015748143 ) ;
#24 = CARTESIAN_POINT ( 'NONE',  ( 0.000000000000000000, 1.000000000000000000, 0.000000000000000000 ) ) ;
#25 = ADVANCED_FACE ( 'NONE', ( #167 ), #71, .T. ) ;
#26 =( CONVERSION_BASED_UNIT ( 'INCH', #6 ) LENGTH_UNIT ( ) NAMED_UNIT ( #98 ) );
#27 = CYLINDRICAL_SURFACE ( 'NONE', #83, 0.3749999999999999445 ) ;
#28 = CARTESIAN_POINT ( 'NONE',  ( 0.000000000000000000, 0.000000000000000000, 0.000000000000000000 ) ) ;
#29 = AXIS2_PLACEMENT_3D ( 'NONE', #76, #176, #129 ) ;
#30 = FACE_OUTER_BOUND ( 'NONE', #89, .T. ) ;
#31 =( NAMED_UNIT ( * ) SI_UNIT ( $, .STERADIAN. ) SOLID_ANGLE_UNIT ( ) );
#32 = DIMENSIONAL_EXPONENTS ( 1.000000000000000000, 0.000000000000000000, 0.000000000000000000, 0.000000000000000000, 0.000000000000000000, 0.000000000000000000, 0.000000000000000000 ) ;
#33 = SURFACE_STYLE_FILL_AREA ( #150 ) ;
#34 = FILL_AREA_STYLE_COLOUR ( '', #261 ) ;
#35 = APPLICATION_CONTEXT ( 'automotive_design' ) ;
#36 = DIRECTION ( 'NONE',  ( -0.000000000000000000, -1.000000000000000000, -0.000000000000000000 ) ) ;
#37 = PRODUCT_DEFINITION_FORMATION_WITH_SPECIFIED_SOURCE ( 'ANY', '', #148, .NOT_KNOWN. ) ;
#38 = FACE_OUTER_BOUND ( 'NONE', #282, .T. ) ;
#39 = EDGE_CURVE ( 'NONE', #234, #159, #115, .T. ) ;
#40 = DIRECTION ( 'NONE',  ( 1.000000000000000000, -6.123233995736763571E-17, 0.000000000000000000 ) ) ;
#41 = VERTEX_POINT ( 'NONE', #242 ) ;
#42 = COLOUR_RGB ( '',1.000000000000000000, 0.000000000000000000, 0.000000000000000000 ) ;
#43 = SURFACE_STYLE_USAGE ( .BOTH. , #62 ) ;
#44 = VERTEX_POINT ( 'NONE', #269 ) ;
#45 = ORIENTED_EDGE ( 'NONE', *, *, #119, .T. ) ;
#46 = CARTESIAN_POINT ( 'NONE',  ( -3.032960542342103792E-32, 1.000000000000000000, 0.000000000000000000 ) ) ;
#47 =( GEOMETRIC_REPRESENTATION_CONTEXT ( 3 ) GLOBAL_UNCERTAINTY_ASSIGNED_CONTEXT ( ( #116 ) ) GLOBAL_UNIT_ASSIGNED_CONTEXT ( ( #304, #222, #299 ) ) REPRESENTATION_CONTEXT ( 'NONE', 'WORKASPACE' ) );
#48 = SURFACE_SIDE_STYLE ('',( #74 ) ) ;
#49 = DIRECTION ( 'NONE',  ( -0.000000000000000000, -1.000000000000000000, -0.000000000000000000 ) ) ;
#50 =( NAMED_UNIT ( * ) PLANE_ANGLE_UNIT ( ) SI_UNIT ( $, .RADIAN. ) );
#51 = CLOSED_SHELL ( 'NONE', ( #58, #85, #245, #184 ) ) ;
#52 = EDGE_CURVE ( 'NONE', #44, #82, #204, .T. ) ;
#53 = COLOUR_RGB ( '',1.000000000000000000, 0.000000000000000000, 0.000000000000000000 ) ;
#54 = CARTESIAN_POINT ( 'NONE',  ( 0.3750000000000000555, 3.000000000000000444, 4.592425496802574219E-17 ) ) ;
#55 = SURFACE_STYLE_FILL_AREA ( #276 ) ;
#56 = PRODUCT_DEFINITION_SHAPE ( 'NONE', 'NONE',  #177 ) ;
#57 = LENGTH_MEASURE_WITH_UNIT ( LENGTH_MEASURE( 0.02539999999999999897 ), #13 );
#58 = ADVANCED_FACE ( 'NONE', ( #30 ), #27, .T. ) ;
#59 = AXIS2_PLACEMENT_3D ( 'NONE', #283, #201, #279 ) ;
#60 = CARTESIAN_POINT ( 'NONE',  ( 4.592425496802575451E-17, 1.000000000000000000, 0.3750000000000000555 ) ) ;
#61 = EDGE_LOOP ( 'NONE', ( #141, #19, #206, #68 ) ) ;
#62 = SURFACE_SIDE_STYLE ('',( #231 ) ) ;
#63 = CARTESIAN_POINT ( 'NONE',  ( 0.3750000000000000555, 3.000000000000000444, 0.000000000000000000 ) ) ;
#64 = ORIENTED_EDGE ( 'NONE', *, *, #260, .F. ) ;
#65 = COLOUR_RGB ( '',0.7921568627450980005, 0.8196078431372548767, 0.9333333333333333481 ) ;
#66 = VECTOR ( 'NONE', #145, 39.37007874015748143 ) ;
#67 = ORIENTED_EDGE ( 'NONE', *, *, #302, .F. ) ;
#68 = ORIENTED_EDGE ( 'NONE', *, *, #131, .F. ) ;
#69 = DIRECTION ( 'NONE',  ( 6.123233995736763571E-17, 1.000000000000000000, -0.000000000000000000 ) ) ;
#70 = MECHANICAL_DESIGN_GEOMETRIC_PRESENTATION_REPRESENTATION (  '', ( #251 ), #103 ) ;
#71 = PLANE ( 'NONE',  #183 ) ;
#72 = DIMENSIONAL_EXPONENTS ( 1.000000000000000000, 0.000000000000000000, 0.000000000000000000, 0.000000000000000000, 0.000000000000000000, 0.000000000000000000, 0.000000000000000000 ) ;
#73 = COLOUR_RGB ( '',1.000000000000000000, 0.000000000000000000, 0.000000000000000000 ) ;
#74 = SURFACE_STYLE_FILL_AREA ( #262 ) ;
#75 = CYLINDRICAL_SURFACE ( 'NONE', #168, 0.3750000000000000555 ) ;
#76 = CARTESIAN_POINT ( 'NONE',  ( 1.224646799147352714E-16, 3.000000000000000444, 0.000000000000000000 ) ) ;
#77 = SURFACE_SIDE_STYLE ('',( #33 ) ) ;
#78 = VECTOR ( 'NONE', #271, 39.37007874015748143 ) ;
#79 = AXIS2_PLACEMENT_3D ( 'NONE', #140, #4, #14 ) ;
#80 =( NAMED_UNIT ( * ) PLANE_ANGLE_UNIT ( ) SI_UNIT ( $, .RADIAN. ) );
#81 = PRESENTATION_STYLE_ASSIGNMENT (( #249 ) ) ;
#82 = VERTEX_POINT ( 'NONE', #54 ) ;
#83 = AXIS2_PLACEMENT_3D ( 'NONE', #120, #69, #215 ) ;
#84 = FILL_AREA_STYLE_COLOUR ( '', #53 ) ;
#85 = ADVANCED_FACE ( 'NONE', ( #10 ), #124, .F. ) ;
#86 =( CONVERSION_BASED_UNIT ( 'INCH', #91 ) LENGTH_UNIT ( ) NAMED_UNIT ( #9 ) );
#87 = EDGE_LOOP ( 'NONE', ( #202, #285, #22, #188 ) ) ;
#88 = SURFACE_STYLE_USAGE ( .BOTH. , #106 ) ;
#89 = EDGE_LOOP ( 'NONE', ( #45, #205, #1, #64 ) ) ;
#90 = PRESENTATION_LAYER_ASSIGNMENT (  '', '', ( #224 ) ) ;
#91 = LENGTH_MEASURE_WITH_UNIT ( LENGTH_MEASURE( 0.02539999999999999897 ), #162 );
#92 = PLANE ( 'NONE',  #3 ) ;
#93 = EDGE_CURVE ( 'NONE', #157, #82, #126, .T. ) ;
#94 = DIRECTION ( 'NONE',  ( 1.000000000000000000, 0.000000000000000000, 0.000000000000000000 ) ) ;
#95 =( NAMED_UNIT ( * ) SI_UNIT ( $, .STERADIAN. ) SOLID_ANGLE_UNIT ( ) );
#96 =( LENGTH_UNIT ( ) NAMED_UNIT ( * ) SI_UNIT ( $, .METRE. ) );
#97 = CIRCLE ( 'NONE', #275, 0.3750000000000000555 ) ;
#98 = DIMENSIONAL_EXPONENTS ( 1.000000000000000000, 0.000000000000000000, 0.000000000000000000, 0.000000000000000000, 0.000000000000000000, 0.000000000000000000, 0.000000000000000000 ) ;
#99 = ADVANCED_FACE ( 'NONE', ( #305 ), #75, .T. ) ;
#100 =( GEOMETRIC_REPRESENTATION_CONTEXT ( 3 ) GLOBAL_UNCERTAINTY_ASSIGNED_CONTEXT ( ( #118 ) ) GLOBAL_UNIT_ASSIGNED_CONTEXT ( ( #86, #182, #130 ) ) REPRESENTATION_CONTEXT ( 'NONE', 'WORKASPACE' ) );
#101 = FILL_AREA_STYLE ('',( #221 ) ) ;
#102 = SURFACE_SIDE_STYLE ('',( #55 ) ) ;
#103 =( GEOMETRIC_REPRESENTATION_CONTEXT ( 3 ) GLOBAL_UNCERTAINTY_ASSIGNED_CONTEXT ( ( #164 ) ) GLOBAL_UNIT_ASSIGNED_CONTEXT ( ( #239, #50, #31 ) ) REPRESENTATION_CONTEXT ( 'NONE', 'WORKASPACE' ) );
#104 = CIRCLE ( 'NONE', #79, 0.3750000000000000555 ) ;
#105 = EDGE_CURVE ( 'NONE', #258, #41, #97, .T. ) ;
#106 = SURFACE_SIDE_STYLE ('',( #197 ) ) ;
#107 = ORIENTED_EDGE ( 'NONE', *, *, #105, .T. ) ;
#108 =( LENGTH_UNIT ( ) NAMED_UNIT ( * ) SI_UNIT ( $, .METRE. ) );
#109 =( GEOMETRIC_REPRESENTATION_CONTEXT ( 3 ) GLOBAL_UNCERTAINTY_ASSIGNED_CONTEXT ( ( #236 ) ) GLOBAL_UNIT_ASSIGNED_CONTEXT ( ( #152, #80, #200 ) ) REPRESENTATION_CONTEXT ( 'NONE', 'WORKASPACE' ) );
#110 = STYLED_ITEM ( 'NONE', ( #81 ), #133 ) ;
#111 = ORIENTED_EDGE ( 'NONE', *, *, #119, .F. ) ;
#112 = UNCERTAINTY_MEASURE_WITH_UNIT (LENGTH_MEASURE( 1.000000000000000082E-05 ), #191, 'distance_accuracy_value', 'NONE');
#113 = EDGE_LOOP ( 'NONE', ( #111, #163 ) ) ;
#114 = ORIENTED_EDGE ( 'NONE', *, *, #39, .F. ) ;
#115 = CIRCLE ( 'NONE', #198, 0.3750000000000000555 ) ;
#116 = UNCERTAINTY_MEASURE_WITH_UNIT (LENGTH_MEASURE( 1.000000000000000082E-05 ), #304, 'distance_accuracy_value', 'NONE');
#117 = CARTESIAN_POINT ( 'NONE',  ( 0.000000000000000000, 1.000000000000000000, 0.000000000000000000 ) ) ;
#118 = UNCERTAINTY_MEASURE_WITH_UNIT (LENGTH_MEASURE( 1.000000000000000082E-05 ), #86, 'distance_accuracy_value', 'NONE');
#119 = EDGE_CURVE ( 'NONE', #138, #157, #121, .T. ) ;
#120 = CARTESIAN_POINT ( 'NONE',  ( 1.224646799147352714E-16, 3.000000000000000444, 0.000000000000000000 ) ) ;
#121 = CIRCLE ( 'NONE', #303, 0.3750000000000000555 ) ;
#122 = DIRECTION ( 'NONE',  ( -1.000000000000000000, 0.000000000000000000, 0.000000000000000000 ) ) ;
#123 = AXIS2_PLACEMENT_3D ( 'NONE', #293, #259, #94 ) ;
#124 = PLANE ( 'NONE',  #291 ) ;
#125 = PRODUCT_CONTEXT ( 'NONE', #35, 'mechanical' ) ;
#126 = LINE ( 'NONE', #174, #78 ) ;
#127 = MECHANICAL_DESIGN_GEOMETRIC_PRESENTATION_REPRESENTATION (  '', ( #232 ), #109 ) ;
#128 = CARTESIAN_POINT ( 'NONE',  ( -3.032960542342103792E-32, 1.000000000000000000, 0.000000000000000000 ) ) ;
#129 = DIRECTION ( 'NONE',  ( -1.000000000000000000, 0.000000000000000000, 0.000000000000000000 ) ) ;
#130 =( NAMED_UNIT ( * ) SI_UNIT ( $, .STERADIAN. ) SOLID_ANGLE_UNIT ( ) );
#131 = EDGE_CURVE ( 'NONE', #82, #44, #160, .T. ) ;
#132 = FACE_OUTER_BOUND ( 'NONE', #230, .T. ) ;
#133 = MANIFOLD_SOLID_BREP ( 'Revolve - Tool Body (Straight Shanked)', #51 ) ;
#134 = SURFACE_STYLE_USAGE ( .BOTH. , #307 ) ;
#135 = MANIFOLD_SOLID_BREP ( 'Revolve - Cutting Edge', #142 ) ;
#136 = ORIENTED_EDGE ( 'NONE', *, *, #207, .F. ) ;
#137 = ADVANCED_BREP_SHAPE_REPRESENTATION ( '48586', ( #135, #133, #123 ), #263 ) ;
#138 = VERTEX_POINT ( 'NONE', #253 ) ;
#139 = UNCERTAINTY_MEASURE_WITH_UNIT (LENGTH_MEASURE( 1.000000000000000082E-05 ), #203, 'distance_accuracy_value', 'NONE');
#140 = CARTESIAN_POINT ( 'NONE',  ( 0.000000000000000000, 1.000000000000000000, 0.000000000000000000 ) ) ;
#141 = ORIENTED_EDGE ( 'NONE', *, *, #93, .F. ) ;
#142 = CLOSED_SHELL ( 'NONE', ( #190, #11, #99, #25 ) ) ;
#143 = AXIS2_PLACEMENT_3D ( 'NONE', #252, #208, #2 ) ;
#144 = DIRECTION ( 'NONE',  ( 0.000000000000000000, -0.000000000000000000, 1.000000000000000000 ) ) ;
#145 = DIRECTION ( 'NONE',  ( -0.000000000000000000, -1.000000000000000000, -0.000000000000000000 ) ) ;
#146 =( NAMED_UNIT ( * ) PLANE_ANGLE_UNIT ( ) SI_UNIT ( $, .RADIAN. ) );
#147 = DIRECTION ( 'NONE',  ( -0.000000000000000000, -1.000000000000000000, -0.000000000000000000 ) ) ;
#148 = PRODUCT ( '48586', '48586', '', ( #125 ) ) ;
#149 = COLOUR_RGB ( '',0.7921568627450980005, 0.8196078431372548767, 0.9333333333333333481 ) ;
#150 = FILL_AREA_STYLE ('',( #34 ) ) ;
#151 = LENGTH_MEASURE_WITH_UNIT ( LENGTH_MEASURE( 0.02539999999999999897 ), #273 );
#152 =( CONVERSION_BASED_UNIT ( 'INCH', #151 ) LENGTH_UNIT ( ) NAMED_UNIT ( #32 ) );
#153 = FACE_OUTER_BOUND ( 'NONE', #61, .T. ) ;
#154 = PRESENTATION_LAYER_ASSIGNMENT (  '', '', ( #298 ) ) ;
#155 = ORIENTED_EDGE ( 'NONE', *, *, #161, .T. ) ;
#156 = PRESENTATION_STYLE_ASSIGNMENT (( #43 ) ) ;
#157 = VERTEX_POINT ( 'NONE', #246 ) ;
#158 = DIRECTION ( 'NONE',  ( -0.000000000000000000, -1.000000000000000000, -0.000000000000000000 ) ) ;
#159 = VERTEX_POINT ( 'NONE', #223 ) ;
#160 = CIRCLE ( 'NONE', #29, 0.3749999999999998890 ) ;
#161 = EDGE_CURVE ( 'NONE', #234, #258, #16, .T. ) ;
#162 =( LENGTH_UNIT ( ) NAMED_UNIT ( * ) SI_UNIT ( $, .METRE. ) );
#163 = ORIENTED_EDGE ( 'NONE', *, *, #306, .F. ) ;
#164 = UNCERTAINTY_MEASURE_WITH_UNIT (LENGTH_MEASURE( 1.000000000000000082E-05 ), #239, 'distance_accuracy_value', 'NONE');
#165 = SURFACE_STYLE_FILL_AREA ( #287 ) ;
#166 = APPLICATION_PROTOCOL_DEFINITION ( 'draft international standard', 'automotive_design', 1998, #220 ) ;
#167 = FACE_OUTER_BOUND ( 'NONE', #255, .T. ) ;
#168 = AXIS2_PLACEMENT_3D ( 'NONE', #196, #36, #175 ) ;
#169 = MECHANICAL_DESIGN_GEOMETRIC_PRESENTATION_REPRESENTATION (  '', ( #298 ), #216 ) ;
#170 = LINE ( 'NONE', #286, #248 ) ;
#171 = CARTESIAN_POINT ( 'NONE',  ( 0.000000000000000000, 0.000000000000000000, 0.000000000000000000 ) ) ;
#172 =( NAMED_UNIT ( * ) PLANE_ANGLE_UNIT ( ) SI_UNIT ( $, .RADIAN. ) );
#173 = CARTESIAN_POINT ( 'NONE',  ( 1.224646799147352714E-16, 3.000000000000000444, 0.000000000000000000 ) ) ;
#174 = CARTESIAN_POINT ( 'NONE',  ( 0.3750000000000001110, 3.000000000000000444, 4.592425496802573602E-17 ) ) ;
#175 = DIRECTION ( 'NONE',  ( 0.000000000000000000, 0.000000000000000000, -1.000000000000000000 ) ) ;
#176 = DIRECTION ( 'NONE',  ( 6.123233995736763571E-17, 1.000000000000000000, -0.000000000000000000 ) ) ;
#177 = PRODUCT_DEFINITION ( 'UNKNOWN', '', #37, #210 ) ;
#178 = DIMENSIONAL_EXPONENTS ( 1.000000000000000000, 0.000000000000000000, 0.000000000000000000, 0.000000000000000000, 0.000000000000000000, 0.000000000000000000, 0.000000000000000000 ) ;
#179 = CIRCLE ( 'NONE', #199, 0.3750000000000000555 ) ;
#180 = SURFACE_STYLE_USAGE ( .BOTH. , #77 ) ;
#181 = DIRECTION ( 'NONE',  ( 0.000000000000000000, 0.000000000000000000, -1.000000000000000000 ) ) ;
#182 =( NAMED_UNIT ( * ) PLANE_ANGLE_UNIT ( ) SI_UNIT ( $, .RADIAN. ) );
#183 = AXIS2_PLACEMENT_3D ( 'NONE', #171, #265, #289 ) ;
#184 = ADVANCED_FACE ( 'NONE', ( #38 ), #21, .F. ) ;
#185 = PRESENTATION_LAYER_ASSIGNMENT (  '', '', ( #110 ) ) ;
#186 = CYLINDRICAL_SURFACE ( 'NONE', #59, 0.3750000000000000555 ) ;
#187 = CARTESIAN_POINT ( 'NONE',  ( 4.592425496802575451E-17, 0.000000000000000000, 0.3750000000000000555 ) ) ;
#188 = ORIENTED_EDGE ( 'NONE', *, *, #105, .F. ) ;
#189 = FILL_AREA_STYLE_COLOUR ( '', #42 ) ;
#190 = ADVANCED_FACE ( 'NONE', ( #132 ), #186, .T. ) ;
#191 =( CONVERSION_BASED_UNIT ( 'INCH', #8 ) LENGTH_UNIT ( ) NAMED_UNIT ( #192 ) );
#192 = DIMENSIONAL_EXPONENTS ( 1.000000000000000000, 0.000000000000000000, 0.000000000000000000, 0.000000000000000000, 0.000000000000000000, 0.000000000000000000, 0.000000000000000000 ) ;
#193 = DIRECTION ( 'NONE',  ( 0.000000000000000000, 1.000000000000000000, 0.000000000000000000 ) ) ;
#194 = DIRECTION ( 'NONE',  ( 6.123233995736763571E-17, 1.000000000000000000, -0.000000000000000000 ) ) ;
#195 = PRESENTATION_STYLE_ASSIGNMENT (( #180 ) ) ;
#196 = CARTESIAN_POINT ( 'NONE',  ( 0.000000000000000000, 0.000000000000000000, 0.000000000000000000 ) ) ;
#197 = SURFACE_STYLE_FILL_AREA ( #101 ) ;
#198 = AXIS2_PLACEMENT_3D ( 'NONE', #117, #147, #237 ) ;
#199 = AXIS2_PLACEMENT_3D ( 'NONE', #46, #240, #122 ) ;
#200 =( NAMED_UNIT ( * ) SI_UNIT ( $, .STERADIAN. ) SOLID_ANGLE_UNIT ( ) );
#201 = DIRECTION ( 'NONE',  ( -0.000000000000000000, -1.000000000000000000, -0.000000000000000000 ) ) ;
#202 = ORIENTED_EDGE ( 'NONE', *, *, #161, .F. ) ;
#203 =( CONVERSION_BASED_UNIT ( 'INCH', #228 ) LENGTH_UNIT ( ) NAMED_UNIT ( #72 ) );
#204 = CIRCLE ( 'NONE', #297, 0.3749999999999998890 ) ;
#205 = ORIENTED_EDGE ( 'NONE', *, *, #93, .T. ) ;
#206 = ORIENTED_EDGE ( 'NONE', *, *, #260, .T. ) ;
#207 = EDGE_CURVE ( 'NONE', #159, #234, #104, .T. ) ;
#208 = DIRECTION ( 'NONE',  ( 6.123233995736763571E-17, 1.000000000000000000, -0.000000000000000000 ) ) ;
#209 = ORIENTED_EDGE ( 'NONE', *, *, #207, .T. ) ;
#210 = PRODUCT_DEFINITION_CONTEXT ( 'detailed design', #220, 'design' ) ;
#211 =( NAMED_UNIT ( * ) SI_UNIT ( $, .STERADIAN. ) SOLID_ANGLE_UNIT ( ) );
#212 = ORIENTED_EDGE ( 'NONE', *, *, #131, .T. ) ;
#213 = DIRECTION ( 'NONE',  ( 6.123233995736763571E-17, 1.000000000000000000, -0.000000000000000000 ) ) ;
#214 =( NAMED_UNIT ( * ) SI_UNIT ( $, .STERADIAN. ) SOLID_ANGLE_UNIT ( ) );
#215 = DIRECTION ( 'NONE',  ( -1.000000000000000000, 0.000000000000000000, 0.000000000000000000 ) ) ;
#216 =( GEOMETRIC_REPRESENTATION_CONTEXT ( 3 ) GLOBAL_UNCERTAINTY_ASSIGNED_CONTEXT ( ( #139 ) ) GLOBAL_UNIT_ASSIGNED_CONTEXT ( ( #203, #229, #211 ) ) REPRESENTATION_CONTEXT ( 'NONE', 'WORKASPACE' ) );
#217 = LINE ( 'NONE', #266, #66 ) ;
#218 = CARTESIAN_POINT ( 'NONE',  ( 7.030123981227453260E-34, 1.000000000000000000, 0.000000000000000000 ) ) ;
#219 = FILL_AREA_STYLE_COLOUR ( '', #73 ) ;
#220 = APPLICATION_CONTEXT ( 'automotive_design' ) ;
#221 = FILL_AREA_STYLE_COLOUR ( '', #149 ) ;
#222 =( NAMED_UNIT ( * ) PLANE_ANGLE_UNIT ( ) SI_UNIT ( $, .RADIAN. ) );
#223 = CARTESIAN_POINT ( 'NONE',  ( 0.000000000000000000, 1.000000000000000000, -0.3750000000000000555 ) ) ;
#224 = STYLED_ITEM ( 'NONE', ( #254 ), #11 ) ;
#225 = PRESENTATION_LAYER_ASSIGNMENT (  '', '', ( #233 ) ) ;
#226 = CARTESIAN_POINT ( 'NONE',  ( 0.000000000000000000, 0.000000000000000000, 0.000000000000000000 ) ) ;
#227 = PRODUCT_RELATED_PRODUCT_CATEGORY ( 'part', '', ( #148 ) ) ;
#228 = LENGTH_MEASURE_WITH_UNIT ( LENGTH_MEASURE( 0.02539999999999999897 ), #108 );
#229 =( NAMED_UNIT ( * ) PLANE_ANGLE_UNIT ( ) SI_UNIT ( $, .RADIAN. ) );
#230 = EDGE_LOOP ( 'NONE', ( #209, #155, #67, #284 ) ) ;
#231 = SURFACE_STYLE_FILL_AREA ( #281 ) ;
#232 = STYLED_ITEM ( 'NONE', ( #195 ), #99 ) ;
#233 = STYLED_ITEM ( 'NONE', ( #156 ), #190 ) ;
#234 = VERTEX_POINT ( 'NONE', #60 ) ;
#235 = PRESENTATION_STYLE_ASSIGNMENT (( #88 ) ) ;
#236 = UNCERTAINTY_MEASURE_WITH_UNIT (LENGTH_MEASURE( 1.000000000000000082E-05 ), #152, 'distance_accuracy_value', 'NONE');
#237 = DIRECTION ( 'NONE',  ( 0.000000000000000000, 0.000000000000000000, -1.000000000000000000 ) ) ;
#238 = AXIS2_PLACEMENT_3D ( 'NONE', #63, #17, #40 ) ;
#239 =( CONVERSION_BASED_UNIT ( 'INCH', #241 ) LENGTH_UNIT ( ) NAMED_UNIT ( #178 ) );
#240 = DIRECTION ( 'NONE',  ( 6.123233995736763571E-17, 1.000000000000000000, -0.000000000000000000 ) ) ;
#241 = LENGTH_MEASURE_WITH_UNIT ( LENGTH_MEASURE( 0.02539999999999999897 ), #96 );
#242 = CARTESIAN_POINT ( 'NONE',  ( 0.000000000000000000, 0.000000000000000000, -0.3750000000000000555 ) ) ;
#243 = MECHANICAL_DESIGN_GEOMETRIC_PRESENTATION_REPRESENTATION (  '', ( #110 ), #47 ) ;
#244 = DIRECTION ( 'NONE',  ( -1.000000000000000000, 6.123233995736763571E-17, 0.000000000000000000 ) ) ;
#245 = ADVANCED_FACE ( 'NONE', ( #153 ), #18, .T. ) ;
#246 = CARTESIAN_POINT ( 'NONE',  ( 0.3750000000000000555, 1.000000000000000000, 4.592425496802574219E-17 ) ) ;
#247 = PRESENTATION_LAYER_ASSIGNMENT (  '', '', ( #251 ) ) ;
#248 = VECTOR ( 'NONE', #268, 39.37007874015748143 ) ;
#249 = SURFACE_STYLE_USAGE ( .BOTH. , #102 ) ;
#250 = FILL_AREA_STYLE_COLOUR ( '', #65 ) ;
#251 = STYLED_ITEM ( 'NONE', ( #267 ), #25 ) ;
#252 = CARTESIAN_POINT ( 'NONE',  ( 1.224646799147352714E-16, 3.000000000000000444, 0.000000000000000000 ) ) ;
#253 = CARTESIAN_POINT ( 'NONE',  ( -0.3750000000000000555, 1.000000000000000000, 0.000000000000000000 ) ) ;
#254 = PRESENTATION_STYLE_ASSIGNMENT (( #134 ) ) ;
#255 = EDGE_LOOP ( 'NONE', ( #280, #107 ) ) ;
#256 = PRESENTATION_LAYER_ASSIGNMENT (  '', '', ( #232 ) ) ;
#257 = FACE_OUTER_BOUND ( 'NONE', #5, .T. ) ;
#258 = VERTEX_POINT ( 'NONE', #187 ) ;
#259 = DIRECTION ( 'NONE',  ( 0.000000000000000000, 0.000000000000000000, 1.000000000000000000 ) ) ;
#260 = EDGE_CURVE ( 'NONE', #138, #44, #170, .T. ) ;
#261 = COLOUR_RGB ( '',1.000000000000000000, 0.000000000000000000, 0.000000000000000000 ) ;
#262 = FILL_AREA_STYLE ('',( #219 ) ) ;
#263 =( GEOMETRIC_REPRESENTATION_CONTEXT ( 3 ) GLOBAL_UNCERTAINTY_ASSIGNED_CONTEXT ( ( #20 ) ) GLOBAL_UNIT_ASSIGNED_CONTEXT ( ( #26, #172, #214 ) ) REPRESENTATION_CONTEXT ( 'NONE', 'WORKASPACE' ) );
#264 = DIRECTION ( 'NONE',  ( 0.000000000000000000, 0.000000000000000000, -1.000000000000000000 ) ) ;
#265 = DIRECTION ( 'NONE',  ( 0.000000000000000000, -1.000000000000000000, -0.000000000000000000 ) ) ;
#266 = CARTESIAN_POINT ( 'NONE',  ( 0.000000000000000000, 0.000000000000000000, -0.3750000000000000555 ) ) ;
#267 = PRESENTATION_STYLE_ASSIGNMENT (( #294 ) ) ;
#268 = DIRECTION ( 'NONE',  ( 6.123233995736763571E-17, 1.000000000000000000, -0.000000000000000000 ) ) ;
#269 = CARTESIAN_POINT ( 'NONE',  ( -0.3749999999999997780, 3.000000000000000444, 0.000000000000000000 ) ) ;
#270 = MECHANICAL_DESIGN_GEOMETRIC_PRESENTATION_REPRESENTATION (  '', ( #224 ), #277 ) ;
#271 = DIRECTION ( 'NONE',  ( 6.123233995736763571E-17, 1.000000000000000000, -0.000000000000000000 ) ) ;
#272 = EDGE_CURVE ( 'NONE', #159, #41, #217, .T. ) ;
#273 =( LENGTH_UNIT ( ) NAMED_UNIT ( * ) SI_UNIT ( $, .METRE. ) );
#274 = DIRECTION ( 'NONE',  ( 6.123233995736763571E-17, 1.000000000000000000, -0.000000000000000000 ) ) ;
#275 = AXIS2_PLACEMENT_3D ( 'NONE', #226, #301, #181 ) ;
#276 = FILL_AREA_STYLE ('',( #250 ) ) ;
#277 =( GEOMETRIC_REPRESENTATION_CONTEXT ( 3 ) GLOBAL_UNCERTAINTY_ASSIGNED_CONTEXT ( ( #112 ) ) GLOBAL_UNIT_ASSIGNED_CONTEXT ( ( #191, #146, #95 ) ) REPRESENTATION_CONTEXT ( 'NONE', 'WORKASPACE' ) );
#278 = MECHANICAL_DESIGN_GEOMETRIC_PRESENTATION_REPRESENTATION (  '', ( #233 ), #100 ) ;
#279 = DIRECTION ( 'NONE',  ( 0.000000000000000000, 0.000000000000000000, -1.000000000000000000 ) ) ;
#280 = ORIENTED_EDGE ( 'NONE', *, *, #302, .T. ) ;
#281 = FILL_AREA_STYLE ('',( #84 ) ) ;
#282 = EDGE_LOOP ( 'NONE', ( #15, #212 ) ) ;
#283 = CARTESIAN_POINT ( 'NONE',  ( 0.000000000000000000, 0.000000000000000000, 0.000000000000000000 ) ) ;
#284 = ORIENTED_EDGE ( 'NONE', *, *, #272, .F. ) ;
#285 = ORIENTED_EDGE ( 'NONE', *, *, #39, .T. ) ;
#286 = CARTESIAN_POINT ( 'NONE',  ( -0.3749999999999998335, 3.000000000000000444, 0.000000000000000000 ) ) ;
#287 = FILL_AREA_STYLE ('',( #189 ) ) ;
#288 = APPLICATION_PROTOCOL_DEFINITION ( 'draft international standard', 'automotive_design', 1998, #35 ) ;
#289 = DIRECTION ( 'NONE',  ( 0.000000000000000000, 0.000000000000000000, -1.000000000000000000 ) ) ;
#290 = SHAPE_DEFINITION_REPRESENTATION ( #56, #137 ) ;
#291 = AXIS2_PLACEMENT_3D ( 'NONE', #218, #194, #244 ) ;
#292 = AXIS2_PLACEMENT_3D ( 'NONE', #28, #49, #264 ) ;
#293 = CARTESIAN_POINT ( 'NONE',  ( 0.000000000000000000, 0.000000000000000000, 0.000000000000000000 ) ) ;
#294 = SURFACE_STYLE_USAGE ( .BOTH. , #48 ) ;
#295 = DIMENSIONAL_EXPONENTS ( 1.000000000000000000, 0.000000000000000000, 0.000000000000000000, 0.000000000000000000, 0.000000000000000000, 0.000000000000000000, 0.000000000000000000 ) ;
#296 =( LENGTH_UNIT ( ) NAMED_UNIT ( * ) SI_UNIT ( $, .METRE. ) );
#297 = AXIS2_PLACEMENT_3D ( 'NONE', #173, #213, #7 ) ;
#298 = STYLED_ITEM ( 'NONE', ( #235 ), #135 ) ;
#299 =( NAMED_UNIT ( * ) SI_UNIT ( $, .STERADIAN. ) SOLID_ANGLE_UNIT ( ) );
#300 = DIRECTION ( 'NONE',  ( -1.000000000000000000, 0.000000000000000000, 0.000000000000000000 ) ) ;
#301 = DIRECTION ( 'NONE',  ( -0.000000000000000000, -1.000000000000000000, -0.000000000000000000 ) ) ;
#302 = EDGE_CURVE ( 'NONE', #41, #258, #12, .T. ) ;
#303 = AXIS2_PLACEMENT_3D ( 'NONE', #128, #274, #300 ) ;
#304 =( CONVERSION_BASED_UNIT ( 'INCH', #57 ) LENGTH_UNIT ( ) NAMED_UNIT ( #295 ) );
#305 = FACE_OUTER_BOUND ( 'NONE', #87, .T. ) ;
#306 = EDGE_CURVE ( 'NONE', #157, #138, #179, .T. ) ;
#307 = SURFACE_SIDE_STYLE ('',( #165 ) ) ;
#308 = CARTESIAN_POINT ( 'NONE',  ( 4.592425496802575451E-17, 0.000000000000000000, 0.3750000000000000555 ) ) ;
#309 =( LENGTH_UNIT ( ) NAMED_UNIT ( * ) SI_UNIT ( $, .METRE. ) );
ENDSEC;
END-ISO-10303-21;
