ISO-10303-21;
HEADER;
FILE_DESCRIPTION (( 'STEP AP214' ),
    '1' );
FILE_NAME ('Micro_AEMM-020-3.STEP',
    '2022-03-15T14:23:11',
    ( '' ),
    ( '' ),
    'SwSTEP 2.0',
    'SolidWorks 2022',
    '' );
FILE_SCHEMA (( 'AUTOMOTIVE_DESIGN' ));
ENDSEC;

DATA;
#1 = DIRECTION ( 'NONE',  ( 1.000000000000000000, 0.000000000000000000, 0.000000000000000000 ) ) ;
#2 = CARTESIAN_POINT ( 'NONE',  ( 2.410717224121564935E-17, 0.000000000000000000, 0.1968500000000000250 ) ) ;
#3 = CARTESIAN_POINT ( 'NONE',  ( 0.000000000000000000, 0.000000000000000000, 1.953504000000000129 ) ) ;
#4 = CARTESIAN_POINT ( 'NONE',  ( 0.000000000000000000, 0.000000000000000000, 1.968503999999999809 ) ) ;
#5 = EDGE_CURVE ( 'NONE', #276, #134, #140, .T. ) ;
#6 = AXIS2_PLACEMENT_3D ( 'NONE', #46, #177, #291 ) ;
#7 = CIRCLE ( 'NONE', #208, 0.03933063000000000531 ) ;
#8 = FACE_OUTER_BOUND ( 'NONE', #172, .T. ) ;
#9 = SURFACE_STYLE_USAGE ( .BOTH. , #12 ) ;
#10 = LINE ( 'NONE', #215, #175 ) ;
#11 = DIRECTION ( 'NONE',  ( 0.000000000000000000, 0.000000000000000000, 1.000000000000000000 ) ) ;
#12 = SURFACE_SIDE_STYLE ('',( #150 ) ) ;
#13 = STYLED_ITEM ( 'NONE', ( #125 ), #154 ) ;
#14 = DIRECTION ( 'NONE',  ( -1.000000000000000000, 0.000000000000000000, 0.000000000000000000 ) ) ;
#15 = CYLINDRICAL_SURFACE ( 'NONE', #231, 0.07874000000000000443 ) ;
#16 = VERTEX_POINT ( 'NONE', #197 ) ;
#17 = AXIS2_PLACEMENT_3D ( 'NONE', #91, #71, #277 ) ;
#18 = CONICAL_SURFACE ( 'NONE', #185, 0.06374000000000018540, 0.7853981633974522758 ) ;
#19 = ORIENTED_EDGE ( 'NONE', *, *, #60, .T. ) ;
#20 = CYLINDRICAL_SURFACE ( 'NONE', #247, 0.03933063000000000531 ) ;
#21 = ORIENTED_EDGE ( 'NONE', *, *, #138, .T. ) ;
#22 = CIRCLE ( 'NONE', #61, 0.06374000000000018540 ) ;
#23 = ORIENTED_EDGE ( 'NONE', *, *, #156, .T. ) ;
#24 = CARTESIAN_POINT ( 'NONE',  ( 0.07874000000000000443, 9.642868896486258509E-18, 1.968503999999999809 ) ) ;
#25 = FACE_OUTER_BOUND ( 'NONE', #290, .T. ) ;
#26 = CARTESIAN_POINT ( 'NONE',  ( 0.03933063000000002613, 0.000000000000000000, 0.1968500000000000250 ) ) ;
#27 = LINE ( 'NONE', #99, #262 ) ;
#28 = COLOUR_RGB ( '',0.7921568627450980005, 0.8196078431372548767, 0.9333333333333333481 ) ;
#29 = CARTESIAN_POINT ( 'NONE',  ( 0.000000000000000000, 0.000000000000000000, 0.000000000000000000 ) ) ;
#30 = PRODUCT_RELATED_PRODUCT_CATEGORY ( 'part', '', ( #258 ) ) ;
#31 = APPLICATION_CONTEXT ( 'automotive_design' ) ;
#32 = PRESENTATION_LAYER_ASSIGNMENT (  '', '', ( #13 ) ) ;
#33 = PRODUCT_CONTEXT ( 'NONE', #292, 'mechanical' ) ;
#34 =( CONVERSION_BASED_UNIT ( 'INCH', #82 ) LENGTH_UNIT ( ) NAMED_UNIT ( #265 ) );
#35 = DIRECTION ( 'NONE',  ( 1.000000000000000000, 0.000000000000000000, 0.000000000000000000 ) ) ;
#36 =( NAMED_UNIT ( * ) SI_UNIT ( $, .STERADIAN. ) SOLID_ANGLE_UNIT ( ) );
#37 = ORIENTED_EDGE ( 'NONE', *, *, #256, .F. ) ;
#38 = EDGE_CURVE ( 'NONE', #134, #276, #50, .T. ) ;
#39 = CONICAL_SURFACE ( 'NONE', #242, 0.03933063000000000531, 0.1745329251994339192 ) ;
#40 = LINE ( 'NONE', #232, #278 ) ;
#41 = ADVANCED_FACE ( 'NONE', ( #137 ), #20, .T. ) ;
#42 = ORIENTED_EDGE ( 'NONE', *, *, #138, .F. ) ;
#43 = EDGE_LOOP ( 'NONE', ( #180, #244, #110, #198 ) ) ;
#44 = CIRCLE ( 'NONE', #166, 0.03933062999999999837 ) ;
#45 = CIRCLE ( 'NONE', #51, 0.06374000000000018540 ) ;
#46 = CARTESIAN_POINT ( 'NONE',  ( 5.147822948554609098E-17, 0.000000000000000000, 0.4203516436035862891 ) ) ;
#47 = ORIENTED_EDGE ( 'NONE', *, *, #256, .T. ) ;
#48 = ORIENTED_EDGE ( 'NONE', *, *, #206, .T. ) ;
#49 = AXIS2_PLACEMENT_3D ( 'NONE', #136, #63, #220 ) ;
#50 = CIRCLE ( 'NONE', #49, 0.07874000000000000443 ) ;
#51 = AXIS2_PLACEMENT_3D ( 'NONE', #259, #11, #35 ) ;
#52 = CARTESIAN_POINT ( 'NONE',  ( 0.07874000000000000443, 9.642868896486258509E-18, 1.953504000000000129 ) ) ;
#53 = DIRECTION ( 'NONE',  ( -1.000000000000000000, 0.000000000000000000, 0.000000000000000000 ) ) ;
#54 = DIRECTION ( 'NONE',  ( 1.000000000000000000, 0.000000000000000000, -0.000000000000000000 ) ) ;
#55 =( LENGTH_UNIT ( ) NAMED_UNIT ( * ) SI_UNIT ( $, .METRE. ) );
#56 = DIRECTION ( 'NONE',  ( 1.000000000000000000, 0.000000000000000000, 0.000000000000000000 ) ) ;
#57 = SURFACE_SIDE_STYLE ('',( #129 ) ) ;
#58 = CARTESIAN_POINT ( 'NONE',  ( 0.06374000000000018540, 8.724383797125754882E-18, 1.968503999999999809 ) ) ;
#59 = DIMENSIONAL_EXPONENTS ( 1.000000000000000000, 0.000000000000000000, 0.000000000000000000, 0.000000000000000000, 0.000000000000000000, 0.000000000000000000, 0.000000000000000000 ) ;
#60 = EDGE_CURVE ( 'NONE', #297, #276, #200, .T. ) ;
#61 = AXIS2_PLACEMENT_3D ( 'NONE', #4, #121, #250 ) ;
#62 = DIRECTION ( 'NONE',  ( -1.224646799147353207E-16, -0.000000000000000000, -1.000000000000000000 ) ) ;
#63 = DIRECTION ( 'NONE',  ( -1.224646799147353207E-16, -0.000000000000000000, -1.000000000000000000 ) ) ;
#64 = EDGE_LOOP ( 'NONE', ( #243, #158, #116, #67 ) ) ;
#65 = VERTEX_POINT ( 'NONE', #132 ) ;
#66 = ORIENTED_EDGE ( 'NONE', *, *, #90, .F. ) ;
#67 = ORIENTED_EDGE ( 'NONE', *, *, #167, .F. ) ;
#68 = DIRECTION ( 'NONE',  ( 0.000000000000000000, 0.000000000000000000, 1.000000000000000000 ) ) ;
#69 = DIRECTION ( 'NONE',  ( 1.000000000000000000, 0.000000000000000000, -0.000000000000000000 ) ) ;
#70 = CARTESIAN_POINT ( 'NONE',  ( -0.03933062999999997755, 7.229740955140571970E-18, 0.1968500000000000250 ) ) ;
#71 = DIRECTION ( 'NONE',  ( -1.224646799147353207E-16, -0.000000000000000000, -1.000000000000000000 ) ) ;
#72 = DIRECTION ( 'NONE',  ( 0.000000000000000000, 0.000000000000000000, -1.000000000000000000 ) ) ;
#73 = AXIS2_PLACEMENT_3D ( 'NONE', #249, #141, #54 ) ;
#74 = ORIENTED_EDGE ( 'NONE', *, *, #5, .F. ) ;
#75 =( NAMED_UNIT ( * ) SI_UNIT ( $, .STERADIAN. ) SOLID_ANGLE_UNIT ( ) );
#76 = FILL_AREA_STYLE_COLOUR ( '', #28 ) ;
#77 = CARTESIAN_POINT ( 'NONE',  ( 0.000000000000000000, 0.000000000000000000, 0.000000000000000000 ) ) ;
#78 = ORIENTED_EDGE ( 'NONE', *, *, #86, .T. ) ;
#79 = DIRECTION ( 'NONE',  ( -0.7071067811865502373, 0.000000000000000000, -0.7071067811865446862 ) ) ;
#80 = EDGE_CURVE ( 'NONE', #81, #16, #107, .T. ) ;
#81 = VERTEX_POINT ( 'NONE', #226 ) ;
#82 = LENGTH_MEASURE_WITH_UNIT ( LENGTH_MEASURE( 0.02539999999999999897 ), #190 );
#83 = MECHANICAL_DESIGN_GEOMETRIC_PRESENTATION_REPRESENTATION (  '', ( #13 ), #170 ) ;
#84 =( GEOMETRIC_REPRESENTATION_CONTEXT ( 3 ) GLOBAL_UNCERTAINTY_ASSIGNED_CONTEXT ( ( #183 ) ) GLOBAL_UNIT_ASSIGNED_CONTEXT ( ( #34, #171, #36 ) ) REPRESENTATION_CONTEXT ( 'NONE', 'WORKASPACE' ) );
#85 = ORIENTED_EDGE ( 'NONE', *, *, #176, .F. ) ;
#86 = EDGE_CURVE ( 'NONE', #174, #93, #253, .T. ) ;
#87 = ORIENTED_EDGE ( 'NONE', *, *, #127, .F. ) ;
#88 = ORIENTED_EDGE ( 'NONE', *, *, #60, .F. ) ;
#89 = COLOUR_RGB ( '',0.7921568627450980005, 0.8196078431372548767, 0.9333333333333333481 ) ;
#90 = EDGE_CURVE ( 'NONE', #168, #93, #261, .T. ) ;
#91 = CARTESIAN_POINT ( 'NONE',  ( 5.898649710075393742E-34, 0.000000000000000000, 4.816613013794885432E-18 ) ) ;
#92 = EDGE_CURVE ( 'NONE', #16, #81, #44, .T. ) ;
#93 = VERTEX_POINT ( 'NONE', #52 ) ;
#94 = DIRECTION ( 'NONE',  ( -1.000000000000000000, 0.000000000000000000, 0.000000000000000000 ) ) ;
#95 = DIRECTION ( 'NONE',  ( 1.000000000000000000, 0.000000000000000000, 0.000000000000000000 ) ) ;
#96 = VECTOR ( 'NONE', #120, 39.37007874015748854 ) ;
#97 = PRODUCT_DEFINITION_CONTEXT ( 'detailed design', #31, 'design' ) ;
#98 = MECHANICAL_DESIGN_GEOMETRIC_PRESENTATION_REPRESENTATION (  '', ( #189 ), #84 ) ;
#99 = CARTESIAN_POINT ( 'NONE',  ( -0.07874000000000000443, 0.000000000000000000, 1.968503999999999809 ) ) ;
#100 = CARTESIAN_POINT ( 'NONE',  ( 2.410717224121564935E-17, 0.000000000000000000, 0.1968500000000000250 ) ) ;
#101 = ADVANCED_FACE ( 'NONE', ( #25 ), #165, .T. ) ;
#102 = ADVANCED_FACE ( 'NONE', ( #205 ), #145, .F. ) ;
#103 = VECTOR ( 'NONE', #163, 39.37007874015748143 ) ;
#104 = CARTESIAN_POINT ( 'NONE',  ( 0.000000000000000000, 0.000000000000000000, 1.968503999999999809 ) ) ;
#105 =( GEOMETRIC_REPRESENTATION_CONTEXT ( 3 ) GLOBAL_UNCERTAINTY_ASSIGNED_CONTEXT ( ( #299 ) ) GLOBAL_UNIT_ASSIGNED_CONTEXT ( ( #282, #254, #211 ) ) REPRESENTATION_CONTEXT ( 'NONE', 'WORKASPACE' ) );
#106 = SURFACE_STYLE_USAGE ( .BOTH. , #57 ) ;
#107 = CIRCLE ( 'NONE', #17, 0.03933062999999999837 ) ;
#108 = EDGE_LOOP ( 'NONE', ( #161, #260, #23, #111 ) ) ;
#109 = CONICAL_SURFACE ( 'NONE', #295, 0.03933063000000000531, 0.1745329251994339192 ) ;
#110 = ORIENTED_EDGE ( 'NONE', *, *, #80, .F. ) ;
#111 = ORIENTED_EDGE ( 'NONE', *, *, #92, .F. ) ;
#112 = DIRECTION ( 'NONE',  ( -1.224646799147353207E-16, -0.000000000000000000, -1.000000000000000000 ) ) ;
#113 = CARTESIAN_POINT ( 'NONE',  ( -0.03933063000000000531, 0.000000000000000000, 4.816613013794886973E-18 ) ) ;
#114 = DIRECTION ( 'NONE',  ( -1.224646799147353207E-16, -0.000000000000000000, -1.000000000000000000 ) ) ;
#115 = ADVANCED_FACE ( 'NONE', ( #224 ), #109, .T. ) ;
#116 = ORIENTED_EDGE ( 'NONE', *, *, #195, .T. ) ;
#117 = LINE ( 'NONE', #24, #103 ) ;
#118 = CARTESIAN_POINT ( 'NONE',  ( 5.898649710075393742E-34, 0.000000000000000000, 4.816613013794885432E-18 ) ) ;
#119 = CARTESIAN_POINT ( 'NONE',  ( -0.07873999999999994892, 0.000000000000000000, 0.4203516436035862891 ) ) ;
#120 = DIRECTION ( 'NONE',  ( 0.7071067811865502373, 8.659560562354966138E-17, -0.7071067811865446862 ) ) ;
#121 = DIRECTION ( 'NONE',  ( 0.000000000000000000, 0.000000000000000000, 1.000000000000000000 ) ) ;
#122 = CIRCLE ( 'NONE', #201, 0.07874000000000000443 ) ;
#123 = DIRECTION ( 'NONE',  ( 1.224646799147353207E-16, 0.000000000000000000, 1.000000000000000000 ) ) ;
#124 = SHAPE_DEFINITION_REPRESENTATION ( #213, #154 ) ;
#125 = PRESENTATION_STYLE_ASSIGNMENT (( #9 ) ) ;
#126 = CARTESIAN_POINT ( 'NONE',  ( -0.07874000000000000443, 0.000000000000000000, 1.953504000000000129 ) ) ;
#127 = EDGE_CURVE ( 'NONE', #297, #240, #7, .T. ) ;
#128 = APPLICATION_PROTOCOL_DEFINITION ( 'draft international standard', 'automotive_design', 1998, #292 ) ;
#129 = SURFACE_STYLE_FILL_AREA ( #193 ) ;
#130 = CARTESIAN_POINT ( 'NONE',  ( 0.000000000000000000, 0.000000000000000000, 1.968503999999999809 ) ) ;
#131 = DIRECTION ( 'NONE',  ( 0.1736481776669314137, 0.000000000000000000, 0.9848077530122077983 ) ) ;
#132 = CARTESIAN_POINT ( 'NONE',  ( -0.06374000000000018540, 0.000000000000000000, 1.968503999999999809 ) ) ;
#133 = VECTOR ( 'NONE', #157, 39.37007874015747433 ) ;
#134 = VERTEX_POINT ( 'NONE', #143 ) ;
#135 = CONICAL_SURFACE ( 'NONE', #286, 0.06374000000000018540, 0.7853981633974522758 ) ;
#136 = CARTESIAN_POINT ( 'NONE',  ( 5.147822948554609098E-17, 0.000000000000000000, 0.4203516436035862891 ) ) ;
#137 = FACE_OUTER_BOUND ( 'NONE', #43, .T. ) ;
#138 = EDGE_CURVE ( 'NONE', #168, #276, #27, .T. ) ;
#139 = EDGE_LOOP ( 'NONE', ( #87, #19, #178, #223 ) ) ;
#140 = CIRCLE ( 'NONE', #6, 0.07874000000000000443 ) ;
#141 = DIRECTION ( 'NONE',  ( 0.000000000000000000, 0.000000000000000000, 1.000000000000000000 ) ) ;
#142 = DIRECTION ( 'NONE',  ( -1.000000000000000000, 0.000000000000000000, 1.224646799147353207E-16 ) ) ;
#143 = CARTESIAN_POINT ( 'NONE',  ( 0.07874000000000004607, 9.642868896486264672E-18, 0.4203516436035862891 ) ) ;
#144 = CYLINDRICAL_SURFACE ( 'NONE', #155, 0.07874000000000000443 ) ;
#145 = PLANE ( 'NONE',  #273 ) ;
#146 = AXIS2_PLACEMENT_3D ( 'NONE', #263, #62, #191 ) ;
#147 = DIRECTION ( 'NONE',  ( 1.000000000000000000, 0.000000000000000000, 0.000000000000000000 ) ) ;
#148 = APPLICATION_PROTOCOL_DEFINITION ( 'draft international standard', 'automotive_design', 1998, #31 ) ;
#149 = PRODUCT_DEFINITION ( 'UNKNOWN', '', #255, #97 ) ;
#150 = SURFACE_STYLE_FILL_AREA ( #257 ) ;
#151 = PRESENTATION_LAYER_ASSIGNMENT (  '', '', ( #189 ) ) ;
#152 = DIRECTION ( 'NONE',  ( 0.000000000000000000, 0.000000000000000000, 1.000000000000000000 ) ) ;
#153 = DIRECTION ( 'NONE',  ( -0.000000000000000000, -0.000000000000000000, -1.000000000000000000 ) ) ;
#154 = ADVANCED_BREP_SHAPE_REPRESENTATION ( 'Micro_AEMM-020-3', ( #229, #196 ), #105 ) ;
#155 = AXIS2_PLACEMENT_3D ( 'NONE', #209, #280, #225 ) ;
#156 = EDGE_CURVE ( 'NONE', #297, #81, #272, .T. ) ;
#157 = DIRECTION ( 'NONE',  ( -0.1736481776669312194, 2.126576849575783625E-17, 0.9848077530122080203 ) ) ;
#158 = ORIENTED_EDGE ( 'NONE', *, *, #275, .F. ) ;
#159 = ORIENTED_EDGE ( 'NONE', *, *, #92, .T. ) ;
#160 = ORIENTED_EDGE ( 'NONE', *, *, #275, .T. ) ;
#161 = ORIENTED_EDGE ( 'NONE', *, *, #235, .F. ) ;
#162 = CARTESIAN_POINT ( 'NONE',  ( 2.410717224121564935E-17, 0.000000000000000000, 0.1968500000000000250 ) ) ;
#163 = DIRECTION ( 'NONE',  ( -0.000000000000000000, -0.000000000000000000, -1.000000000000000000 ) ) ;
#164 = CARTESIAN_POINT ( 'NONE',  ( 0.000000000000000000, 0.000000000000000000, 1.953504000000000129 ) ) ;
#165 = PLANE ( 'NONE',  #73 ) ;
#166 = AXIS2_PLACEMENT_3D ( 'NONE', #118, #204, #228 ) ;
#167 = EDGE_CURVE ( 'NONE', #93, #168, #122, .T. ) ;
#168 = VERTEX_POINT ( 'NONE', #126 ) ;
#169 = AXIS2_PLACEMENT_3D ( 'NONE', #164, #279, #95 ) ;
#170 =( GEOMETRIC_REPRESENTATION_CONTEXT ( 3 ) GLOBAL_UNCERTAINTY_ASSIGNED_CONTEXT ( ( #251 ) ) GLOBAL_UNIT_ASSIGNED_CONTEXT ( ( #212, #230, #75 ) ) REPRESENTATION_CONTEXT ( 'NONE', 'WORKASPACE' ) );
#171 =( NAMED_UNIT ( * ) PLANE_ANGLE_UNIT ( ) SI_UNIT ( $, .RADIAN. ) );
#172 = EDGE_LOOP ( 'NONE', ( #217, #47, #74, #42 ) ) ;
#173 = DIRECTION ( 'NONE',  ( 0.000000000000000000, 0.000000000000000000, -1.000000000000000000 ) ) ;
#174 = VERTEX_POINT ( 'NONE', #58 ) ;
#175 = VECTOR ( 'NONE', #131, 39.37007874015748143 ) ;
#176 = EDGE_CURVE ( 'NONE', #174, #65, #45, .T. ) ;
#177 = DIRECTION ( 'NONE',  ( -1.224646799147353207E-16, -0.000000000000000000, -1.000000000000000000 ) ) ;
#178 = ORIENTED_EDGE ( 'NONE', *, *, #5, .T. ) ;
#179 = EDGE_LOOP ( 'NONE', ( #88, #269, #48, #274 ) ) ;
#180 = ORIENTED_EDGE ( 'NONE', *, *, #127, .T. ) ;
#181 = CARTESIAN_POINT ( 'NONE',  ( 0.000000000000000000, 0.000000000000000000, 0.000000000000000000 ) ) ;
#182 = FACE_OUTER_BOUND ( 'NONE', #139, .T. ) ;
#183 = UNCERTAINTY_MEASURE_WITH_UNIT (LENGTH_MEASURE( 1.000000000000000082E-05 ), #34, 'distance_accuracy_value', 'NONE');
#184 = DIRECTION ( 'NONE',  ( 1.224646799147353207E-16, 0.000000000000000000, 1.000000000000000000 ) ) ;
#185 = AXIS2_PLACEMENT_3D ( 'NONE', #283, #207, #94 ) ;
#186 = DIRECTION ( 'NONE',  ( -0.000000000000000000, -0.000000000000000000, -1.000000000000000000 ) ) ;
#187 = LENGTH_MEASURE_WITH_UNIT ( LENGTH_MEASURE( 0.02539999999999999897 ), #55 );
#188 = DIRECTION ( 'NONE',  ( -1.224646799147353207E-16, -0.000000000000000000, -1.000000000000000000 ) ) ;
#189 = STYLED_ITEM ( 'NONE', ( #266 ), #229 ) ;
#190 =( LENGTH_UNIT ( ) NAMED_UNIT ( * ) SI_UNIT ( $, .METRE. ) );
#191 = DIRECTION ( 'NONE',  ( -1.000000000000000000, 0.000000000000000000, 0.000000000000000000 ) ) ;
#192 = LENGTH_MEASURE_WITH_UNIT ( LENGTH_MEASURE( 0.02539999999999999897 ), #288 );
#193 = FILL_AREA_STYLE ('',( #76 ) ) ;
#194 = DIRECTION ( 'NONE',  ( -1.000000000000000000, 0.000000000000000000, 0.000000000000000000 ) ) ;
#195 = EDGE_CURVE ( 'NONE', #65, #168, #40, .T. ) ;
#196 = AXIS2_PLACEMENT_3D ( 'NONE', #77, #152, #56 ) ;
#197 = CARTESIAN_POINT ( 'NONE',  ( 0.03933062999999999837, 4.816613013794885432E-18, -9.478001694819074349E-34 ) ) ;
#198 = ORIENTED_EDGE ( 'NONE', *, *, #156, .F. ) ;
#199 = CARTESIAN_POINT ( 'NONE',  ( 0.000000000000000000, 0.000000000000000000, 0.000000000000000000 ) ) ;
#200 = LINE ( 'NONE', #296, #133 ) ;
#201 = AXIS2_PLACEMENT_3D ( 'NONE', #3, #72, #214 ) ;
#202 = ORIENTED_EDGE ( 'NONE', *, *, #38, .F. ) ;
#203 = FACE_OUTER_BOUND ( 'NONE', #241, .T. ) ;
#204 = DIRECTION ( 'NONE',  ( -1.224646799147353207E-16, -0.000000000000000000, -1.000000000000000000 ) ) ;
#205 = FACE_OUTER_BOUND ( 'NONE', #271, .T. ) ;
#206 = EDGE_CURVE ( 'NONE', #240, #134, #10, .T. ) ;
#207 = DIRECTION ( 'NONE',  ( 0.000000000000000000, 0.000000000000000000, -1.000000000000000000 ) ) ;
#208 = AXIS2_PLACEMENT_3D ( 'NONE', #2, #252, #53 ) ;
#209 = CARTESIAN_POINT ( 'NONE',  ( 0.000000000000000000, 0.000000000000000000, 1.968503999999999809 ) ) ;
#210 = ADVANCED_FACE ( 'NONE', ( #8 ), #15, .T. ) ;
#211 =( NAMED_UNIT ( * ) SI_UNIT ( $, .STERADIAN. ) SOLID_ANGLE_UNIT ( ) );
#212 =( CONVERSION_BASED_UNIT ( 'INCH', #192 ) LENGTH_UNIT ( ) NAMED_UNIT ( #59 ) );
#213 = PRODUCT_DEFINITION_SHAPE ( 'NONE', 'NONE',  #149 ) ;
#214 = DIRECTION ( 'NONE',  ( 1.000000000000000000, 0.000000000000000000, 0.000000000000000000 ) ) ;
#215 = CARTESIAN_POINT ( 'NONE',  ( 0.03933063000000002613, 0.000000000000000000, 0.1968500000000000250 ) ) ;
#216 = EDGE_CURVE ( 'NONE', #240, #297, #218, .T. ) ;
#217 = ORIENTED_EDGE ( 'NONE', *, *, #90, .T. ) ;
#218 = CIRCLE ( 'NONE', #146, 0.03933063000000000531 ) ;
#219 = ORIENTED_EDGE ( 'NONE', *, *, #80, .T. ) ;
#220 = DIRECTION ( 'NONE',  ( 1.000000000000000000, 0.000000000000000000, 0.000000000000000000 ) ) ;
#221 = ORIENTED_EDGE ( 'NONE', *, *, #167, .T. ) ;
#222 = CLOSED_SHELL ( 'NONE', ( #41, #294, #233, #210, #246, #101, #287, #115, #284, #102 ) ) ;
#223 = ORIENTED_EDGE ( 'NONE', *, *, #206, .F. ) ;
#224 = FACE_OUTER_BOUND ( 'NONE', #179, .T. ) ;
#225 = DIRECTION ( 'NONE',  ( -1.000000000000000000, 0.000000000000000000, 0.000000000000000000 ) ) ;
#226 = CARTESIAN_POINT ( 'NONE',  ( -0.03933062999999999837, 0.000000000000000000, 9.633226027589770864E-18 ) ) ;
#227 = CYLINDRICAL_SURFACE ( 'NONE', #268, 0.03933063000000000531 ) ;
#228 = DIRECTION ( 'NONE',  ( -1.000000000000000000, 0.000000000000000000, 1.224646799147352961E-16 ) ) ;
#229 = MANIFOLD_SOLID_BREP ( 'Cut-Revolve1', #222 ) ;
#230 =( NAMED_UNIT ( * ) PLANE_ANGLE_UNIT ( ) SI_UNIT ( $, .RADIAN. ) );
#231 = AXIS2_PLACEMENT_3D ( 'NONE', #104, #153, #14 ) ;
#232 = CARTESIAN_POINT ( 'NONE',  ( -0.06374000000000018540, 0.000000000000000000, 1.968503999999999809 ) ) ;
#233 = ADVANCED_FACE ( 'NONE', ( #237 ), #135, .T. ) ;
#234 = DIMENSIONAL_EXPONENTS ( 1.000000000000000000, 0.000000000000000000, 0.000000000000000000, 0.000000000000000000, 0.000000000000000000, 0.000000000000000000, 0.000000000000000000 ) ;
#235 = EDGE_CURVE ( 'NONE', #240, #16, #267, .T. ) ;
#236 = FILL_AREA_STYLE_COLOUR ( '', #89 ) ;
#237 = FACE_OUTER_BOUND ( 'NONE', #270, .T. ) ;
#238 = VECTOR ( 'NONE', #112, 39.37007874015748143 ) ;
#239 = CARTESIAN_POINT ( 'NONE',  ( 0.03933063000000000531, 4.816613013794886973E-18, -4.816613013794886973E-18 ) ) ;
#240 = VERTEX_POINT ( 'NONE', #26 ) ;
#241 = EDGE_LOOP ( 'NONE', ( #37, #221, #21, #202 ) ) ;
#242 = AXIS2_PLACEMENT_3D ( 'NONE', #100, #123, #147 ) ;
#243 = ORIENTED_EDGE ( 'NONE', *, *, #86, .F. ) ;
#244 = ORIENTED_EDGE ( 'NONE', *, *, #235, .T. ) ;
#245 = ORIENTED_EDGE ( 'NONE', *, *, #195, .F. ) ;
#246 = ADVANCED_FACE ( 'NONE', ( #203 ), #144, .T. ) ;
#247 = AXIS2_PLACEMENT_3D ( 'NONE', #199, #114, #293 ) ;
#248 = VECTOR ( 'NONE', #289, 39.37007874015748143 ) ;
#249 = CARTESIAN_POINT ( 'NONE',  ( 0.000000000000000000, 0.000000000000000000, 1.968503999999999809 ) ) ;
#250 = DIRECTION ( 'NONE',  ( 1.000000000000000000, 0.000000000000000000, 0.000000000000000000 ) ) ;
#251 = UNCERTAINTY_MEASURE_WITH_UNIT (LENGTH_MEASURE( 1.000000000000000082E-05 ), #212, 'distance_accuracy_value', 'NONE');
#252 = DIRECTION ( 'NONE',  ( -1.224646799147353207E-16, -0.000000000000000000, -1.000000000000000000 ) ) ;
#253 = LINE ( 'NONE', #281, #96 ) ;
#254 =( NAMED_UNIT ( * ) PLANE_ANGLE_UNIT ( ) SI_UNIT ( $, .RADIAN. ) );
#255 = PRODUCT_DEFINITION_FORMATION_WITH_SPECIFIED_SOURCE ( 'ANY', '', #258, .NOT_KNOWN. ) ;
#256 = EDGE_CURVE ( 'NONE', #93, #134, #117, .T. ) ;
#257 = FILL_AREA_STYLE ('',( #236 ) ) ;
#258 = PRODUCT ( 'Micro_AEMM-020-3', 'Micro_AEMM-020-3', '', ( #33 ) ) ;
#259 = CARTESIAN_POINT ( 'NONE',  ( 0.000000000000000000, 0.000000000000000000, 1.968503999999999809 ) ) ;
#260 = ORIENTED_EDGE ( 'NONE', *, *, #216, .T. ) ;
#261 = CIRCLE ( 'NONE', #169, 0.07874000000000000443 ) ;
#262 = VECTOR ( 'NONE', #186, 39.37007874015748143 ) ;
#263 = CARTESIAN_POINT ( 'NONE',  ( 2.410717224121564935E-17, 0.000000000000000000, 0.1968500000000000250 ) ) ;
#264 = ORIENTED_EDGE ( 'NONE', *, *, #176, .T. ) ;
#265 = DIMENSIONAL_EXPONENTS ( 1.000000000000000000, 0.000000000000000000, 0.000000000000000000, 0.000000000000000000, 0.000000000000000000, 0.000000000000000000, 0.000000000000000000 ) ;
#266 = PRESENTATION_STYLE_ASSIGNMENT (( #106 ) ) ;
#267 = LINE ( 'NONE', #239, #238 ) ;
#268 = AXIS2_PLACEMENT_3D ( 'NONE', #29, #188, #142 ) ;
#269 = ORIENTED_EDGE ( 'NONE', *, *, #216, .F. ) ;
#270 = EDGE_LOOP ( 'NONE', ( #85, #78, #66, #245 ) ) ;
#271 = EDGE_LOOP ( 'NONE', ( #219, #159 ) ) ;
#272 = LINE ( 'NONE', #113, #248 ) ;
#273 = AXIS2_PLACEMENT_3D ( 'NONE', #181, #68, #69 ) ;
#274 = ORIENTED_EDGE ( 'NONE', *, *, #38, .T. ) ;
#275 = EDGE_CURVE ( 'NONE', #65, #174, #22, .T. ) ;
#276 = VERTEX_POINT ( 'NONE', #119 ) ;
#277 = DIRECTION ( 'NONE',  ( -1.000000000000000000, 0.000000000000000000, 1.224646799147352961E-16 ) ) ;
#278 = VECTOR ( 'NONE', #79, 39.37007874015748854 ) ;
#279 = DIRECTION ( 'NONE',  ( 0.000000000000000000, 0.000000000000000000, -1.000000000000000000 ) ) ;
#280 = DIRECTION ( 'NONE',  ( -0.000000000000000000, -0.000000000000000000, -1.000000000000000000 ) ) ;
#281 = CARTESIAN_POINT ( 'NONE',  ( 0.06374000000000018540, 7.805898697765251255E-18, 1.968503999999999809 ) ) ;
#282 =( CONVERSION_BASED_UNIT ( 'INCH', #187 ) LENGTH_UNIT ( ) NAMED_UNIT ( #234 ) );
#283 = CARTESIAN_POINT ( 'NONE',  ( 0.000000000000000000, 0.000000000000000000, 1.968503999999999809 ) ) ;
#284 = ADVANCED_FACE ( 'NONE', ( #298 ), #227, .T. ) ;
#285 = FACE_OUTER_BOUND ( 'NONE', #64, .T. ) ;
#286 = AXIS2_PLACEMENT_3D ( 'NONE', #130, #173, #194 ) ;
#287 = ADVANCED_FACE ( 'NONE', ( #285 ), #18, .T. ) ;
#288 =( LENGTH_UNIT ( ) NAMED_UNIT ( * ) SI_UNIT ( $, .METRE. ) );
#289 = DIRECTION ( 'NONE',  ( -1.224646799147353207E-16, -0.000000000000000000, -1.000000000000000000 ) ) ;
#290 = EDGE_LOOP ( 'NONE', ( #160, #264 ) ) ;
#291 = DIRECTION ( 'NONE',  ( 1.000000000000000000, 0.000000000000000000, 0.000000000000000000 ) ) ;
#292 = APPLICATION_CONTEXT ( 'automotive_design' ) ;
#293 = DIRECTION ( 'NONE',  ( -1.000000000000000000, 0.000000000000000000, 1.224646799147353207E-16 ) ) ;
#294 = ADVANCED_FACE ( 'NONE', ( #182 ), #39, .T. ) ;
#295 = AXIS2_PLACEMENT_3D ( 'NONE', #162, #184, #1 ) ;
#296 = CARTESIAN_POINT ( 'NONE',  ( -0.03933062999999997755, 4.816613013794886973E-18, 0.1968500000000000250 ) ) ;
#297 = VERTEX_POINT ( 'NONE', #70 ) ;
#298 = FACE_OUTER_BOUND ( 'NONE', #108, .T. ) ;
#299 = UNCERTAINTY_MEASURE_WITH_UNIT (LENGTH_MEASURE( 1.000000000000000082E-05 ), #282, 'distance_accuracy_value', 'NONE');
ENDSEC;
END-ISO-10303-21;
