ISO-10303-21;
HEADER;
FILE_DESCRIPTION (( 'STEP AP214' ),
    '1' );
FILE_NAME ('Micro_RSC-375-1X.STEP',
    '2021-09-03T17:52:23',
    ( '' ),
    ( '' ),
    'SwSTEP 2.0',
    'SolidWorks 2020',
    '' );
FILE_SCHEMA (( 'AUTOMOTIVE_DESIGN' ));
ENDSEC;

DATA;
#1 = DIMENSIONAL_EXPONENTS ( 1.000000000000000000, 0.0000000000000000000, 0.0000000000000000000, 0.0000000000000000000, 0.0000000000000000000, 0.0000000000000000000, 0.0000000000000000000 ) ;
#2 = FACE_OUTER_BOUND ( 'NONE', #188, .T. ) ;
#3 = CARTESIAN_POINT ( 'NONE',  ( 0.1724999999999995981, 2.112515728529179297E-17, 2.500000000000000000 ) ) ;
#4 = PRESENTATION_STYLE_ASSIGNMENT (( #225 ) ) ;
#5 = ADVANCED_FACE ( 'NONE', ( #156 ), #230, .T. ) ;
#6 = PRODUCT ( 'Micro_RSC-375-1X', 'Micro_RSC-375-1X', '', ( #93 ) ) ;
#7 = COLOUR_RGB ( '',0.7921568627450980005, 0.8196078431372548767, 0.9333333333333333481 ) ;
#8 = CARTESIAN_POINT ( 'NONE',  ( 0.1875000000000000278, 2.296212748401287726E-17, 0.3178313231888877932 ) ) ;
#9 = CIRCLE ( 'NONE', #49, 0.1875000000000000278 ) ;
#10 = DIRECTION ( 'NONE',  ( 1.000000000000000000, 0.0000000000000000000, 0.0000000000000000000 ) ) ;
#11 = ORIENTED_EDGE ( 'NONE', *, *, #44, .T. ) ;
#12 = ORIENTED_EDGE ( 'NONE', *, *, #231, .T. ) ;
#13 = DIRECTION ( 'NONE',  ( 0.0000000000000000000, 0.0000000000000000000, 1.000000000000000000 ) ) ;
#14 = FACE_OUTER_BOUND ( 'NONE', #154, .T. ) ;
#15 = SURFACE_SIDE_STYLE ('',( #109 ) ) ;
#16 = CARTESIAN_POINT ( 'NONE',  ( 0.0000000000000000000, 0.0000000000000000000, 2.500000000000000000 ) ) ;
#17 = LINE ( 'NONE', #160, #69 ) ;
#18 = AXIS2_PLACEMENT_3D ( 'NONE', #80, #120, #55 ) ;
#19 = DIRECTION ( 'NONE',  ( -0.0000000000000000000, -0.0000000000000000000, -1.000000000000000000 ) ) ;
#20 = MECHANICAL_DESIGN_GEOMETRIC_PRESENTATION_REPRESENTATION (  '', ( #241 ), #33 ) ;
#21 = DIRECTION ( 'NONE',  ( -1.000000000000000000, 0.0000000000000000000, 0.0000000000000000000 ) ) ;
#22 = EDGE_CURVE ( 'NONE', #192, #232, #177, .T. ) ;
#23 = SURFACE_STYLE_USAGE ( .BOTH. , #15 ) ;
#24 = CARTESIAN_POINT ( 'NONE',  ( 0.0000000000000000000, 0.0000000000000000000, 0.0000000000000000000 ) ) ;
#25 = ORIENTED_EDGE ( 'NONE', *, *, #184, .T. ) ;
#26 = ORIENTED_EDGE ( 'NONE', *, *, #138, .F. ) ;
#27 = ORIENTED_EDGE ( 'NONE', *, *, #28, .T. ) ;
#28 = EDGE_CURVE ( 'NONE', #232, #192, #186, .T. ) ;
#29 = ORIENTED_EDGE ( 'NONE', *, *, #144, .F. ) ;
#30 = VERTEX_POINT ( 'NONE', #125 ) ;
#31 = EDGE_LOOP ( 'NONE', ( #235, #47 ) ) ;
#32 = PLANE ( 'NONE',  #167 ) ;
#33 =( GEOMETRIC_REPRESENTATION_CONTEXT ( 3 ) GLOBAL_UNCERTAINTY_ASSIGNED_CONTEXT ( ( #87 ) ) GLOBAL_UNIT_ASSIGNED_CONTEXT ( ( #62, #133, #113 ) ) REPRESENTATION_CONTEXT ( 'NONE', 'WORKASPACE' ) );
#34 = CARTESIAN_POINT ( 'NONE',  ( 0.0000000000000000000, 0.0000000000000000000, 2.500000000000000000 ) ) ;
#35 = DIRECTION ( 'NONE',  ( 1.000000000000000000, 0.0000000000000000000, 0.0000000000000000000 ) ) ;
#36 = DIRECTION ( 'NONE',  ( -0.0000000000000000000, -0.0000000000000000000, -1.000000000000000000 ) ) ;
#37 = FACE_OUTER_BOUND ( 'NONE', #238, .T. ) ;
#38 =( GEOMETRIC_REPRESENTATION_CONTEXT ( 3 ) GLOBAL_UNCERTAINTY_ASSIGNED_CONTEXT ( ( #41 ) ) GLOBAL_UNIT_ASSIGNED_CONTEXT ( ( #157, #222, #249 ) ) REPRESENTATION_CONTEXT ( 'NONE', 'WORKASPACE' ) );
#39 = DIRECTION ( 'NONE',  ( -1.000000000000000000, 0.0000000000000000000, 0.0000000000000000000 ) ) ;
#40 = AXIS2_PLACEMENT_3D ( 'NONE', #122, #204, #21 ) ;
#41 = UNCERTAINTY_MEASURE_WITH_UNIT (LENGTH_MEASURE( 1.000000000000000082E-05 ), #157, 'distance_accuracy_value', 'NONE');
#42 = CARTESIAN_POINT ( 'NONE',  ( 0.0000000000000000000, 0.0000000000000000000, 2.484999999999999432 ) ) ;
#43 = CARTESIAN_POINT ( 'NONE',  ( 0.0000000000000000000, 0.0000000000000000000, 0.3178313231888877932 ) ) ;
#44 = EDGE_CURVE ( 'NONE', #64, #115, #237, .T. ) ;
#45 = PRESENTATION_LAYER_ASSIGNMENT (  '', '', ( #241 ) ) ;
#46 = ORIENTED_EDGE ( 'NONE', *, *, #22, .T. ) ;
#47 = ORIENTED_EDGE ( 'NONE', *, *, #95, .T. ) ;
#48 = AXIS2_PLACEMENT_3D ( 'NONE', #174, #119, #181 ) ;
#49 = AXIS2_PLACEMENT_3D ( 'NONE', #203, #19, #39 ) ;
#50 = ORIENTED_EDGE ( 'NONE', *, *, #229, .T. ) ;
#51 = EDGE_LOOP ( 'NONE', ( #172, #46, #199, #239 ) ) ;
#52 = DIRECTION ( 'NONE',  ( 0.0000000000000000000, 0.0000000000000000000, 1.000000000000000000 ) ) ;
#53 =( LENGTH_UNIT ( ) NAMED_UNIT ( * ) SI_UNIT ( $, .METRE. ) );
#54 = FACE_OUTER_BOUND ( 'NONE', #103, .T. ) ;
#55 = DIRECTION ( 'NONE',  ( -1.000000000000000000, 0.0000000000000000000, 0.0000000000000000000 ) ) ;
#56 = CARTESIAN_POINT ( 'NONE',  ( -0.1875000000000000278, 0.0000000000000000000, 2.500000000000000000 ) ) ;
#57 = FILL_AREA_STYLE_COLOUR ( '', #107 ) ;
#58 = ADVANCED_FACE ( 'NONE', ( #37 ), #100, .T. ) ;
#59 = ORIENTED_EDGE ( 'NONE', *, *, #229, .F. ) ;
#60 = CARTESIAN_POINT ( 'NONE',  ( -0.003999999999999999216, 1.172599310183590719E-17, 0.0000000000000000000 ) ) ;
#61 = AXIS2_PLACEMENT_3D ( 'NONE', #116, #52, #97 ) ;
#62 =( CONVERSION_BASED_UNIT ( 'INCH', #169 ) LENGTH_UNIT ( ) NAMED_UNIT ( #207 ) );
#63 = AXIS2_PLACEMENT_3D ( 'NONE', #245, #205, #65 ) ;
#64 = VERTEX_POINT ( 'NONE', #8 ) ;
#65 = DIRECTION ( 'NONE',  ( -1.000000000000000000, 0.0000000000000000000, 0.0000000000000000000 ) ) ;
#66 = AXIS2_PLACEMENT_3D ( 'NONE', #99, #36, #68 ) ;
#67 = DIRECTION ( 'NONE',  ( -0.0000000000000000000, -0.0000000000000000000, -1.000000000000000000 ) ) ;
#68 = DIRECTION ( 'NONE',  ( -1.000000000000000000, 0.0000000000000000000, 0.0000000000000000000 ) ) ;
#69 = VECTOR ( 'NONE', #228, 39.37007874015748143 ) ;
#70 = DIRECTION ( 'NONE',  ( 1.000000000000000000, 0.0000000000000000000, 0.0000000000000000000 ) ) ;
#71 = DIRECTION ( 'NONE',  ( 0.7071067811865385799, 8.659560562354823157E-17, -0.7071067811865563435 ) ) ;
#72 = CARTESIAN_POINT ( 'NONE',  ( 0.0000000000000000000, 0.0000000000000000000, 2.500000000000000000 ) ) ;
#73 = CONICAL_SURFACE ( 'NONE', #63, 0.1724999999999995981, 0.7853981633974357335 ) ;
#74 = AXIS2_PLACEMENT_3D ( 'NONE', #42, #162, #129 ) ;
#75 = VECTOR ( 'NONE', #105, 39.37007874015748143 ) ;
#76 =( NAMED_UNIT ( * ) SI_UNIT ( $, .STERADIAN. ) SOLID_ANGLE_UNIT ( ) );
#77 = FILL_AREA_STYLE ('',( #149 ) ) ;
#78 = PRODUCT_DEFINITION_FORMATION_WITH_SPECIFIED_SOURCE ( 'ANY', '', #6, .NOT_KNOWN. ) ;
#79 = ORIENTED_EDGE ( 'NONE', *, *, #22, .F. ) ;
#80 = CARTESIAN_POINT ( 'NONE',  ( 0.0000000000000000000, 0.0000000000000000000, 2.500000000000000000 ) ) ;
#81 = PRODUCT_DEFINITION_CONTEXT ( 'detailed design', #165, 'design' ) ;
#82 = EDGE_LOOP ( 'NONE', ( #26, #175, #50, #244 ) ) ;
#83 = LENGTH_MEASURE_WITH_UNIT ( LENGTH_MEASURE( 0.02539999999999999897 ), #212 );
#84 = DIRECTION ( 'NONE',  ( 1.000000000000000000, 0.0000000000000000000, -0.0000000000000000000 ) ) ;
#85 = CARTESIAN_POINT ( 'NONE',  ( -0.1875000000000000278, 0.0000000000000000000, 0.3178313231888877932 ) ) ;
#86 = CARTESIAN_POINT ( 'NONE',  ( -0.1724999999999995981, 0.0000000000000000000, 2.500000000000000000 ) ) ;
#87 = UNCERTAINTY_MEASURE_WITH_UNIT (LENGTH_MEASURE( 1.000000000000000082E-05 ), #62, 'distance_accuracy_value', 'NONE');
#88 = PRODUCT_RELATED_PRODUCT_CATEGORY ( 'part', '', ( #6 ) ) ;
#89 = PRESENTATION_STYLE_ASSIGNMENT (( #23 ) ) ;
#90 = LINE ( 'NONE', #161, #147 ) ;
#91 = ORIENTED_EDGE ( 'NONE', *, *, #153, .F. ) ;
#92 = VECTOR ( 'NONE', #223, 39.37007874015748854 ) ;
#93 = PRODUCT_CONTEXT ( 'NONE', #234, 'mechanical' ) ;
#94 = VERTEX_POINT ( 'NONE', #187 ) ;
#95 = EDGE_CURVE ( 'NONE', #94, #96, #221, .T. ) ;
#96 = VERTEX_POINT ( 'NONE', #146 ) ;
#97 = DIRECTION ( 'NONE',  ( 1.000000000000000000, 0.0000000000000000000, -0.0000000000000000000 ) ) ;
#98 = SURFACE_SIDE_STYLE ('',( #201 ) ) ;
#99 = CARTESIAN_POINT ( 'NONE',  ( 0.0000000000000000000, 0.0000000000000000000, 0.0000000000000000000 ) ) ;
#100 = CYLINDRICAL_SURFACE ( 'NONE', #108, 0.1875000000000000278 ) ;
#101 = FACE_OUTER_BOUND ( 'NONE', #31, .T. ) ;
#102 = DIRECTION ( 'NONE',  ( -0.5000000000000013323, 6.123233995736782060E-17, 0.8660254037844377084 ) ) ;
#103 = EDGE_LOOP ( 'NONE', ( #135, #12, #168, #164 ) ) ;
#104 = STYLED_ITEM ( 'NONE', ( #89 ), #145 ) ;
#105 = DIRECTION ( 'NONE',  ( -0.0000000000000000000, -0.0000000000000000000, -1.000000000000000000 ) ) ;
#106 = PLANE ( 'NONE',  #61 ) ;
#107 = COLOUR_RGB ( '',0.7921568627450980005, 0.8196078431372548767, 0.9333333333333333481 ) ;
#108 = AXIS2_PLACEMENT_3D ( 'NONE', #72, #67, #185 ) ;
#109 = SURFACE_STYLE_FILL_AREA ( #208 ) ;
#110 = UNCERTAINTY_MEASURE_WITH_UNIT (LENGTH_MEASURE( 1.000000000000000082E-05 ), #242, 'distance_accuracy_value', 'NONE');
#111 = DIRECTION ( 'NONE',  ( -0.0000000000000000000, -0.0000000000000000000, -1.000000000000000000 ) ) ;
#112 = EDGE_CURVE ( 'NONE', #192, #64, #17, .T. ) ;
#113 =( NAMED_UNIT ( * ) SI_UNIT ( $, .STERADIAN. ) SOLID_ANGLE_UNIT ( ) );
#114 = APPLICATION_PROTOCOL_DEFINITION ( 'draft international standard', 'automotive_design', 1998, #234 ) ;
#115 = VERTEX_POINT ( 'NONE', #85 ) ;
#116 = CARTESIAN_POINT ( 'NONE',  ( 0.0000000000000000000, 0.0000000000000000000, 0.0000000000000000000 ) ) ;
#117 = ADVANCED_FACE ( 'NONE', ( #2 ), #163, .T. ) ;
#118 = VERTEX_POINT ( 'NONE', #60 ) ;
#119 = DIRECTION ( 'NONE',  ( 0.0000000000000000000, 0.0000000000000000000, -1.000000000000000000 ) ) ;
#120 = DIRECTION ( 'NONE',  ( 0.0000000000000000000, 0.0000000000000000000, -1.000000000000000000 ) ) ;
#121 = LINE ( 'NONE', #3, #248 ) ;
#122 = CARTESIAN_POINT ( 'NONE',  ( 0.0000000000000000000, 0.0000000000000000000, 0.0000000000000000000 ) ) ;
#123 = LINE ( 'NONE', #86, #142 ) ;
#124 = EDGE_CURVE ( 'NONE', #232, #115, #139, .T. ) ;
#125 = CARTESIAN_POINT ( 'NONE',  ( 0.003999999999999999216, 0.0000000000000000000, 0.0000000000000000000 ) ) ;
#126 = EDGE_CURVE ( 'NONE', #96, #94, #132, .T. ) ;
#127 = AXIS2_PLACEMENT_3D ( 'NONE', #34, #220, #158 ) ;
#128 =( GEOMETRIC_REPRESENTATION_CONTEXT ( 3 ) GLOBAL_UNCERTAINTY_ASSIGNED_CONTEXT ( ( #110 ) ) GLOBAL_UNIT_ASSIGNED_CONTEXT ( ( #242, #219, #76 ) ) REPRESENTATION_CONTEXT ( 'NONE', 'WORKASPACE' ) );
#129 = DIRECTION ( 'NONE',  ( 1.000000000000000000, 0.0000000000000000000, 0.0000000000000000000 ) ) ;
#130 = ORIENTED_EDGE ( 'NONE', *, *, #159, .T. ) ;
#131 = MECHANICAL_DESIGN_GEOMETRIC_PRESENTATION_REPRESENTATION (  '', ( #104 ), #38 ) ;
#132 = CIRCLE ( 'NONE', #195, 0.1724999999999995981 ) ;
#133 =( NAMED_UNIT ( * ) PLANE_ANGLE_UNIT ( ) SI_UNIT ( $, .RADIAN. ) );
#134 = SHAPE_DEFINITION_REPRESENTATION ( #213, #206 ) ;
#135 = ORIENTED_EDGE ( 'NONE', *, *, #95, .F. ) ;
#136 = CYLINDRICAL_SURFACE ( 'NONE', #127, 0.1875000000000000278 ) ;
#137 = LINE ( 'NONE', #202, #92 ) ;
#138 = EDGE_CURVE ( 'NONE', #118, #30, #216, .T. ) ;
#139 = LINE ( 'NONE', #56, #75 ) ;
#140 = CARTESIAN_POINT ( 'NONE',  ( -0.1875000000000000278, 0.0000000000000000000, 2.484999999999999432 ) ) ;
#141 = DIRECTION ( 'NONE',  ( 1.000000000000000000, 0.0000000000000000000, 0.0000000000000000000 ) ) ;
#142 = VECTOR ( 'NONE', #200, 39.37007874015748854 ) ;
#143 = AXIS2_PLACEMENT_3D ( 'NONE', #151, #13, #197 ) ;
#144 = EDGE_CURVE ( 'NONE', #118, #115, #90, .T. ) ;
#145 = MANIFOLD_SOLID_BREP ( 'Cut-Revolve1', #191 ) ;
#146 = CARTESIAN_POINT ( 'NONE',  ( -0.1724999999999995981, 0.0000000000000000000, 2.500000000000000000 ) ) ;
#147 = VECTOR ( 'NONE', #102, 39.37007874015748854 ) ;
#148 = PRESENTATION_LAYER_ASSIGNMENT (  '', '', ( #104 ) ) ;
#149 = FILL_AREA_STYLE_COLOUR ( '', #7 ) ;
#150 = AXIS2_PLACEMENT_3D ( 'NONE', #24, #189, #70 ) ;
#151 = CARTESIAN_POINT ( 'NONE',  ( 0.0000000000000000000, 0.0000000000000000000, 0.0000000000000000000 ) ) ;
#152 = LENGTH_MEASURE_WITH_UNIT ( LENGTH_MEASURE( 0.02539999999999999897 ), #176 );
#153 = EDGE_CURVE ( 'NONE', #30, #118, #210, .T. ) ;
#154 = EDGE_LOOP ( 'NONE', ( #247, #240, #130, #79 ) ) ;
#155 = CARTESIAN_POINT ( 'NONE',  ( 0.1875000000000000278, 2.296212748401287726E-17, 2.484999999999999432 ) ) ;
#156 = FACE_OUTER_BOUND ( 'NONE', #82, .T. ) ;
#157 =( CONVERSION_BASED_UNIT ( 'INCH', #83 ) LENGTH_UNIT ( ) NAMED_UNIT ( #224 ) );
#158 = DIRECTION ( 'NONE',  ( -1.000000000000000000, 0.0000000000000000000, 0.0000000000000000000 ) ) ;
#159 = EDGE_CURVE ( 'NONE', #96, #232, #123, .T. ) ;
#160 = CARTESIAN_POINT ( 'NONE',  ( 0.1875000000000000278, 2.296212748401287726E-17, 2.500000000000000000 ) ) ;
#161 = CARTESIAN_POINT ( 'NONE',  ( -0.003999999999999999216, 4.898587196589411612E-19, 0.0000000000000000000 ) ) ;
#162 = DIRECTION ( 'NONE',  ( 0.0000000000000000000, 0.0000000000000000000, -1.000000000000000000 ) ) ;
#163 = CONICAL_SURFACE ( 'NONE', #150, 0.003999999999999999216, 0.5235987755983005920 ) ;
#164 = ORIENTED_EDGE ( 'NONE', *, *, #159, .F. ) ;
#165 = APPLICATION_CONTEXT ( 'automotive_design' ) ;
#166 = DIRECTION ( 'NONE',  ( 0.0000000000000000000, 0.0000000000000000000, 1.000000000000000000 ) ) ;
#167 = AXIS2_PLACEMENT_3D ( 'NONE', #16, #183, #84 ) ;
#168 = ORIENTED_EDGE ( 'NONE', *, *, #28, .F. ) ;
#169 = LENGTH_MEASURE_WITH_UNIT ( LENGTH_MEASURE( 0.02539999999999999897 ), #53 );
#170 = APPLICATION_PROTOCOL_DEFINITION ( 'draft international standard', 'automotive_design', 1998, #165 ) ;
#171 = AXIS2_PLACEMENT_3D ( 'NONE', #246, #166, #141 ) ;
#172 = ORIENTED_EDGE ( 'NONE', *, *, #112, .F. ) ;
#173 = CARTESIAN_POINT ( 'NONE',  ( 0.0000000000000000000, 0.0000000000000000000, 0.0000000000000000000 ) ) ;
#174 = CARTESIAN_POINT ( 'NONE',  ( 0.0000000000000000000, 0.0000000000000000000, 2.484999999999999432 ) ) ;
#175 = ORIENTED_EDGE ( 'NONE', *, *, #144, .T. ) ;
#176 =( LENGTH_UNIT ( ) NAMED_UNIT ( * ) SI_UNIT ( $, .METRE. ) );
#177 = CIRCLE ( 'NONE', #48, 0.1875000000000000278 ) ;
#178 = ORIENTED_EDGE ( 'NONE', *, *, #112, .T. ) ;
#179 = ORIENTED_EDGE ( 'NONE', *, *, #153, .T. ) ;
#180 = FACE_OUTER_BOUND ( 'NONE', #51, .T. ) ;
#181 = DIRECTION ( 'NONE',  ( 1.000000000000000000, 0.0000000000000000000, 0.0000000000000000000 ) ) ;
#182 = CARTESIAN_POINT ( 'NONE',  ( 0.0000000000000000000, 0.0000000000000000000, 2.500000000000000000 ) ) ;
#183 = DIRECTION ( 'NONE',  ( 0.0000000000000000000, 0.0000000000000000000, 1.000000000000000000 ) ) ;
#184 = EDGE_CURVE ( 'NONE', #30, #64, #137, .T. ) ;
#185 = DIRECTION ( 'NONE',  ( -1.000000000000000000, 0.0000000000000000000, 0.0000000000000000000 ) ) ;
#186 = CIRCLE ( 'NONE', #74, 0.1875000000000000278 ) ;
#187 = CARTESIAN_POINT ( 'NONE',  ( 0.1724999999999995981, 2.204364238465233357E-17, 2.500000000000000000 ) ) ;
#188 = EDGE_LOOP ( 'NONE', ( #29, #91, #25, #11 ) ) ;
#189 = DIRECTION ( 'NONE',  ( 0.0000000000000000000, 0.0000000000000000000, 1.000000000000000000 ) ) ;
#190 = AXIS2_PLACEMENT_3D ( 'NONE', #173, #236, #10 ) ;
#191 = CLOSED_SHELL ( 'NONE', ( #5, #214, #58, #217, #209, #211, #117, #243 ) ) ;
#192 = VERTEX_POINT ( 'NONE', #155 ) ;
#193 = ORIENTED_EDGE ( 'NONE', *, *, #138, .T. ) ;
#194 = EDGE_LOOP ( 'NONE', ( #179, #193 ) ) ;
#195 = AXIS2_PLACEMENT_3D ( 'NONE', #182, #226, #35 ) ;
#196 = CONICAL_SURFACE ( 'NONE', #18, 0.1724999999999995981, 0.7853981633974357335 ) ;
#197 = DIRECTION ( 'NONE',  ( 1.000000000000000000, 0.0000000000000000000, 0.0000000000000000000 ) ) ;
#198 = PRODUCT_DEFINITION ( 'UNKNOWN', '', #78, #81 ) ;
#199 = ORIENTED_EDGE ( 'NONE', *, *, #124, .T. ) ;
#200 = DIRECTION ( 'NONE',  ( -0.7071067811865385799, 0.0000000000000000000, -0.7071067811865563435 ) ) ;
#201 = SURFACE_STYLE_FILL_AREA ( #77 ) ;
#202 = CARTESIAN_POINT ( 'NONE',  ( 0.003999999999999999216, 0.0000000000000000000, 0.0000000000000000000 ) ) ;
#203 = CARTESIAN_POINT ( 'NONE',  ( 0.0000000000000000000, 0.0000000000000000000, 0.3178313231888877932 ) ) ;
#204 = DIRECTION ( 'NONE',  ( -0.0000000000000000000, -0.0000000000000000000, -1.000000000000000000 ) ) ;
#205 = DIRECTION ( 'NONE',  ( 0.0000000000000000000, 0.0000000000000000000, -1.000000000000000000 ) ) ;
#206 = ADVANCED_BREP_SHAPE_REPRESENTATION ( 'Micro_RSC-375-1X', ( #145, #190 ), #128 ) ;
#207 = DIMENSIONAL_EXPONENTS ( 1.000000000000000000, 0.0000000000000000000, 0.0000000000000000000, 0.0000000000000000000, 0.0000000000000000000, 0.0000000000000000000, 0.0000000000000000000 ) ;
#208 = FILL_AREA_STYLE ('',( #57 ) ) ;
#209 = ADVANCED_FACE ( 'NONE', ( #101 ), #32, .T. ) ;
#210 = CIRCLE ( 'NONE', #66, 0.003999999999999999216 ) ;
#211 = ADVANCED_FACE ( 'NONE', ( #14 ), #196, .T. ) ;
#212 =( LENGTH_UNIT ( ) NAMED_UNIT ( * ) SI_UNIT ( $, .METRE. ) );
#213 = PRODUCT_DEFINITION_SHAPE ( 'NONE', 'NONE',  #198 ) ;
#214 = ADVANCED_FACE ( 'NONE', ( #54 ), #73, .T. ) ;
#215 = AXIS2_PLACEMENT_3D ( 'NONE', #43, #111, #233 ) ;
#216 = CIRCLE ( 'NONE', #40, 0.003999999999999999216 ) ;
#217 = ADVANCED_FACE ( 'NONE', ( #180 ), #136, .T. ) ;
#218 = ORIENTED_EDGE ( 'NONE', *, *, #124, .F. ) ;
#219 =( NAMED_UNIT ( * ) PLANE_ANGLE_UNIT ( ) SI_UNIT ( $, .RADIAN. ) );
#220 = DIRECTION ( 'NONE',  ( -0.0000000000000000000, -0.0000000000000000000, -1.000000000000000000 ) ) ;
#221 = CIRCLE ( 'NONE', #171, 0.1724999999999995981 ) ;
#222 =( NAMED_UNIT ( * ) PLANE_ANGLE_UNIT ( ) SI_UNIT ( $, .RADIAN. ) );
#223 = DIRECTION ( 'NONE',  ( 0.5000000000000013323, 0.0000000000000000000, 0.8660254037844377084 ) ) ;
#224 = DIMENSIONAL_EXPONENTS ( 1.000000000000000000, 0.0000000000000000000, 0.0000000000000000000, 0.0000000000000000000, 0.0000000000000000000, 0.0000000000000000000, 0.0000000000000000000 ) ;
#225 = SURFACE_STYLE_USAGE ( .BOTH. , #98 ) ;
#226 = DIRECTION ( 'NONE',  ( 0.0000000000000000000, 0.0000000000000000000, 1.000000000000000000 ) ) ;
#227 = FACE_OUTER_BOUND ( 'NONE', #194, .T. ) ;
#228 = DIRECTION ( 'NONE',  ( -0.0000000000000000000, -0.0000000000000000000, -1.000000000000000000 ) ) ;
#229 = EDGE_CURVE ( 'NONE', #115, #64, #9, .T. ) ;
#230 = CONICAL_SURFACE ( 'NONE', #143, 0.003999999999999999216, 0.5235987755983005920 ) ;
#231 = EDGE_CURVE ( 'NONE', #94, #192, #121, .T. ) ;
#232 = VERTEX_POINT ( 'NONE', #140 ) ;
#233 = DIRECTION ( 'NONE',  ( -1.000000000000000000, 0.0000000000000000000, 0.0000000000000000000 ) ) ;
#234 = APPLICATION_CONTEXT ( 'automotive_design' ) ;
#235 = ORIENTED_EDGE ( 'NONE', *, *, #126, .T. ) ;
#236 = DIRECTION ( 'NONE',  ( 0.0000000000000000000, 0.0000000000000000000, 1.000000000000000000 ) ) ;
#237 = CIRCLE ( 'NONE', #215, 0.1875000000000000278 ) ;
#238 = EDGE_LOOP ( 'NONE', ( #27, #178, #59, #218 ) ) ;
#239 = ORIENTED_EDGE ( 'NONE', *, *, #44, .F. ) ;
#240 = ORIENTED_EDGE ( 'NONE', *, *, #126, .F. ) ;
#241 = STYLED_ITEM ( 'NONE', ( #4 ), #206 ) ;
#242 =( CONVERSION_BASED_UNIT ( 'INCH', #152 ) LENGTH_UNIT ( ) NAMED_UNIT ( #1 ) );
#243 = ADVANCED_FACE ( 'NONE', ( #227 ), #106, .F. ) ;
#244 = ORIENTED_EDGE ( 'NONE', *, *, #184, .F. ) ;
#245 = CARTESIAN_POINT ( 'NONE',  ( 0.0000000000000000000, 0.0000000000000000000, 2.500000000000000000 ) ) ;
#246 = CARTESIAN_POINT ( 'NONE',  ( 0.0000000000000000000, 0.0000000000000000000, 2.500000000000000000 ) ) ;
#247 = ORIENTED_EDGE ( 'NONE', *, *, #231, .F. ) ;
#248 = VECTOR ( 'NONE', #71, 39.37007874015748854 ) ;
#249 =( NAMED_UNIT ( * ) SI_UNIT ( $, .STERADIAN. ) SOLID_ANGLE_UNIT ( ) );
ENDSEC;
END-ISO-10303-21;
