ISO-10303-21;
HEADER;
FILE_DESCRIPTION (( 'STEP AP214' ),
    '1' );
FILE_NAME ('Micro_GEC-250-3-020X.STEP',
    '2021-09-03T17:14:10',
    ( '' ),
    ( '' ),
    'SwSTEP 2.0',
    'SolidWorks 2020',
    '' );
FILE_SCHEMA (( 'AUTOMOTIVE_DESIGN' ));
ENDSEC;

DATA;
#1 = FACE_OUTER_BOUND ( 'NONE', #68, .T. ) ;
#2 = COLOUR_RGB ( '',0.7921568627450980005, 0.8196078431372548767, 0.9333333333333333481 ) ;
#3 = CARTESIAN_POINT ( 'NONE',  ( -0.1248749999999999166, 1.530043094684724646E-17, 0.7500000000000001110 ) ) ;
#4 = DIRECTION ( 'NONE',  ( 1.000000000000000000, 0.0000000000000000000, 0.0000000000000000000 ) ) ;
#5 = VERTEX_POINT ( 'NONE', #253 ) ;
#6 =( NAMED_UNIT ( * ) PLANE_ANGLE_UNIT ( ) SI_UNIT ( $, .RADIAN. ) );
#7 = AXIS2_PLACEMENT_3D ( 'NONE', #235, #320, #183 ) ;
#8 = DIRECTION ( 'NONE',  ( 0.0000000000000000000, 0.0000000000000000000, 1.000000000000000000 ) ) ;
#9 = PRESENTATION_LAYER_ASSIGNMENT (  '', '', ( #303 ) ) ;
#10 = ORIENTED_EDGE ( 'NONE', *, *, #298, .F. ) ;
#11 = ORIENTED_EDGE ( 'NONE', *, *, #137, .T. ) ;
#12 = APPLICATION_PROTOCOL_DEFINITION ( 'draft international standard', 'automotive_design', 1998, #187 ) ;
#13 = DIRECTION ( 'NONE',  ( 1.000000000000000000, 0.0000000000000000000, 0.0000000000000000000 ) ) ;
#14 = EDGE_CURVE ( 'NONE', #34, #171, #72, .T. ) ;
#15 = EDGE_LOOP ( 'NONE', ( #63, #333, #192, #279 ) ) ;
#16 = DIRECTION ( 'NONE',  ( 0.0000000000000000000, 0.0000000000000000000, -1.000000000000000000 ) ) ;
#17 = DIRECTION ( 'NONE',  ( 1.000000000000000000, 0.0000000000000000000, 0.0000000000000000000 ) ) ;
#18 = TOROIDAL_SURFACE ( 'NONE', #175, 0.1048749999999999960, 0.02000000000000000042 ) ;
#19 = FACE_OUTER_BOUND ( 'NONE', #15, .T. ) ;
#20 = FACE_OUTER_BOUND ( 'NONE', #176, .T. ) ;
#21 = AXIS2_PLACEMENT_3D ( 'NONE', #332, #174, #167 ) ;
#22 = PRODUCT_DEFINITION ( 'UNKNOWN', '', #87, #97 ) ;
#23 = FACE_OUTER_BOUND ( 'NONE', #271, .T. ) ;
#24 = DIRECTION ( 'NONE',  ( -0.0000000000000000000, -0.0000000000000000000, -1.000000000000000000 ) ) ;
#25 = CARTESIAN_POINT ( 'NONE',  ( 0.0000000000000000000, 0.0000000000000000000, 0.0000000000000000000 ) ) ;
#26 = UNCERTAINTY_MEASURE_WITH_UNIT (LENGTH_MEASURE( 1.000000000000000082E-05 ), #266, 'distance_accuracy_value', 'NONE');
#27 = PLANE ( 'NONE',  #73 ) ;
#28 = CARTESIAN_POINT ( 'NONE',  ( 0.0000000000000000000, 0.0000000000000000000, 2.500000000000000000 ) ) ;
#29 = STYLED_ITEM ( 'NONE', ( #113 ), #343 ) ;
#30 = SURFACE_STYLE_FILL_AREA ( #328 ) ;
#31 = PRODUCT_RELATED_PRODUCT_CATEGORY ( 'part', '', ( #71 ) ) ;
#32 = AXIS2_PLACEMENT_3D ( 'NONE', #37, #122, #262 ) ;
#33 = AXIS2_PLACEMENT_3D ( 'NONE', #138, #220, #170 ) ;
#34 = VERTEX_POINT ( 'NONE', #112 ) ;
#35 = DIRECTION ( 'NONE',  ( 1.000000000000000000, 0.0000000000000000000, 0.0000000000000000000 ) ) ;
#36 = ORIENTED_EDGE ( 'NONE', *, *, #226, .T. ) ;
#37 = CARTESIAN_POINT ( 'NONE',  ( 9.184850993605150903E-17, 0.0000000000000000000, 0.7500000000000001110 ) ) ;
#38 = CARTESIAN_POINT ( 'NONE',  ( 0.0000000000000000000, 0.0000000000000000000, 2.500000000000000000 ) ) ;
#39 = VERTEX_POINT ( 'NONE', #62 ) ;
#40 = EDGE_CURVE ( 'NONE', #5, #123, #219, .T. ) ;
#41 = VECTOR ( 'NONE', #216, 39.37007874015748143 ) ;
#42 = FACE_OUTER_BOUND ( 'NONE', #168, .T. ) ;
#43 = ORIENTED_EDGE ( 'NONE', *, *, #114, .T. ) ;
#44 = CIRCLE ( 'NONE', #69, 0.1250000000000000000 ) ;
#45 = DIRECTION ( 'NONE',  ( 0.0000000000000000000, 0.0000000000000000000, -1.000000000000000000 ) ) ;
#46 = CARTESIAN_POINT ( 'NONE',  ( 0.0000000000000000000, 0.0000000000000000000, 2.500000000000000000 ) ) ;
#47 = SURFACE_STYLE_FILL_AREA ( #293 ) ;
#48 = EDGE_CURVE ( 'NONE', #39, #171, #89, .T. ) ;
#49 = CARTESIAN_POINT ( 'NONE',  ( 2.449293598294706769E-18, 0.0000000000000000000, 0.0000000000000000000 ) ) ;
#50 = DIRECTION ( 'NONE',  ( 1.000000000000000000, 0.0000000000000000000, 0.0000000000000000000 ) ) ;
#51 = CIRCLE ( 'NONE', #285, 0.1248749999999999999 ) ;
#52 = LINE ( 'NONE', #348, #269 ) ;
#53 =( CONVERSION_BASED_UNIT ( 'INCH', #81 ) LENGTH_UNIT ( ) NAMED_UNIT ( #341 ) );
#54 = FACE_OUTER_BOUND ( 'NONE', #229, .T. ) ;
#55 = AXIS2_PLACEMENT_3D ( 'NONE', #309, #66, #244 ) ;
#56 = PRESENTATION_LAYER_ASSIGNMENT (  '', '', ( #29 ) ) ;
#57 =( CONVERSION_BASED_UNIT ( 'INCH', #92 ) LENGTH_UNIT ( ) NAMED_UNIT ( #312 ) );
#58 = SURFACE_SIDE_STYLE ('',( #30 ) ) ;
#59 = EDGE_LOOP ( 'NONE', ( #221, #100, #36, #120 ) ) ;
#60 = DIRECTION ( 'NONE',  ( -1.224646799147353207E-16, -0.0000000000000000000, -1.000000000000000000 ) ) ;
#61 = CARTESIAN_POINT ( 'NONE',  ( 0.0000000000000000000, 0.0000000000000000000, 0.0000000000000000000 ) ) ;
#62 = CARTESIAN_POINT ( 'NONE',  ( 0.1100000000000001948, 1.438959988998141146E-17, 2.500000000000000000 ) ) ;
#63 = ORIENTED_EDGE ( 'NONE', *, *, #48, .F. ) ;
#64 = EDGE_CURVE ( 'NONE', #334, #96, #78, .T. ) ;
#65 = ORIENTED_EDGE ( 'NONE', *, *, #160, .F. ) ;
#66 = DIRECTION ( 'NONE',  ( -0.0000000000000000000, -0.0000000000000000000, -1.000000000000000000 ) ) ;
#67 = ORIENTED_EDGE ( 'NONE', *, *, #338, .F. ) ;
#68 = EDGE_LOOP ( 'NONE', ( #67, #247, #342, #202 ) ) ;
#69 = AXIS2_PLACEMENT_3D ( 'NONE', #300, #91, #17 ) ;
#70 = VERTEX_POINT ( 'NONE', #3 ) ;
#71 = PRODUCT ( 'Micro_GEC-250-3-020X', 'Micro_GEC-250-3-020X', '', ( #344 ) ) ;
#72 = CIRCLE ( 'NONE', #198, 0.1250000000000000000 ) ;
#73 = AXIS2_PLACEMENT_3D ( 'NONE', #212, #82, #155 ) ;
#74 = CARTESIAN_POINT ( 'NONE',  ( 0.1250000000000000000, 1.530808498934191509E-17, 2.485000000000000320 ) ) ;
#75 = EDGE_CURVE ( 'NONE', #123, #307, #85, .T. ) ;
#76 = FACE_OUTER_BOUND ( 'NONE', #148, .T. ) ;
#77 = DIRECTION ( 'NONE',  ( -1.000000000000000000, 0.0000000000000000000, 0.0000000000000000000 ) ) ;
#78 = CIRCLE ( 'NONE', #55, 0.1048749999999999960 ) ;
#79 = SURFACE_STYLE_USAGE ( .BOTH. , #323 ) ;
#80 = AXIS2_PLACEMENT_3D ( 'NONE', #25, #133, #295 ) ;
#81 = LENGTH_MEASURE_WITH_UNIT ( LENGTH_MEASURE( 0.02539999999999999897 ), #241 );
#82 = DIRECTION ( 'NONE',  ( 0.0000000000000000000, 0.0000000000000000000, 1.000000000000000000 ) ) ;
#83 = CYLINDRICAL_SURFACE ( 'NONE', #80, 0.1248749999999999999 ) ;
#84 = VECTOR ( 'NONE', #140, 39.37007874015748143 ) ;
#85 = CIRCLE ( 'NONE', #21, 0.1248749999999999999 ) ;
#86 =( GEOMETRIC_REPRESENTATION_CONTEXT ( 3 ) GLOBAL_UNCERTAINTY_ASSIGNED_CONTEXT ( ( #26 ) ) GLOBAL_UNIT_ASSIGNED_CONTEXT ( ( #266, #6, #245 ) ) REPRESENTATION_CONTEXT ( 'NONE', 'WORKASPACE' ) );
#87 = PRODUCT_DEFINITION_FORMATION_WITH_SPECIFIED_SOURCE ( 'ANY', '', #71, .NOT_KNOWN. ) ;
#88 = EDGE_CURVE ( 'NONE', #39, #301, #101, .T. ) ;
#89 = LINE ( 'NONE', #225, #165 ) ;
#90 = DIRECTION ( 'NONE',  ( 1.224646799147353207E-16, 1.000000000000000000, -0.0000000000000000000 ) ) ;
#91 = DIRECTION ( 'NONE',  ( -1.224646799147353207E-16, -0.0000000000000000000, -1.000000000000000000 ) ) ;
#92 = LENGTH_MEASURE_WITH_UNIT ( LENGTH_MEASURE( 0.02539999999999999897 ), #166 );
#93 = CONICAL_SURFACE ( 'NONE', #32, 0.1248749999999999999, 0.1745329251994338082 ) ;
#94 = ORIENTED_EDGE ( 'NONE', *, *, #40, .T. ) ;
#95 = COLOUR_RGB ( '',0.7921568627450980005, 0.8196078431372548767, 0.9333333333333333481 ) ;
#96 = VERTEX_POINT ( 'NONE', #126 ) ;
#97 = PRODUCT_DEFINITION_CONTEXT ( 'detailed design', #187, 'design' ) ;
#98 = APPLICATION_PROTOCOL_DEFINITION ( 'draft international standard', 'automotive_design', 1998, #203 ) ;
#99 = CARTESIAN_POINT ( 'NONE',  ( 0.0000000000000000000, 0.0000000000000000000, 2.485000000000000320 ) ) ;
#100 = ORIENTED_EDGE ( 'NONE', *, *, #286, .T. ) ;
#101 = CIRCLE ( 'NONE', #215, 0.1100000000000001948 ) ;
#102 = VECTOR ( 'NONE', #242, 39.37007874015748143 ) ;
#103 = CONICAL_SURFACE ( 'NONE', #145, 0.1100000000000001948, 0.7853981633974517207 ) ;
#104 = FACE_OUTER_BOUND ( 'NONE', #59, .T. ) ;
#105 = DIRECTION ( 'NONE',  ( -1.000000000000000000, 0.0000000000000000000, 0.0000000000000000000 ) ) ;
#106 = DIRECTION ( 'NONE',  ( 0.1736481776669313026, 0.0000000000000000000, 0.9848077530122077983 ) ) ;
#107 = UNCERTAINTY_MEASURE_WITH_UNIT (LENGTH_MEASURE( 1.000000000000000082E-05 ), #57, 'distance_accuracy_value', 'NONE');
#108 = DIRECTION ( 'NONE',  ( -1.224646799147353207E-16, -0.0000000000000000000, -1.000000000000000000 ) ) ;
#109 = CARTESIAN_POINT ( 'NONE',  ( -0.1248749999999999166, 1.529277690435257475E-17, 0.7500000000000001110 ) ) ;
#110 = TOROIDAL_SURFACE ( 'NONE', #33, 0.1048749999999999960, 0.02000000000000000042 ) ;
#111 = DIRECTION ( 'NONE',  ( -1.000000000000000000, 0.0000000000000000000, 0.0000000000000000000 ) ) ;
#112 = CARTESIAN_POINT ( 'NONE',  ( -0.1250000000000000000, 0.0000000000000000000, 2.485000000000000320 ) ) ;
#113 = PRESENTATION_STYLE_ASSIGNMENT (( #117 ) ) ;
#114 = EDGE_CURVE ( 'NONE', #335, #254, #44, .T. ) ;
#115 = ADVANCED_BREP_SHAPE_REPRESENTATION ( 'Micro_GEC-250-3-020X', ( #343, #190 ), #264 ) ;
#116 = FACE_OUTER_BOUND ( 'NONE', #194, .T. ) ;
#117 = SURFACE_STYLE_USAGE ( .BOTH. , #58 ) ;
#118 = CARTESIAN_POINT ( 'NONE',  ( 0.0000000000000000000, 0.0000000000000000000, 2.485000000000000320 ) ) ;
#119 = LENGTH_MEASURE_WITH_UNIT ( LENGTH_MEASURE( 0.02539999999999999897 ), #217 );
#120 = ORIENTED_EDGE ( 'NONE', *, *, #114, .F. ) ;
#121 = CIRCLE ( 'NONE', #236, 0.1048749999999999960 ) ;
#122 = DIRECTION ( 'NONE',  ( 1.224646799147353207E-16, 0.0000000000000000000, 1.000000000000000000 ) ) ;
#123 = VERTEX_POINT ( 'NONE', #164 ) ;
#124 = ORIENTED_EDGE ( 'NONE', *, *, #88, .T. ) ;
#125 = FACE_OUTER_BOUND ( 'NONE', #178, .T. ) ;
#126 = CARTESIAN_POINT ( 'NONE',  ( -0.1048749999999999960, 1.406813010520521809E-17, 0.0000000000000000000 ) ) ;
#127 = ORIENTED_EDGE ( 'NONE', *, *, #48, .T. ) ;
#128 = DIRECTION ( 'NONE',  ( -0.0000000000000000000, -0.0000000000000000000, -1.000000000000000000 ) ) ;
#129 = MECHANICAL_DESIGN_GEOMETRIC_PRESENTATION_REPRESENTATION (  '', ( #303 ), #346 ) ;
#130 = DIRECTION ( 'NONE',  ( 1.000000000000000000, 0.0000000000000000000, 0.0000000000000000000 ) ) ;
#131 = ADVANCED_FACE ( 'NONE', ( #306 ), #93, .T. ) ;
#132 = AXIS2_PLACEMENT_3D ( 'NONE', #157, #24, #318 ) ;
#133 = DIRECTION ( 'NONE',  ( -1.224646799147353207E-16, -0.0000000000000000000, -1.000000000000000000 ) ) ;
#134 = CARTESIAN_POINT ( 'NONE',  ( -0.1249999999999999167, 0.0000000000000000000, 0.7507089102274522308 ) ) ;
#135 = DIRECTION ( 'NONE',  ( 1.000000000000000000, 0.0000000000000000000, 0.0000000000000000000 ) ) ;
#136 = CIRCLE ( 'NONE', #156, 0.1250000000000000000 ) ;
#137 = EDGE_CURVE ( 'NONE', #70, #5, #302, .T. ) ;
#138 = CARTESIAN_POINT ( 'NONE',  ( 2.449293598294706769E-18, 0.0000000000000000000, 0.02000000000000000042 ) ) ;
#139 = CIRCLE ( 'NONE', #193, 0.1250000000000000000 ) ;
#140 = DIRECTION ( 'NONE',  ( -1.224646799147353207E-16, -0.0000000000000000000, -1.000000000000000000 ) ) ;
#141 = DIRECTION ( 'NONE',  ( -1.000000000000000000, 0.0000000000000000000, 0.0000000000000000000 ) ) ;
#142 = ORIENTED_EDGE ( 'NONE', *, *, #40, .F. ) ;
#143 = FACE_OUTER_BOUND ( 'NONE', #337, .T. ) ;
#144 = ORIENTED_EDGE ( 'NONE', *, *, #158, .T. ) ;
#145 = AXIS2_PLACEMENT_3D ( 'NONE', #28, #261, #77 ) ;
#146 = DIRECTION ( 'NONE',  ( 0.0000000000000000000, -1.000000000000000000, 0.0000000000000000000 ) ) ;
#147 = ADVANCED_FACE ( 'NONE', ( #23 ), #27, .F. ) ;
#148 = EDGE_LOOP ( 'NONE', ( #149, #127, #281, #270 ) ) ;
#149 = ORIENTED_EDGE ( 'NONE', *, *, #88, .F. ) ;
#150 = DIRECTION ( 'NONE',  ( 1.000000000000000000, 0.0000000000000000000, 0.0000000000000000000 ) ) ;
#151 = DIMENSIONAL_EXPONENTS ( 1.000000000000000000, 0.0000000000000000000, 0.0000000000000000000, 0.0000000000000000000, 0.0000000000000000000, 0.0000000000000000000, 0.0000000000000000000 ) ;
#152 = AXIS2_PLACEMENT_3D ( 'NONE', #322, #347, #111 ) ;
#153 = AXIS2_PLACEMENT_3D ( 'NONE', #46, #128, #200 ) ;
#154 = CARTESIAN_POINT ( 'NONE',  ( -0.1100000000000001948, 0.0000000000000000000, 2.500000000000000000 ) ) ;
#155 = DIRECTION ( 'NONE',  ( 1.000000000000000000, 0.0000000000000000000, -0.0000000000000000000 ) ) ;
#156 = AXIS2_PLACEMENT_3D ( 'NONE', #182, #173, #150 ) ;
#157 = CARTESIAN_POINT ( 'NONE',  ( 0.0000000000000000000, 0.0000000000000000000, 2.500000000000000000 ) ) ;
#158 = EDGE_CURVE ( 'NONE', #5, #70, #232, .T. ) ;
#159 = CARTESIAN_POINT ( 'NONE',  ( 0.1250000000000000000, 1.530808498934191509E-17, 2.500000000000000000 ) ) ;
#160 = EDGE_CURVE ( 'NONE', #5, #335, #263, .T. ) ;
#161 = VECTOR ( 'NONE', #106, 39.37007874015748143 ) ;
#162 = ADVANCED_FACE ( 'NONE', ( #54 ), #265, .T. ) ;
#163 = DIRECTION ( 'NONE',  ( 0.0000000000000000000, 0.0000000000000000000, 1.000000000000000000 ) ) ;
#164 = CARTESIAN_POINT ( 'NONE',  ( 0.1248749999999999999, 1.529277690435257475E-17, 0.02000000000000000389 ) ) ;
#165 = VECTOR ( 'NONE', #272, 39.37007874015748143 ) ;
#166 =( LENGTH_UNIT ( ) NAMED_UNIT ( * ) SI_UNIT ( $, .METRE. ) );
#167 = DIRECTION ( 'NONE',  ( 1.000000000000000000, 0.0000000000000000000, 0.0000000000000000000 ) ) ;
#168 = EDGE_LOOP ( 'NONE', ( #252, #336, #196, #65 ) ) ;
#169 = CARTESIAN_POINT ( 'NONE',  ( 0.1248749999999999999, 1.529277690435257475E-17, -1.529277690435257475E-17 ) ) ;
#170 = DIRECTION ( 'NONE',  ( 1.000000000000000000, 0.0000000000000000000, 0.0000000000000000000 ) ) ;
#171 = VERTEX_POINT ( 'NONE', #74 ) ;
#172 = ADVANCED_FACE ( 'NONE', ( #76 ), #103, .T. ) ;
#173 = DIRECTION ( 'NONE',  ( -1.224646799147353207E-16, -0.0000000000000000000, -1.000000000000000000 ) ) ;
#174 = DIRECTION ( 'NONE',  ( 0.0000000000000000000, 0.0000000000000000000, 1.000000000000000000 ) ) ;
#175 = AXIS2_PLACEMENT_3D ( 'NONE', #195, #163, #4 ) ;
#176 = EDGE_LOOP ( 'NONE', ( #11, #94, #230, #251 ) ) ;
#177 = EDGE_CURVE ( 'NONE', #301, #39, #249, .T. ) ;
#178 = EDGE_LOOP ( 'NONE', ( #197, #305, #227, #223 ) ) ;
#179 = EDGE_LOOP ( 'NONE', ( #308, #310, #276, #43 ) ) ;
#180 = SHAPE_DEFINITION_REPRESENTATION ( #206, #115 ) ;
#181 =( NAMED_UNIT ( * ) PLANE_ANGLE_UNIT ( ) SI_UNIT ( $, .RADIAN. ) );
#182 = CARTESIAN_POINT ( 'NONE',  ( 9.193532640014472135E-17, 0.0000000000000000000, 0.7507089102274522308 ) ) ;
#183 = DIRECTION ( 'NONE',  ( 1.000000000000000000, 0.0000000000000000000, -0.0000000000000000000 ) ) ;
#184 = CONICAL_SURFACE ( 'NONE', #237, 0.1100000000000001948, 0.7853981633974517207 ) ;
#185 = LINE ( 'NONE', #349, #350 ) ;
#186 = PRESENTATION_STYLE_ASSIGNMENT (( #79 ) ) ;
#187 = APPLICATION_CONTEXT ( 'automotive_design' ) ;
#188 = DIRECTION ( 'NONE',  ( 0.0000000000000000000, 0.0000000000000000000, 1.000000000000000000 ) ) ;
#189 = EDGE_CURVE ( 'NONE', #307, #123, #51, .T. ) ;
#190 = AXIS2_PLACEMENT_3D ( 'NONE', #278, #8, #224 ) ;
#191 = CARTESIAN_POINT ( 'NONE',  ( 0.0000000000000000000, 0.0000000000000000000, 2.500000000000000000 ) ) ;
#192 = ORIENTED_EDGE ( 'NONE', *, *, #248, .T. ) ;
#193 = AXIS2_PLACEMENT_3D ( 'NONE', #99, #16, #130 ) ;
#194 = EDGE_LOOP ( 'NONE', ( #142, #144, #282, #246 ) ) ;
#195 = CARTESIAN_POINT ( 'NONE',  ( 2.449293598294706769E-18, 0.0000000000000000000, 0.02000000000000000042 ) ) ;
#196 = ORIENTED_EDGE ( 'NONE', *, *, #316, .T. ) ;
#197 = ORIENTED_EDGE ( 'NONE', *, *, #14, .T. ) ;
#198 = AXIS2_PLACEMENT_3D ( 'NONE', #118, #256, #50 ) ;
#199 = EDGE_CURVE ( 'NONE', #96, #334, #121, .T. ) ;
#200 = DIRECTION ( 'NONE',  ( -1.000000000000000000, 0.0000000000000000000, 0.0000000000000000000 ) ) ;
#201 = AXIS2_PLACEMENT_3D ( 'NONE', #61, #284, #283 ) ;
#202 = ORIENTED_EDGE ( 'NONE', *, *, #189, .F. ) ;
#203 = APPLICATION_CONTEXT ( 'automotive_design' ) ;
#204 = CARTESIAN_POINT ( 'NONE',  ( -0.1248749999999999999, 0.0000000000000000000, 0.02000000000000000389 ) ) ;
#205 = ADVANCED_FACE ( 'NONE', ( #104 ), #326, .T. ) ;
#206 = PRODUCT_DEFINITION_SHAPE ( 'NONE', 'NONE',  #22 ) ;
#207 = CARTESIAN_POINT ( 'NONE',  ( 0.1248750000000000970, 0.0000000000000000000, 0.7500000000000001110 ) ) ;
#208 = ADVANCED_FACE ( 'NONE', ( #20 ), #83, .T. ) ;
#209 = DIRECTION ( 'NONE',  ( -0.0000000000000000000, -0.0000000000000000000, -1.000000000000000000 ) ) ;
#210 = AXIS2_PLACEMENT_3D ( 'NONE', #345, #294, #290 ) ;
#211 = DIRECTION ( 'NONE',  ( -0.1736481776669311083, 2.126576849575782084E-17, 0.9848077530122080203 ) ) ;
#212 = CARTESIAN_POINT ( 'NONE',  ( 0.0000000000000000000, 0.0000000000000000000, 0.0000000000000000000 ) ) ;
#213 = CARTESIAN_POINT ( 'NONE',  ( 2.449293598294707154E-18, 0.0000000000000000000, 0.02000000000000000389 ) ) ;
#214 = CARTESIAN_POINT ( 'NONE',  ( 0.1250000000000000833, 1.530808498934192433E-17, 0.7507089102274522308 ) ) ;
#215 = AXIS2_PLACEMENT_3D ( 'NONE', #38, #250, #35 ) ;
#216 = DIRECTION ( 'NONE',  ( -0.0000000000000000000, -0.0000000000000000000, -1.000000000000000000 ) ) ;
#217 =( LENGTH_UNIT ( ) NAMED_UNIT ( * ) SI_UNIT ( $, .METRE. ) );
#218 = CARTESIAN_POINT ( 'NONE',  ( 9.184850993605150903E-17, 0.0000000000000000000, 0.7500000000000001110 ) ) ;
#219 = LINE ( 'NONE', #169, #84 ) ;
#220 = DIRECTION ( 'NONE',  ( 0.0000000000000000000, 0.0000000000000000000, 1.000000000000000000 ) ) ;
#221 = ORIENTED_EDGE ( 'NONE', *, *, #267, .F. ) ;
#222 = ORIENTED_EDGE ( 'NONE', *, *, #75, .F. ) ;
#223 = ORIENTED_EDGE ( 'NONE', *, *, #226, .F. ) ;
#224 = DIRECTION ( 'NONE',  ( 1.000000000000000000, 0.0000000000000000000, 0.0000000000000000000 ) ) ;
#225 = CARTESIAN_POINT ( 'NONE',  ( 0.1100000000000001948, 1.347111479062090784E-17, 2.500000000000000000 ) ) ;
#226 = EDGE_CURVE ( 'NONE', #34, #254, #289, .T. ) ;
#227 = ORIENTED_EDGE ( 'NONE', *, *, #316, .F. ) ;
#228 = ORIENTED_EDGE ( 'NONE', *, *, #199, .T. ) ;
#229 = EDGE_LOOP ( 'NONE', ( #277, #124 ) ) ;
#230 = ORIENTED_EDGE ( 'NONE', *, *, #75, .T. ) ;
#231 = CARTESIAN_POINT ( 'NONE',  ( 0.1048749999999999960, 0.0000000000000000000, 0.02000000000000000042 ) ) ;
#232 = CIRCLE ( 'NONE', #152, 0.1248749999999999999 ) ;
#233 = AXIS2_PLACEMENT_3D ( 'NONE', #331, #90, #304 ) ;
#234 = DIRECTION ( 'NONE',  ( 1.224646799147353207E-16, 0.0000000000000000000, 1.000000000000000000 ) ) ;
#235 = CARTESIAN_POINT ( 'NONE',  ( 0.0000000000000000000, 0.0000000000000000000, 2.500000000000000000 ) ) ;
#236 = AXIS2_PLACEMENT_3D ( 'NONE', #49, #209, #135 ) ;
#237 = AXIS2_PLACEMENT_3D ( 'NONE', #191, #268, #141 ) ;
#238 = EDGE_CURVE ( 'NONE', #70, #307, #52, .T. ) ;
#239 = CARTESIAN_POINT ( 'NONE',  ( -0.1250000000000000000, 0.0000000000000000000, 2.500000000000000000 ) ) ;
#240 = LINE ( 'NONE', #109, #324 ) ;
#241 =( LENGTH_UNIT ( ) NAMED_UNIT ( * ) SI_UNIT ( $, .METRE. ) );
#242 = DIRECTION ( 'NONE',  ( -0.0000000000000000000, -0.0000000000000000000, -1.000000000000000000 ) ) ;
#243 = CONICAL_SURFACE ( 'NONE', #340, 0.1248749999999999999, 0.1745329251994338082 ) ;
#244 = DIRECTION ( 'NONE',  ( 1.000000000000000000, 0.0000000000000000000, 0.0000000000000000000 ) ) ;
#245 =( NAMED_UNIT ( * ) SI_UNIT ( $, .STERADIAN. ) SOLID_ANGLE_UNIT ( ) );
#246 = ORIENTED_EDGE ( 'NONE', *, *, #189, .T. ) ;
#247 = ORIENTED_EDGE ( 'NONE', *, *, #64, .F. ) ;
#248 = EDGE_CURVE ( 'NONE', #301, #34, #185, .T. ) ;
#249 = CIRCLE ( 'NONE', #210, 0.1100000000000001948 ) ;
#250 = DIRECTION ( 'NONE',  ( 0.0000000000000000000, 0.0000000000000000000, 1.000000000000000000 ) ) ;
#251 = ORIENTED_EDGE ( 'NONE', *, *, #238, .F. ) ;
#252 = ORIENTED_EDGE ( 'NONE', *, *, #137, .F. ) ;
#253 = CARTESIAN_POINT ( 'NONE',  ( 0.1248750000000000970, 0.0000000000000000000, 0.7500000000000001110 ) ) ;
#254 = VERTEX_POINT ( 'NONE', #134 ) ;
#255 = MECHANICAL_DESIGN_GEOMETRIC_PRESENTATION_REPRESENTATION (  '', ( #29 ), #86 ) ;
#256 = DIRECTION ( 'NONE',  ( 0.0000000000000000000, 0.0000000000000000000, -1.000000000000000000 ) ) ;
#257 = EDGE_CURVE ( 'NONE', #70, #254, #240, .T. ) ;
#258 = AXIS2_PLACEMENT_3D ( 'NONE', #218, #60, #105 ) ;
#259 = DIRECTION ( 'NONE',  ( 1.000000000000000000, 0.0000000000000000000, 0.0000000000000000000 ) ) ;
#260 = UNCERTAINTY_MEASURE_WITH_UNIT (LENGTH_MEASURE( 1.000000000000000082E-05 ), #53, 'distance_accuracy_value', 'NONE');
#261 = DIRECTION ( 'NONE',  ( 0.0000000000000000000, 0.0000000000000000000, -1.000000000000000000 ) ) ;
#262 = DIRECTION ( 'NONE',  ( 1.000000000000000000, 0.0000000000000000000, 0.0000000000000000000 ) ) ;
#263 = LINE ( 'NONE', #207, #161 ) ;
#264 =( GEOMETRIC_REPRESENTATION_CONTEXT ( 3 ) GLOBAL_UNCERTAINTY_ASSIGNED_CONTEXT ( ( #107 ) ) GLOBAL_UNIT_ASSIGNED_CONTEXT ( ( #57, #275, #315 ) ) REPRESENTATION_CONTEXT ( 'NONE', 'WORKASPACE' ) );
#265 = PLANE ( 'NONE',  #7 ) ;
#266 =( CONVERSION_BASED_UNIT ( 'INCH', #119 ) LENGTH_UNIT ( ) NAMED_UNIT ( #151 ) );
#267 = EDGE_CURVE ( 'NONE', #171, #335, #325, .T. ) ;
#268 = DIRECTION ( 'NONE',  ( 0.0000000000000000000, 0.0000000000000000000, -1.000000000000000000 ) ) ;
#269 = VECTOR ( 'NONE', #108, 39.37007874015748143 ) ;
#270 = ORIENTED_EDGE ( 'NONE', *, *, #248, .F. ) ;
#271 = EDGE_LOOP ( 'NONE', ( #311, #228 ) ) ;
#272 = DIRECTION ( 'NONE',  ( 0.7071067811865499042, 8.659560562354961208E-17, -0.7071067811865451302 ) ) ;
#273 = FILL_AREA_STYLE_COLOUR ( '', #95 ) ;
#274 = ORIENTED_EDGE ( 'NONE', *, *, #199, .F. ) ;
#275 =( NAMED_UNIT ( * ) PLANE_ANGLE_UNIT ( ) SI_UNIT ( $, .RADIAN. ) );
#276 = ORIENTED_EDGE ( 'NONE', *, *, #160, .T. ) ;
#277 = ORIENTED_EDGE ( 'NONE', *, *, #177, .T. ) ;
#278 = CARTESIAN_POINT ( 'NONE',  ( 0.0000000000000000000, 0.0000000000000000000, 0.0000000000000000000 ) ) ;
#279 = ORIENTED_EDGE ( 'NONE', *, *, #286, .F. ) ;
#280 = ADVANCED_FACE ( 'NONE', ( #116 ), #330, .T. ) ;
#281 = ORIENTED_EDGE ( 'NONE', *, *, #14, .F. ) ;
#282 = ORIENTED_EDGE ( 'NONE', *, *, #238, .T. ) ;
#283 = DIRECTION ( 'NONE',  ( -1.000000000000000000, 0.0000000000000000000, 1.224646799147353454E-16 ) ) ;
#284 = DIRECTION ( 'NONE',  ( -1.224646799147353207E-16, -0.0000000000000000000, -1.000000000000000000 ) ) ;
#285 = AXIS2_PLACEMENT_3D ( 'NONE', #213, #188, #259 ) ;
#286 = EDGE_CURVE ( 'NONE', #171, #34, #139, .T. ) ;
#287 = CYLINDRICAL_SURFACE ( 'NONE', #153, 0.1250000000000000000 ) ;
#288 = ADVANCED_FACE ( 'NONE', ( #125 ), #287, .T. ) ;
#289 = LINE ( 'NONE', #239, #102 ) ;
#290 = DIRECTION ( 'NONE',  ( 1.000000000000000000, 0.0000000000000000000, 0.0000000000000000000 ) ) ;
#291 = AXIS2_PLACEMENT_3D ( 'NONE', #231, #146, #45 ) ;
#292 = DIRECTION ( 'NONE',  ( -0.7071067811865499042, 0.0000000000000000000, -0.7071067811865451302 ) ) ;
#293 = FILL_AREA_STYLE ('',( #319 ) ) ;
#294 = DIRECTION ( 'NONE',  ( 0.0000000000000000000, 0.0000000000000000000, 1.000000000000000000 ) ) ;
#295 = DIRECTION ( 'NONE',  ( -1.000000000000000000, 0.0000000000000000000, 1.224646799147353454E-16 ) ) ;
#296 = ADVANCED_FACE ( 'NONE', ( #42 ), #243, .T. ) ;
#297 = CIRCLE ( 'NONE', #233, 0.01999999999999999001 ) ;
#298 = EDGE_CURVE ( 'NONE', #334, #123, #317, .T. ) ;
#299 = CARTESIAN_POINT ( 'NONE',  ( 0.1048749999999999960, 0.0000000000000000000, 0.0000000000000000000 ) ) ;
#300 = CARTESIAN_POINT ( 'NONE',  ( 9.193532640014472135E-17, 0.0000000000000000000, 0.7507089102274522308 ) ) ;
#301 = VERTEX_POINT ( 'NONE', #154 ) ;
#302 = CIRCLE ( 'NONE', #258, 0.1248749999999999999 ) ;
#303 = STYLED_ITEM ( 'NONE', ( #186 ), #115 ) ;
#304 = DIRECTION ( 'NONE',  ( -1.000000000000000000, 1.224646799147353947E-16, 0.0000000000000000000 ) ) ;
#305 = ORIENTED_EDGE ( 'NONE', *, *, #267, .T. ) ;
#306 = FACE_OUTER_BOUND ( 'NONE', #179, .T. ) ;
#307 = VERTEX_POINT ( 'NONE', #204 ) ;
#308 = ORIENTED_EDGE ( 'NONE', *, *, #257, .F. ) ;
#309 = CARTESIAN_POINT ( 'NONE',  ( 2.449293598294706769E-18, 0.0000000000000000000, 0.0000000000000000000 ) ) ;
#310 = ORIENTED_EDGE ( 'NONE', *, *, #158, .F. ) ;
#311 = ORIENTED_EDGE ( 'NONE', *, *, #64, .T. ) ;
#312 = DIMENSIONAL_EXPONENTS ( 1.000000000000000000, 0.0000000000000000000, 0.0000000000000000000, 0.0000000000000000000, 0.0000000000000000000, 0.0000000000000000000, 0.0000000000000000000 ) ;
#313 =( NAMED_UNIT ( * ) SI_UNIT ( $, .STERADIAN. ) SOLID_ANGLE_UNIT ( ) );
#314 = CARTESIAN_POINT ( 'NONE',  ( 9.184850993605150903E-17, 0.0000000000000000000, 0.7500000000000001110 ) ) ;
#315 =( NAMED_UNIT ( * ) SI_UNIT ( $, .STERADIAN. ) SOLID_ANGLE_UNIT ( ) );
#316 = EDGE_CURVE ( 'NONE', #254, #335, #136, .T. ) ;
#317 = CIRCLE ( 'NONE', #291, 0.02000000000000000042 ) ;
#318 = DIRECTION ( 'NONE',  ( -1.000000000000000000, 0.0000000000000000000, 0.0000000000000000000 ) ) ;
#319 = FILL_AREA_STYLE_COLOUR ( '', #2 ) ;
#320 = DIRECTION ( 'NONE',  ( 0.0000000000000000000, 0.0000000000000000000, 1.000000000000000000 ) ) ;
#321 = ADVANCED_FACE ( 'NONE', ( #19 ), #184, .T. ) ;
#322 = CARTESIAN_POINT ( 'NONE',  ( 9.184850993605150903E-17, 0.0000000000000000000, 0.7500000000000001110 ) ) ;
#323 = SURFACE_SIDE_STYLE ('',( #47 ) ) ;
#324 = VECTOR ( 'NONE', #211, 39.37007874015747433 ) ;
#325 = LINE ( 'NONE', #159, #41 ) ;
#326 = CYLINDRICAL_SURFACE ( 'NONE', #132, 0.1250000000000000000 ) ;
#327 = CLOSED_SHELL ( 'NONE', ( #351, #208, #296, #172, #288, #205, #162, #321, #131, #280, #147, #329 ) ) ;
#328 = FILL_AREA_STYLE ('',( #273 ) ) ;
#329 = ADVANCED_FACE ( 'NONE', ( #1 ), #110, .T. ) ;
#330 = CYLINDRICAL_SURFACE ( 'NONE', #201, 0.1248749999999999999 ) ;
#331 = CARTESIAN_POINT ( 'NONE',  ( -0.1048749999999999960, 1.284348330605786605E-17, 0.02000000000000000042 ) ) ;
#332 = CARTESIAN_POINT ( 'NONE',  ( 2.449293598294707154E-18, 0.0000000000000000000, 0.02000000000000000389 ) ) ;
#333 = ORIENTED_EDGE ( 'NONE', *, *, #177, .F. ) ;
#334 = VERTEX_POINT ( 'NONE', #299 ) ;
#335 = VERTEX_POINT ( 'NONE', #214 ) ;
#336 = ORIENTED_EDGE ( 'NONE', *, *, #257, .T. ) ;
#337 = EDGE_LOOP ( 'NONE', ( #274, #339, #222, #10 ) ) ;
#338 = EDGE_CURVE ( 'NONE', #96, #307, #297, .T. ) ;
#339 = ORIENTED_EDGE ( 'NONE', *, *, #338, .T. ) ;
#340 = AXIS2_PLACEMENT_3D ( 'NONE', #314, #234, #13 ) ;
#341 = DIMENSIONAL_EXPONENTS ( 1.000000000000000000, 0.0000000000000000000, 0.0000000000000000000, 0.0000000000000000000, 0.0000000000000000000, 0.0000000000000000000, 0.0000000000000000000 ) ;
#342 = ORIENTED_EDGE ( 'NONE', *, *, #298, .T. ) ;
#343 = MANIFOLD_SOLID_BREP ( 'Fillet1', #327 ) ;
#344 = PRODUCT_CONTEXT ( 'NONE', #203, 'mechanical' ) ;
#345 = CARTESIAN_POINT ( 'NONE',  ( 0.0000000000000000000, 0.0000000000000000000, 2.500000000000000000 ) ) ;
#346 =( GEOMETRIC_REPRESENTATION_CONTEXT ( 3 ) GLOBAL_UNCERTAINTY_ASSIGNED_CONTEXT ( ( #260 ) ) GLOBAL_UNIT_ASSIGNED_CONTEXT ( ( #53, #181, #313 ) ) REPRESENTATION_CONTEXT ( 'NONE', 'WORKASPACE' ) );
#347 = DIRECTION ( 'NONE',  ( -1.224646799147353207E-16, -0.0000000000000000000, -1.000000000000000000 ) ) ;
#348 = CARTESIAN_POINT ( 'NONE',  ( -0.1248749999999999999, 0.0000000000000000000, 1.529277690435257475E-17 ) ) ;
#349 = CARTESIAN_POINT ( 'NONE',  ( -0.1100000000000001948, 0.0000000000000000000, 2.500000000000000000 ) ) ;
#350 = VECTOR ( 'NONE', #292, 39.37007874015748143 ) ;
#351 = ADVANCED_FACE ( 'NONE', ( #143 ), #18, .T. ) ;
ENDSEC;
END-ISO-10303-21;
