ISO-10303-21;
HEADER;
FILE_DESCRIPTION (( 'STEP AP214' ),
    '1' );
FILE_NAME ('59942.STEP',
    '2023-06-23T00:08:54',
    ( '' ),
    ( '' ),
    'SwSTEP 2.0',
    'SolidWorks 2023',
    '' );
FILE_SCHEMA (( 'AUTOMOTIVE_DESIGN' ));
ENDSEC;

DATA;
#1 = CARTESIAN_POINT ( 'NONE',  ( 2.296212748401287726E-17, 0.000000000000000000, 0.1875000000000000278 ) ) ;
#2 = COLOUR_RGB ( '',0.7921568627450980005, 0.8196078431372548767, 0.9333333333333333481 ) ;
#3 =( GEOMETRIC_REPRESENTATION_CONTEXT ( 3 ) GLOBAL_UNCERTAINTY_ASSIGNED_CONTEXT ( ( #161 ) ) GLOBAL_UNIT_ASSIGNED_CONTEXT ( ( #88, #147, #116 ) ) REPRESENTATION_CONTEXT ( 'NONE', 'WORKASPACE' ) );
#4 = DIRECTION ( 'NONE',  ( 4.082155997157844435E-17, 1.000000000000000000, -0.000000000000000000 ) ) ;
#5 = DIRECTION ( 'NONE',  ( -1.000000000000000000, 0.000000000000000000, 0.000000000000000000 ) ) ;
#6 = CARTESIAN_POINT ( 'NONE',  ( 0.000000000000000000, 0.000000000000000000, 0.000000000000000000 ) ) ;
#7 = FILL_AREA_STYLE_COLOUR ( '', #2 ) ;
#8 = PRESENTATION_LAYER_ASSIGNMENT (  '', '', ( #50 ) ) ;
#9 = MECHANICAL_DESIGN_GEOMETRIC_PRESENTATION_REPRESENTATION (  '', ( #23 ), #108 ) ;
#10 = FACE_OUTER_BOUND ( 'NONE', #189, .T. ) ;
#11 = UNCERTAINTY_MEASURE_WITH_UNIT (LENGTH_MEASURE( 1.000000000000000082E-05 ), #278, 'distance_accuracy_value', 'NONE');
#12 =( NAMED_UNIT ( * ) SI_UNIT ( $, .STERADIAN. ) SOLID_ANGLE_UNIT ( ) );
#13 = FILL_AREA_STYLE ('',( #194 ) ) ;
#14 =( NAMED_UNIT ( * ) PLANE_ANGLE_UNIT ( ) SI_UNIT ( $, .RADIAN. ) );
#15 = ADVANCED_FACE ( 'NONE', ( #171 ), #258, .T. ) ;
#16 = SURFACE_SIDE_STYLE ('',( #90 ) ) ;
#17 = VERTEX_POINT ( 'NONE', #19 ) ;
#18 = DIRECTION ( 'NONE',  ( 4.082155997157844435E-17, 1.000000000000000000, -0.000000000000000000 ) ) ;
#19 = CARTESIAN_POINT ( 'NONE',  ( 2.296212748401287726E-17, 0.5000000000000000000, 0.1875000000000000278 ) ) ;
#20 = DIRECTION ( 'NONE',  ( 0.000000000000000000, 0.000000000000000000, -1.000000000000000000 ) ) ;
#21 = ORIENTED_EDGE ( 'NONE', *, *, #190, .F. ) ;
#22 = DIMENSIONAL_EXPONENTS ( 1.000000000000000000, 0.000000000000000000, 0.000000000000000000, 0.000000000000000000, 0.000000000000000000, 0.000000000000000000, 0.000000000000000000 ) ;
#23 = STYLED_ITEM ( 'NONE', ( #149 ), #58 ) ;
#24 = PLANE ( 'NONE',  #43 ) ;
#25 = FILL_AREA_STYLE_COLOUR ( '', #288 ) ;
#26 =( CONVERSION_BASED_UNIT ( 'INCH', #306 ) LENGTH_UNIT ( ) NAMED_UNIT ( #46 ) );
#27 =( NAMED_UNIT ( * ) PLANE_ANGLE_UNIT ( ) SI_UNIT ( $, .RADIAN. ) );
#28 = STYLED_ITEM ( 'NONE', ( #276 ), #259 ) ;
#29 =( NAMED_UNIT ( * ) SI_UNIT ( $, .STERADIAN. ) SOLID_ANGLE_UNIT ( ) );
#30 = LINE ( 'NONE', #1, #137 ) ;
#31 = SURFACE_STYLE_FILL_AREA ( #287 ) ;
#32 =( NAMED_UNIT ( * ) SI_UNIT ( $, .STERADIAN. ) SOLID_ANGLE_UNIT ( ) );
#33 = PRESENTATION_STYLE_ASSIGNMENT (( #135 ) ) ;
#34 = LINE ( 'NONE', #290, #281 ) ;
#35 = VECTOR ( 'NONE', #54, 39.37007874015748143 ) ;
#36 = AXIS2_PLACEMENT_3D ( 'NONE', #82, #163, #5 ) ;
#37 = CARTESIAN_POINT ( 'NONE',  ( 1.562249773606102102E-34, 0.5000000000000000000, 0.000000000000000000 ) ) ;
#38 =( LENGTH_UNIT ( ) NAMED_UNIT ( * ) SI_UNIT ( $, .METRE. ) );
#39 = SURFACE_SIDE_STYLE ('',( #143 ) ) ;
#40 = EDGE_LOOP ( 'NONE', ( #300, #42, #117, #21 ) ) ;
#41 = CARTESIAN_POINT ( 'NONE',  ( 0.000000000000000000, 0.5000000000000000000, 0.000000000000000000 ) ) ;
#42 = ORIENTED_EDGE ( 'NONE', *, *, #197, .T. ) ;
#43 = AXIS2_PLACEMENT_3D ( 'NONE', #128, #74, #262 ) ;
#44 = CIRCLE ( 'NONE', #36, 0.1874999999999999445 ) ;
#45 = DIRECTION ( 'NONE',  ( -1.000000000000000000, 0.000000000000000000, 0.000000000000000000 ) ) ;
#46 = DIMENSIONAL_EXPONENTS ( 1.000000000000000000, 0.000000000000000000, 0.000000000000000000, 0.000000000000000000, 0.000000000000000000, 0.000000000000000000, 0.000000000000000000 ) ;
#47 = FILL_AREA_STYLE ('',( #232 ) ) ;
#48 = ORIENTED_EDGE ( 'NONE', *, *, #177, .T. ) ;
#49 = PRESENTATION_STYLE_ASSIGNMENT (( #180 ) ) ;
#50 = STYLED_ITEM ( 'NONE', ( #33 ), #162 ) ;
#51 = AXIS2_PLACEMENT_3D ( 'NONE', #41, #210, #170 ) ;
#52 =( LENGTH_UNIT ( ) NAMED_UNIT ( * ) SI_UNIT ( $, .METRE. ) );
#53 =( CONVERSION_BASED_UNIT ( 'INCH', #129 ) LENGTH_UNIT ( ) NAMED_UNIT ( #139 ) );
#54 = DIRECTION ( 'NONE',  ( 4.082155997157844435E-17, 1.000000000000000000, -0.000000000000000000 ) ) ;
#55 = AXIS2_PLACEMENT_3D ( 'NONE', #6, #295, #204 ) ;
#56 = SURFACE_STYLE_FILL_AREA ( #160 ) ;
#57 = AXIS2_PLACEMENT_3D ( 'NONE', #37, #18, #216 ) ;
#58 = ADVANCED_FACE ( 'NONE', ( #148 ), #123, .T. ) ;
#59 = DIRECTION ( 'NONE',  ( 0.000000000000000000, 0.000000000000000000, -1.000000000000000000 ) ) ;
#60 = LENGTH_MEASURE_WITH_UNIT ( LENGTH_MEASURE( 0.02539999999999999897 ), #244 );
#61 = MECHANICAL_DESIGN_GEOMETRIC_PRESENTATION_REPRESENTATION (  '', ( #50 ), #76 ) ;
#62 = CIRCLE ( 'NONE', #245, 0.1875000000000000278 ) ;
#63 = ORIENTED_EDGE ( 'NONE', *, *, #299, .F. ) ;
#64 =( NAMED_UNIT ( * ) PLANE_ANGLE_UNIT ( ) SI_UNIT ( $, .RADIAN. ) );
#65 = EDGE_LOOP ( 'NONE', ( #92, #63 ) ) ;
#66 =( GEOMETRIC_REPRESENTATION_CONTEXT ( 3 ) GLOBAL_UNCERTAINTY_ASSIGNED_CONTEXT ( ( #124 ) ) GLOBAL_UNIT_ASSIGNED_CONTEXT ( ( #53, #27, #29 ) ) REPRESENTATION_CONTEXT ( 'NONE', 'WORKASPACE' ) );
#67 = DIRECTION ( 'NONE',  ( 0.000000000000000000, -1.000000000000000000, -0.000000000000000000 ) ) ;
#68 = SURFACE_STYLE_FILL_AREA ( #13 ) ;
#69 = DIRECTION ( 'NONE',  ( -0.000000000000000000, -1.000000000000000000, -0.000000000000000000 ) ) ;
#70 = EDGE_CURVE ( 'NONE', #125, #115, #100, .T. ) ;
#71 = AXIS2_PLACEMENT_3D ( 'NONE', #114, #67, #250 ) ;
#72 = DIRECTION ( 'NONE',  ( 4.082155997157844435E-17, 1.000000000000000000, -0.000000000000000000 ) ) ;
#73 = CARTESIAN_POINT ( 'NONE',  ( 0.000000000000000000, 0.000000000000000000, 0.000000000000000000 ) ) ;
#74 = DIRECTION ( 'NONE',  ( -4.082155997157844435E-17, -1.000000000000000000, 0.000000000000000000 ) ) ;
#75 = PRODUCT_DEFINITION_SHAPE ( 'NONE', 'NONE',  #138 ) ;
#76 =( GEOMETRIC_REPRESENTATION_CONTEXT ( 3 ) GLOBAL_UNCERTAINTY_ASSIGNED_CONTEXT ( ( #89 ) ) GLOBAL_UNIT_ASSIGNED_CONTEXT ( ( #229, #109, #110 ) ) REPRESENTATION_CONTEXT ( 'NONE', 'WORKASPACE' ) );
#77 = COLOUR_RGB ( '',1.000000000000000000, 0.000000000000000000, 0.000000000000000000 ) ;
#78 = CARTESIAN_POINT ( 'NONE',  ( 0.000000000000000000, 0.000000000000000000, 0.000000000000000000 ) ) ;
#79 = PRODUCT_RELATED_PRODUCT_CATEGORY ( 'part', '', ( #81 ) ) ;
#80 = SHAPE_DEFINITION_REPRESENTATION ( #75, #228 ) ;
#81 = PRODUCT ( '59942', '59942', '', ( #226 ) ) ;
#82 = CARTESIAN_POINT ( 'NONE',  ( 6.123233995736766036E-17, 2.000000000000000000, 0.000000000000000000 ) ) ;
#83 = DIRECTION ( 'NONE',  ( -1.000000000000000000, 0.000000000000000000, 0.000000000000000000 ) ) ;
#84 =( LENGTH_UNIT ( ) NAMED_UNIT ( * ) SI_UNIT ( $, .METRE. ) );
#85 = UNCERTAINTY_MEASURE_WITH_UNIT (LENGTH_MEASURE( 1.000000000000000082E-05 ), #134, 'distance_accuracy_value', 'NONE');
#86 = APPLICATION_PROTOCOL_DEFINITION ( 'draft international standard', 'automotive_design', 1998, #269 ) ;
#87 = COLOUR_RGB ( '',1.000000000000000000, 0.000000000000000000, 0.000000000000000000 ) ;
#88 =( CONVERSION_BASED_UNIT ( 'INCH', #294 ) LENGTH_UNIT ( ) NAMED_UNIT ( #127 ) );
#89 = UNCERTAINTY_MEASURE_WITH_UNIT (LENGTH_MEASURE( 1.000000000000000082E-05 ), #229, 'distance_accuracy_value', 'NONE');
#90 = SURFACE_STYLE_FILL_AREA ( #296 ) ;
#91 = CIRCLE ( 'NONE', #211, 0.1875000000000000278 ) ;
#92 = ORIENTED_EDGE ( 'NONE', *, *, #132, .F. ) ;
#93 =( NAMED_UNIT ( * ) SI_UNIT ( $, .STERADIAN. ) SOLID_ANGLE_UNIT ( ) );
#94 = VERTEX_POINT ( 'NONE', #309 ) ;
#95 = ADVANCED_FACE ( 'NONE', ( #130 ), #222, .T. ) ;
#96 = DIMENSIONAL_EXPONENTS ( 1.000000000000000000, 0.000000000000000000, 0.000000000000000000, 0.000000000000000000, 0.000000000000000000, 0.000000000000000000, 0.000000000000000000 ) ;
#97 = CARTESIAN_POINT ( 'NONE',  ( 6.123233995736766036E-17, 2.000000000000000000, 0.000000000000000000 ) ) ;
#98 = AXIS2_PLACEMENT_3D ( 'NONE', #73, #220, #201 ) ;
#99 = DIRECTION ( 'NONE',  ( -0.000000000000000000, -1.000000000000000000, -0.000000000000000000 ) ) ;
#100 = LINE ( 'NONE', #284, #35 ) ;
#101 = EDGE_CURVE ( 'NONE', #282, #94, #236, .T. ) ;
#102 =( NAMED_UNIT ( * ) PLANE_ANGLE_UNIT ( ) SI_UNIT ( $, .RADIAN. ) );
#103 = AXIS2_PLACEMENT_3D ( 'NONE', #131, #105, #285 ) ;
#104 = FILL_AREA_STYLE ('',( #25 ) ) ;
#105 = DIRECTION ( 'NONE',  ( 4.082155997157844435E-17, 1.000000000000000000, -0.000000000000000000 ) ) ;
#106 = EDGE_CURVE ( 'NONE', #125, #297, #136, .T. ) ;
#107 = DIRECTION ( 'NONE',  ( -0.000000000000000000, -1.000000000000000000, -0.000000000000000000 ) ) ;
#108 =( GEOMETRIC_REPRESENTATION_CONTEXT ( 3 ) GLOBAL_UNCERTAINTY_ASSIGNED_CONTEXT ( ( #240 ) ) GLOBAL_UNIT_ASSIGNED_CONTEXT ( ( #26, #102, #179 ) ) REPRESENTATION_CONTEXT ( 'NONE', 'WORKASPACE' ) );
#109 =( NAMED_UNIT ( * ) PLANE_ANGLE_UNIT ( ) SI_UNIT ( $, .RADIAN. ) );
#110 =( NAMED_UNIT ( * ) SI_UNIT ( $, .STERADIAN. ) SOLID_ANGLE_UNIT ( ) );
#111 = EDGE_CURVE ( 'NONE', #168, #94, #286, .T. ) ;
#112 = SURFACE_SIDE_STYLE ('',( #31 ) ) ;
#113 = SURFACE_SIDE_STYLE ('',( #56 ) ) ;
#114 = CARTESIAN_POINT ( 'NONE',  ( 0.000000000000000000, 0.000000000000000000, 0.000000000000000000 ) ) ;
#115 = VERTEX_POINT ( 'NONE', #150 ) ;
#116 =( NAMED_UNIT ( * ) SI_UNIT ( $, .STERADIAN. ) SOLID_ANGLE_UNIT ( ) );
#117 = ORIENTED_EDGE ( 'NONE', *, *, #70, .T. ) ;
#118 = CLOSED_SHELL ( 'NONE', ( #95, #227, #15, #122 ) ) ;
#119 = AXIS2_PLACEMENT_3D ( 'NONE', #183, #202, #83 ) ;
#120 =( CONVERSION_BASED_UNIT ( 'INCH', #174 ) LENGTH_UNIT ( ) NAMED_UNIT ( #212 ) );
#121 = ORIENTED_EDGE ( 'NONE', *, *, #185, .T. ) ;
#122 = ADVANCED_FACE ( 'NONE', ( #153 ), #24, .F. ) ;
#123 = CYLINDRICAL_SURFACE ( 'NONE', #98, 0.1875000000000000278 ) ;
#124 = UNCERTAINTY_MEASURE_WITH_UNIT (LENGTH_MEASURE( 1.000000000000000082E-05 ), #53, 'distance_accuracy_value', 'NONE');
#125 = VERTEX_POINT ( 'NONE', #241 ) ;
#126 = PRESENTATION_LAYER_ASSIGNMENT (  '', '', ( #165 ) ) ;
#127 = DIMENSIONAL_EXPONENTS ( 1.000000000000000000, 0.000000000000000000, 0.000000000000000000, 0.000000000000000000, 0.000000000000000000, 0.000000000000000000, 0.000000000000000000 ) ;
#128 = CARTESIAN_POINT ( 'NONE',  ( 0.1875000000000000278, 2.000000000000000000, 0.000000000000000000 ) ) ;
#129 = LENGTH_MEASURE_WITH_UNIT ( LENGTH_MEASURE( 0.02539999999999999897 ), #52 );
#130 = FACE_OUTER_BOUND ( 'NONE', #213, .T. ) ;
#131 = CARTESIAN_POINT ( 'NONE',  ( 0.000000000000000000, 0.5000000000000001110, 0.000000000000000000 ) ) ;
#132 = EDGE_CURVE ( 'NONE', #168, #17, #256, .T. ) ;
#133 = DIRECTION ( 'NONE',  ( -0.000000000000000000, -1.000000000000000000, -0.000000000000000000 ) ) ;
#134 =( CONVERSION_BASED_UNIT ( 'INCH', #283 ) LENGTH_UNIT ( ) NAMED_UNIT ( #96 ) );
#135 = SURFACE_STYLE_USAGE ( .BOTH. , #113 ) ;
#136 = CIRCLE ( 'NONE', #103, 0.1875000000000000278 ) ;
#137 = VECTOR ( 'NONE', #231, 39.37007874015748143 ) ;
#138 = PRODUCT_DEFINITION ( 'UNKNOWN', '', #304, #186 ) ;
#139 = DIMENSIONAL_EXPONENTS ( 1.000000000000000000, 0.000000000000000000, 0.000000000000000000, 0.000000000000000000, 0.000000000000000000, 0.000000000000000000, 0.000000000000000000 ) ;
#140 = FACE_OUTER_BOUND ( 'NONE', #298, .T. ) ;
#141 = ORIENTED_EDGE ( 'NONE', *, *, #111, .F. ) ;
#142 = ORIENTED_EDGE ( 'NONE', *, *, #101, .F. ) ;
#143 = SURFACE_STYLE_FILL_AREA ( #47 ) ;
#144 = DIRECTION ( 'NONE',  ( 4.082155997157844435E-17, 1.000000000000000000, -0.000000000000000000 ) ) ;
#145 = PRESENTATION_LAYER_ASSIGNMENT (  '', '', ( #303 ) ) ;
#146 = MECHANICAL_DESIGN_GEOMETRIC_PRESENTATION_REPRESENTATION (  '', ( #249 ), #3 ) ;
#147 =( NAMED_UNIT ( * ) PLANE_ANGLE_UNIT ( ) SI_UNIT ( $, .RADIAN. ) );
#148 = FACE_OUTER_BOUND ( 'NONE', #217, .T. ) ;
#149 = PRESENTATION_STYLE_ASSIGNMENT (( #260 ) ) ;
#150 = CARTESIAN_POINT ( 'NONE',  ( -0.1874999999999998890, 2.000000000000000000, 0.000000000000000000 ) ) ;
#151 = VECTOR ( 'NONE', #223, 39.37007874015748143 ) ;
#152 = APPLICATION_CONTEXT ( 'automotive_design' ) ;
#153 = FACE_OUTER_BOUND ( 'NONE', #218, .T. ) ;
#154 = CARTESIAN_POINT ( 'NONE',  ( 0.000000000000000000, 0.000000000000000000, -0.1875000000000000278 ) ) ;
#155 = ADVANCED_FACE ( 'NONE', ( #198 ), #243, .T. ) ;
#156 = CARTESIAN_POINT ( 'NONE',  ( 0.000000000000000000, 0.000000000000000000, 0.000000000000000000 ) ) ;
#157 = EDGE_CURVE ( 'NONE', #297, #237, #34, .T. ) ;
#158 = DIRECTION ( 'NONE',  ( 4.082155997157844435E-17, 1.000000000000000000, -0.000000000000000000 ) ) ;
#159 = COLOUR_RGB ( '',1.000000000000000000, 0.000000000000000000, 0.000000000000000000 ) ;
#160 = FILL_AREA_STYLE ('',( #7 ) ) ;
#161 = UNCERTAINTY_MEASURE_WITH_UNIT (LENGTH_MEASURE( 1.000000000000000082E-05 ), #88, 'distance_accuracy_value', 'NONE');
#162 = MANIFOLD_SOLID_BREP ( 'Revolve - Cutting Edge', #292 ) ;
#163 = DIRECTION ( 'NONE',  ( 4.082155997157844435E-17, 1.000000000000000000, -0.000000000000000000 ) ) ;
#164 = LENGTH_MEASURE_WITH_UNIT ( LENGTH_MEASURE( 0.02539999999999999897 ), #254 );
#165 = STYLED_ITEM ( 'NONE', ( #272 ), #252 ) ;
#166 = DIMENSIONAL_EXPONENTS ( 1.000000000000000000, 0.000000000000000000, 0.000000000000000000, 0.000000000000000000, 0.000000000000000000, 0.000000000000000000, 0.000000000000000000 ) ;
#167 = SURFACE_STYLE_USAGE ( .BOTH. , #16 ) ;
#168 = VERTEX_POINT ( 'NONE', #248 ) ;
#169 = EDGE_CURVE ( 'NONE', #17, #282, #30, .T. ) ;
#170 = DIRECTION ( 'NONE',  ( 0.000000000000000000, -0.000000000000000000, 1.000000000000000000 ) ) ;
#171 = FACE_OUTER_BOUND ( 'NONE', #40, .T. ) ;
#172 = ORIENTED_EDGE ( 'NONE', *, *, #197, .F. ) ;
#173 = MECHANICAL_DESIGN_GEOMETRIC_PRESENTATION_REPRESENTATION (  '', ( #165 ), #182 ) ;
#174 = LENGTH_MEASURE_WITH_UNIT ( LENGTH_MEASURE( 0.02539999999999999897 ), #233 );
#175 = SURFACE_SIDE_STYLE ('',( #68 ) ) ;
#176 =( LENGTH_UNIT ( ) NAMED_UNIT ( * ) SI_UNIT ( $, .METRE. ) );
#177 = EDGE_CURVE ( 'NONE', #94, #282, #91, .T. ) ;
#178 = CARTESIAN_POINT ( 'NONE',  ( 0.000000000000000000, 0.5000000000000000000, 0.000000000000000000 ) ) ;
#179 =( NAMED_UNIT ( * ) SI_UNIT ( $, .STERADIAN. ) SOLID_ANGLE_UNIT ( ) );
#180 = SURFACE_STYLE_USAGE ( .BOTH. , #181 ) ;
#181 = SURFACE_SIDE_STYLE ('',( #265 ) ) ;
#182 =( GEOMETRIC_REPRESENTATION_CONTEXT ( 3 ) GLOBAL_UNCERTAINTY_ASSIGNED_CONTEXT ( ( #11 ) ) GLOBAL_UNIT_ASSIGNED_CONTEXT ( ( #278, #64, #12 ) ) REPRESENTATION_CONTEXT ( 'NONE', 'WORKASPACE' ) );
#183 = CARTESIAN_POINT ( 'NONE',  ( 6.123233995736766036E-17, 2.000000000000000000, 0.000000000000000000 ) ) ;
#184 = CARTESIAN_POINT ( 'NONE',  ( 0.000000000000000000, 0.5000000000000001110, 0.000000000000000000 ) ) ;
#185 = EDGE_CURVE ( 'NONE', #115, #237, #44, .T. ) ;
#186 = PRODUCT_DEFINITION_CONTEXT ( 'detailed design', #152, 'design' ) ;
#187 = SURFACE_STYLE_USAGE ( .BOTH. , #39 ) ;
#188 = AXIS2_PLACEMENT_3D ( 'NONE', #221, #72, #307 ) ;
#189 = EDGE_LOOP ( 'NONE', ( #255, #172 ) ) ;
#190 = EDGE_CURVE ( 'NONE', #237, #115, #293, .T. ) ;
#191 = PLANE ( 'NONE',  #71 ) ;
#192 = ORIENTED_EDGE ( 'NONE', *, *, #169, .T. ) ;
#193 = EDGE_LOOP ( 'NONE', ( #253, #192, #279, #141 ) ) ;
#194 = FILL_AREA_STYLE_COLOUR ( '', #159 ) ;
#195 = AXIS2_PLACEMENT_3D ( 'NONE', #156, #107, #59 ) ;
#196 = PRESENTATION_LAYER_ASSIGNMENT (  '', '', ( #249 ) ) ;
#197 = EDGE_CURVE ( 'NONE', #297, #125, #219, .T. ) ;
#198 = FACE_OUTER_BOUND ( 'NONE', #193, .T. ) ;
#199 = DIRECTION ( 'NONE',  ( 0.000000000000000000, 0.000000000000000000, -1.000000000000000000 ) ) ;
#200 = ADVANCED_FACE ( 'NONE', ( #268 ), #267, .T. ) ;
#201 = DIRECTION ( 'NONE',  ( 0.000000000000000000, 0.000000000000000000, -1.000000000000000000 ) ) ;
#202 = DIRECTION ( 'NONE',  ( 4.082155997157844435E-17, 1.000000000000000000, -0.000000000000000000 ) ) ;
#203 = AXIS2_PLACEMENT_3D ( 'NONE', #184, #4, #225 ) ;
#204 = DIRECTION ( 'NONE',  ( 1.000000000000000000, 0.000000000000000000, 0.000000000000000000 ) ) ;
#205 = DIRECTION ( 'NONE',  ( 0.000000000000000000, 0.000000000000000000, -1.000000000000000000 ) ) ;
#206 = MECHANICAL_DESIGN_GEOMETRIC_PRESENTATION_REPRESENTATION (  '', ( #303 ), #66 ) ;
#207 =( GEOMETRIC_REPRESENTATION_CONTEXT ( 3 ) GLOBAL_UNCERTAINTY_ASSIGNED_CONTEXT ( ( #273 ) ) GLOBAL_UNIT_ASSIGNED_CONTEXT ( ( #120, #14, #93 ) ) REPRESENTATION_CONTEXT ( 'NONE', 'WORKASPACE' ) );
#208 = PRESENTATION_STYLE_ASSIGNMENT (( #291 ) ) ;
#209 = ORIENTED_EDGE ( 'NONE', *, *, #190, .T. ) ;
#210 = DIRECTION ( 'NONE',  ( 0.000000000000000000, 1.000000000000000000, 0.000000000000000000 ) ) ;
#211 = AXIS2_PLACEMENT_3D ( 'NONE', #78, #133, #205 ) ;
#212 = DIMENSIONAL_EXPONENTS ( 1.000000000000000000, 0.000000000000000000, 0.000000000000000000, 0.000000000000000000, 0.000000000000000000, 0.000000000000000000, 0.000000000000000000 ) ;
#213 = EDGE_LOOP ( 'NONE', ( #274, #302, #234, #215 ) ) ;
#214 = PLANE ( 'NONE',  #57 ) ;
#215 = ORIENTED_EDGE ( 'NONE', *, *, #70, .F. ) ;
#216 = DIRECTION ( 'NONE',  ( -1.000000000000000000, 4.082155997157844435E-17, 0.000000000000000000 ) ) ;
#217 = EDGE_LOOP ( 'NONE', ( #251, #238, #277, #142 ) ) ;
#218 = EDGE_LOOP ( 'NONE', ( #121, #209 ) ) ;
#219 = CIRCLE ( 'NONE', #203, 0.1875000000000000278 ) ;
#220 = DIRECTION ( 'NONE',  ( -0.000000000000000000, -1.000000000000000000, -0.000000000000000000 ) ) ;
#221 = CARTESIAN_POINT ( 'NONE',  ( 6.123233995736766036E-17, 2.000000000000000000, 0.000000000000000000 ) ) ;
#222 = CYLINDRICAL_SURFACE ( 'NONE', #188, 0.1874999999999999722 ) ;
#223 = DIRECTION ( 'NONE',  ( -0.000000000000000000, -1.000000000000000000, -0.000000000000000000 ) ) ;
#224 =( GEOMETRIC_REPRESENTATION_CONTEXT ( 3 ) GLOBAL_UNCERTAINTY_ASSIGNED_CONTEXT ( ( #85 ) ) GLOBAL_UNIT_ASSIGNED_CONTEXT ( ( #134, #271, #32 ) ) REPRESENTATION_CONTEXT ( 'NONE', 'WORKASPACE' ) );
#225 = DIRECTION ( 'NONE',  ( -1.000000000000000000, 0.000000000000000000, 0.000000000000000000 ) ) ;
#226 = PRODUCT_CONTEXT ( 'NONE', #269, 'mechanical' ) ;
#227 = ADVANCED_FACE ( 'NONE', ( #10 ), #214, .F. ) ;
#228 = ADVANCED_BREP_SHAPE_REPRESENTATION ( '59942', ( #162, #259, #55 ), #224 ) ;
#229 =( CONVERSION_BASED_UNIT ( 'INCH', #60 ) LENGTH_UNIT ( ) NAMED_UNIT ( #22 ) );
#230 = AXIS2_PLACEMENT_3D ( 'NONE', #97, #144, #45 ) ;
#231 = DIRECTION ( 'NONE',  ( -0.000000000000000000, -1.000000000000000000, -0.000000000000000000 ) ) ;
#232 = FILL_AREA_STYLE_COLOUR ( '', #87 ) ;
#233 =( LENGTH_UNIT ( ) NAMED_UNIT ( * ) SI_UNIT ( $, .METRE. ) );
#234 = ORIENTED_EDGE ( 'NONE', *, *, #185, .F. ) ;
#235 = FILL_AREA_STYLE_COLOUR ( '', #264 ) ;
#236 = CIRCLE ( 'NONE', #266, 0.1875000000000000278 ) ;
#237 = VERTEX_POINT ( 'NONE', #280 ) ;
#238 = ORIENTED_EDGE ( 'NONE', *, *, #299, .T. ) ;
#239 = CARTESIAN_POINT ( 'NONE',  ( 0.000000000000000000, 0.5000000000000000000, 0.000000000000000000 ) ) ;
#240 = UNCERTAINTY_MEASURE_WITH_UNIT (LENGTH_MEASURE( 1.000000000000000082E-05 ), #26, 'distance_accuracy_value', 'NONE');
#241 = CARTESIAN_POINT ( 'NONE',  ( -0.1875000000000000278, 0.5000000000000001110, 0.000000000000000000 ) ) ;
#242 = DIRECTION ( 'NONE',  ( 0.000000000000000000, 0.000000000000000000, -1.000000000000000000 ) ) ;
#243 = CYLINDRICAL_SURFACE ( 'NONE', #195, 0.1875000000000000278 ) ;
#244 =( LENGTH_UNIT ( ) NAMED_UNIT ( * ) SI_UNIT ( $, .METRE. ) );
#245 = AXIS2_PLACEMENT_3D ( 'NONE', #239, #99, #20 ) ;
#246 = FILL_AREA_STYLE_COLOUR ( '', #77 ) ;
#247 = APPLICATION_PROTOCOL_DEFINITION ( 'draft international standard', 'automotive_design', 1998, #152 ) ;
#248 = CARTESIAN_POINT ( 'NONE',  ( 0.000000000000000000, 0.5000000000000000000, -0.1875000000000000278 ) ) ;
#249 = STYLED_ITEM ( 'NONE', ( #208 ), #200 ) ;
#250 = DIRECTION ( 'NONE',  ( 0.000000000000000000, 0.000000000000000000, -1.000000000000000000 ) ) ;
#251 = ORIENTED_EDGE ( 'NONE', *, *, #169, .F. ) ;
#252 = ADVANCED_FACE ( 'NONE', ( #140 ), #191, .T. ) ;
#253 = ORIENTED_EDGE ( 'NONE', *, *, #132, .T. ) ;
#254 =( LENGTH_UNIT ( ) NAMED_UNIT ( * ) SI_UNIT ( $, .METRE. ) );
#255 = ORIENTED_EDGE ( 'NONE', *, *, #106, .F. ) ;
#256 = CIRCLE ( 'NONE', #270, 0.1875000000000000278 ) ;
#257 = PRESENTATION_LAYER_ASSIGNMENT (  '', '', ( #28 ) ) ;
#258 = CYLINDRICAL_SURFACE ( 'NONE', #230, 0.1874999999999999722 ) ;
#259 = MANIFOLD_SOLID_BREP ( 'Revolve - Tool Body (Straight Shanked)', #118 ) ;
#260 = SURFACE_STYLE_USAGE ( .BOTH. , #175 ) ;
#261 = CARTESIAN_POINT ( 'NONE',  ( 0.1875000000000000278, 0.5000000000000001110, 2.296212748401287109E-17 ) ) ;
#262 = DIRECTION ( 'NONE',  ( 1.000000000000000000, -4.082155997157844435E-17, 0.000000000000000000 ) ) ;
#263 = DIRECTION ( 'NONE',  ( -0.000000000000000000, -1.000000000000000000, -0.000000000000000000 ) ) ;
#264 = COLOUR_RGB ( '',0.7921568627450980005, 0.8196078431372548767, 0.9333333333333333481 ) ;
#265 = SURFACE_STYLE_FILL_AREA ( #104 ) ;
#266 = AXIS2_PLACEMENT_3D ( 'NONE', #308, #69, #242 ) ;
#267 = PLANE ( 'NONE',  #51 ) ;
#268 = FACE_OUTER_BOUND ( 'NONE', #65, .T. ) ;
#269 = APPLICATION_CONTEXT ( 'automotive_design' ) ;
#270 = AXIS2_PLACEMENT_3D ( 'NONE', #178, #263, #199 ) ;
#271 =( NAMED_UNIT ( * ) PLANE_ANGLE_UNIT ( ) SI_UNIT ( $, .RADIAN. ) );
#272 = PRESENTATION_STYLE_ASSIGNMENT (( #187 ) ) ;
#273 = UNCERTAINTY_MEASURE_WITH_UNIT (LENGTH_MEASURE( 1.000000000000000082E-05 ), #120, 'distance_accuracy_value', 'NONE');
#274 = ORIENTED_EDGE ( 'NONE', *, *, #106, .T. ) ;
#275 = PRESENTATION_LAYER_ASSIGNMENT (  '', '', ( #23 ) ) ;
#276 = PRESENTATION_STYLE_ASSIGNMENT (( #167 ) ) ;
#277 = ORIENTED_EDGE ( 'NONE', *, *, #111, .T. ) ;
#278 =( CONVERSION_BASED_UNIT ( 'INCH', #164 ) LENGTH_UNIT ( ) NAMED_UNIT ( #166 ) );
#279 = ORIENTED_EDGE ( 'NONE', *, *, #177, .F. ) ;
#280 = CARTESIAN_POINT ( 'NONE',  ( 0.1875000000000000278, 2.000000000000000000, 2.296212748401287109E-17 ) ) ;
#281 = VECTOR ( 'NONE', #158, 39.37007874015748143 ) ;
#282 = VERTEX_POINT ( 'NONE', #301 ) ;
#283 = LENGTH_MEASURE_WITH_UNIT ( LENGTH_MEASURE( 0.02539999999999999897 ), #176 );
#284 = CARTESIAN_POINT ( 'NONE',  ( -0.1874999999999999167, 2.000000000000000000, 0.000000000000000000 ) ) ;
#285 = DIRECTION ( 'NONE',  ( -1.000000000000000000, 0.000000000000000000, 0.000000000000000000 ) ) ;
#286 = LINE ( 'NONE', #154, #151 ) ;
#287 = FILL_AREA_STYLE ('',( #246 ) ) ;
#288 = COLOUR_RGB ( '',1.000000000000000000, 0.000000000000000000, 0.000000000000000000 ) ;
#289 = MECHANICAL_DESIGN_GEOMETRIC_PRESENTATION_REPRESENTATION (  '', ( #28 ), #207 ) ;
#290 = CARTESIAN_POINT ( 'NONE',  ( 0.1875000000000000555, 2.000000000000000000, 2.296212748401286801E-17 ) ) ;
#291 = SURFACE_STYLE_USAGE ( .BOTH. , #112 ) ;
#292 = CLOSED_SHELL ( 'NONE', ( #155, #200, #58, #252 ) ) ;
#293 = CIRCLE ( 'NONE', #119, 0.1874999999999999445 ) ;
#294 = LENGTH_MEASURE_WITH_UNIT ( LENGTH_MEASURE( 0.02539999999999999897 ), #84 );
#295 = DIRECTION ( 'NONE',  ( 0.000000000000000000, 0.000000000000000000, 1.000000000000000000 ) ) ;
#296 = FILL_AREA_STYLE ('',( #235 ) ) ;
#297 = VERTEX_POINT ( 'NONE', #261 ) ;
#298 = EDGE_LOOP ( 'NONE', ( #48, #305 ) ) ;
#299 = EDGE_CURVE ( 'NONE', #17, #168, #62, .T. ) ;
#300 = ORIENTED_EDGE ( 'NONE', *, *, #157, .F. ) ;
#301 = CARTESIAN_POINT ( 'NONE',  ( 2.296212748401287726E-17, 0.000000000000000000, 0.1875000000000000278 ) ) ;
#302 = ORIENTED_EDGE ( 'NONE', *, *, #157, .T. ) ;
#303 = STYLED_ITEM ( 'NONE', ( #49 ), #155 ) ;
#304 = PRODUCT_DEFINITION_FORMATION_WITH_SPECIFIED_SOURCE ( 'ANY', '', #81, .NOT_KNOWN. ) ;
#305 = ORIENTED_EDGE ( 'NONE', *, *, #101, .T. ) ;
#306 = LENGTH_MEASURE_WITH_UNIT ( LENGTH_MEASURE( 0.02539999999999999897 ), #38 );
#307 = DIRECTION ( 'NONE',  ( -1.000000000000000000, 0.000000000000000000, 0.000000000000000000 ) ) ;
#308 = CARTESIAN_POINT ( 'NONE',  ( 0.000000000000000000, 0.000000000000000000, 0.000000000000000000 ) ) ;
#309 = CARTESIAN_POINT ( 'NONE',  ( 0.000000000000000000, 0.000000000000000000, -0.1875000000000000278 ) ) ;
ENDSEC;
END-ISO-10303-21;
