ISO-10303-21;
HEADER;
FILE_DESCRIPTION (( 'STEP AP214' ),
    '1' );
FILE_NAME ('81321.STEP',
    '2023-06-30T22:23:39',
    ( '' ),
    ( '' ),
    'SwSTEP 2.0',
    'SolidWorks 2023',
    '' );
FILE_SCHEMA (( 'AUTOMOTIVE_DESIGN' ));
ENDSEC;

DATA;
#1 = COLOUR_RGB ( '',1.000000000000000000, 0.000000000000000000, 0.000000000000000000 ) ;
#2 = LINE ( 'NONE', #348, #13 ) ;
#3 = CARTESIAN_POINT ( 'NONE',  ( -1.530808498934191509E-17, 0.1250000000000000000, 0.000000000000000000 ) ) ;
#4 = PRESENTATION_STYLE_ASSIGNMENT (( #113 ) ) ;
#5 = FACE_OUTER_BOUND ( 'NONE', #306, .T. ) ;
#6 =( NAMED_UNIT ( * ) SI_UNIT ( $, .STERADIAN. ) SOLID_ANGLE_UNIT ( ) );
#7 = ADVANCED_FACE ( 'NONE', ( #347 ), #137, .T. ) ;
#8 = EDGE_CURVE ( 'NONE', #138, #79, #207, .T. ) ;
#9 = CIRCLE ( 'NONE', #22, 0.1249999999999999445 ) ;
#10 = DIRECTION ( 'NONE',  ( -0.000000000000000000, -1.000000000000000000, -0.000000000000000000 ) ) ;
#11 = DIRECTION ( 'NONE',  ( -0.000000000000000000, -1.000000000000000000, -0.000000000000000000 ) ) ;
#12 = DIMENSIONAL_EXPONENTS ( 1.000000000000000000, 0.000000000000000000, 0.000000000000000000, 0.000000000000000000, 0.000000000000000000, 0.000000000000000000, 0.000000000000000000 ) ;
#13 = VECTOR ( 'NONE', #56, 39.37007874015748143 ) ;
#14 = LINE ( 'NONE', #131, #250 ) ;
#15 = MECHANICAL_DESIGN_GEOMETRIC_PRESENTATION_REPRESENTATION (  '', ( #175 ), #192 ) ;
#16 = DIMENSIONAL_EXPONENTS ( 1.000000000000000000, 0.000000000000000000, 0.000000000000000000, 0.000000000000000000, 0.000000000000000000, 0.000000000000000000, 0.000000000000000000 ) ;
#17 = UNCERTAINTY_MEASURE_WITH_UNIT (LENGTH_MEASURE( 1.000000000000000082E-05 ), #260, 'distance_accuracy_value', 'NONE');
#18 = DIRECTION ( 'NONE',  ( 0.000000000000000000, 0.000000000000000000, 1.000000000000000000 ) ) ;
#19 = ADVANCED_FACE ( 'NONE', ( #182 ), #231, .F. ) ;
#20 =( NAMED_UNIT ( * ) PLANE_ANGLE_UNIT ( ) SI_UNIT ( $, .RADIAN. ) );
#21 =( CONVERSION_BASED_UNIT ( 'INCH', #130 ) LENGTH_UNIT ( ) NAMED_UNIT ( #16 ) );
#22 = AXIS2_PLACEMENT_3D ( 'NONE', #59, #169, #30 ) ;
#23 =( CONVERSION_BASED_UNIT ( 'INCH', #62 ) LENGTH_UNIT ( ) NAMED_UNIT ( #216 ) );
#24 = ORIENTED_EDGE ( 'NONE', *, *, #47, .F. ) ;
#25 = SURFACE_STYLE_FILL_AREA ( #54 ) ;
#26 = CIRCLE ( 'NONE', #286, 0.1249999999999998751 ) ;
#27 = VERTEX_POINT ( 'NONE', #91 ) ;
#28 = CYLINDRICAL_SURFACE ( 'NONE', #220, 0.1249999999999998335 ) ;
#29 = ORIENTED_EDGE ( 'NONE', *, *, #322, .T. ) ;
#30 = DIRECTION ( 'NONE',  ( -1.000000000000000000, 0.000000000000000000, 0.000000000000000000 ) ) ;
#31 = COLOUR_RGB ( '',0.7921568627450980005, 0.8196078431372548767, 0.9333333333333333481 ) ;
#32 = AXIS2_PLACEMENT_3D ( 'NONE', #3, #65, #114 ) ;
#33 = FILL_AREA_STYLE ('',( #288 ) ) ;
#34 = PRESENTATION_LAYER_ASSIGNMENT (  '', '', ( #164 ) ) ;
#35 = DIRECTION ( 'NONE',  ( -1.228329711887258194E-16, 1.000000000000000000, 0.000000000000000000 ) ) ;
#36 = DIRECTION ( 'NONE',  ( -0.000000000000000000, -1.000000000000000000, -0.000000000000000000 ) ) ;
#37 = DIRECTION ( 'NONE',  ( -1.228329711887258194E-16, 1.000000000000000000, -0.000000000000000000 ) ) ;
#38 = SURFACE_SIDE_STYLE ('',( #171 ) ) ;
#39 =( LENGTH_UNIT ( ) NAMED_UNIT ( * ) SI_UNIT ( $, .METRE. ) );
#40 = DIRECTION ( 'NONE',  ( -1.000000000000000000, 0.000000000000000000, 0.000000000000000000 ) ) ;
#41 = CARTESIAN_POINT ( 'NONE',  ( 0.1249999999999998751, 1.000000000000000000, 1.530808498934190276E-17 ) ) ;
#42 = CARTESIAN_POINT ( 'NONE',  ( 0.000000000000000000, 0.000000000000000000, -0.1249999999999999306 ) ) ;
#43 = MECHANICAL_DESIGN_GEOMETRIC_PRESENTATION_REPRESENTATION (  '', ( #104 ), #236 ) ;
#44 = DIMENSIONAL_EXPONENTS ( 1.000000000000000000, 0.000000000000000000, 0.000000000000000000, 0.000000000000000000, 0.000000000000000000, 0.000000000000000000, 0.000000000000000000 ) ;
#45 =( LENGTH_UNIT ( ) NAMED_UNIT ( * ) SI_UNIT ( $, .METRE. ) );
#46 = ADVANCED_FACE ( 'NONE', ( #120 ), #255, .T. ) ;
#47 = EDGE_CURVE ( 'NONE', #343, #165, #119, .T. ) ;
#48 = SURFACE_SIDE_STYLE ('',( #271 ) ) ;
#49 = DIRECTION ( 'NONE',  ( 1.224646799147353207E-16, -0.000000000000000000, 1.000000000000000000 ) ) ;
#50 = CIRCLE ( 'NONE', #304, 0.1249999999999999861 ) ;
#51 =( NAMED_UNIT ( * ) PLANE_ANGLE_UNIT ( ) SI_UNIT ( $, .RADIAN. ) );
#52 = ORIENTED_EDGE ( 'NONE', *, *, #8, .F. ) ;
#53 =( LENGTH_UNIT ( ) NAMED_UNIT ( * ) SI_UNIT ( $, .METRE. ) );
#54 = FILL_AREA_STYLE ('',( #142 ) ) ;
#55 = ORIENTED_EDGE ( 'NONE', *, *, #198, .T. ) ;
#56 = DIRECTION ( 'NONE',  ( -1.228329711887258194E-16, 1.000000000000000000, -0.000000000000000000 ) ) ;
#57 = ORIENTED_EDGE ( 'NONE', *, *, #240, .T. ) ;
#58 = ADVANCED_FACE ( 'NONE', ( #318 ), #64, .F. ) ;
#59 = CARTESIAN_POINT ( 'NONE',  ( -6.123233995736772199E-17, 3.000000000000000444, 0.000000000000000000 ) ) ;
#60 = VERTEX_POINT ( 'NONE', #95 ) ;
#61 = FILL_AREA_STYLE ('',( #254 ) ) ;
#62 = LENGTH_MEASURE_WITH_UNIT ( LENGTH_MEASURE( 0.02539999999999999897 ), #282 );
#63 = PRODUCT_DEFINITION ( 'UNKNOWN', '', #267, #132 ) ;
#64 = PLANE ( 'NONE',  #78 ) ;
#65 = DIRECTION ( 'NONE',  ( 0.000000000000000000, 0.000000000000000000, 1.000000000000000000 ) ) ;
#66 = CARTESIAN_POINT ( 'NONE',  ( 1.844336024200839662E-16, 1.000000000000000000, 0.000000000000000000 ) ) ;
#67 = PRESENTATION_LAYER_ASSIGNMENT (  '', '', ( #175 ) ) ;
#68 =( NAMED_UNIT ( * ) SI_UNIT ( $, .STERADIAN. ) SOLID_ANGLE_UNIT ( ) );
#69 = CARTESIAN_POINT ( 'NONE',  ( 1.530808498934190585E-17, 1.000000000000000000, 0.1249999999999998751 ) ) ;
#70 = LENGTH_MEASURE_WITH_UNIT ( LENGTH_MEASURE( 0.02539999999999999897 ), #188 );
#71 = EDGE_CURVE ( 'NONE', #168, #27, #26, .T. ) ;
#72 = DIRECTION ( 'NONE',  ( -0.000000000000000000, -1.000000000000000000, -0.000000000000000000 ) ) ;
#73 = DIRECTION ( 'NONE',  ( 0.000000000000000000, 0.000000000000000000, -1.000000000000000000 ) ) ;
#74 = COLOUR_RGB ( '',1.000000000000000000, 0.000000000000000000, 0.000000000000000000 ) ;
#75 = CARTESIAN_POINT ( 'NONE',  ( -0.1250000000000000000, 0.1250000000000000000, 1.530808498934191201E-17 ) ) ;
#76 =( NAMED_UNIT ( * ) PLANE_ANGLE_UNIT ( ) SI_UNIT ( $, .RADIAN. ) );
#77 = CIRCLE ( 'NONE', #261, 0.1250000000000000000 ) ;
#78 = AXIS2_PLACEMENT_3D ( 'NONE', #233, #262, #177 ) ;
#79 = VERTEX_POINT ( 'NONE', #320 ) ;
#80 = DIRECTION ( 'NONE',  ( 1.000000000000000000, 0.000000000000000000, -1.224646799147353207E-16 ) ) ;
#81 = ORIENTED_EDGE ( 'NONE', *, *, #47, .T. ) ;
#82 = ORIENTED_EDGE ( 'NONE', *, *, #8, .T. ) ;
#83 = DIRECTION ( 'NONE',  ( 0.000000000000000000, 0.000000000000000000, -1.000000000000000000 ) ) ;
#84 = ORIENTED_EDGE ( 'NONE', *, *, #212, .F. ) ;
#85 = AXIS2_PLACEMENT_3D ( 'NONE', #156, #18, #355 ) ;
#86 = DIRECTION ( 'NONE',  ( -0.000000000000000000, -1.000000000000000000, -0.000000000000000000 ) ) ;
#87 = ORIENTED_EDGE ( 'NONE', *, *, #362, .F. ) ;
#88 = CYLINDRICAL_SURFACE ( 'NONE', #127, 0.1249999999999998335 ) ;
#89 = CARTESIAN_POINT ( 'NONE',  ( 1.844336024200838922E-16, 1.000000000000000000, 0.000000000000000000 ) ) ;
#90 = EDGE_CURVE ( 'NONE', #79, #138, #174, .T. ) ;
#91 = CARTESIAN_POINT ( 'NONE',  ( 0.000000000000000000, 1.000000000000000000, -0.1249999999999998751 ) ) ;
#92 = AXIS2_PLACEMENT_3D ( 'NONE', #179, #10, #148 ) ;
#93 = SURFACE_STYLE_USAGE ( .BOTH. , #38 ) ;
#94 =( NAMED_UNIT ( * ) PLANE_ANGLE_UNIT ( ) SI_UNIT ( $, .RADIAN. ) );
#95 = CARTESIAN_POINT ( 'NONE',  ( 1.530808498934191509E-17, 0.1250000000000000000, 0.1249999999999999861 ) ) ;
#96 = AXIS2_PLACEMENT_3D ( 'NONE', #341, #36, #83 ) ;
#97 = DIRECTION ( 'NONE',  ( -1.000000000000000000, 0.000000000000000000, 0.000000000000000000 ) ) ;
#98 = CARTESIAN_POINT ( 'NONE',  ( 0.000000000000000000, 1.000000000000000000, 0.000000000000000000 ) ) ;
#99 = PRESENTATION_STYLE_ASSIGNMENT (( #183 ) ) ;
#100 = FACE_OUTER_BOUND ( 'NONE', #278, .T. ) ;
#101 = CARTESIAN_POINT ( 'NONE',  ( 0.000000000000000000, 0.000000000000000000, 0.000000000000000000 ) ) ;
#102 = PRESENTATION_LAYER_ASSIGNMENT (  '', '', ( #268 ) ) ;
#103 = EDGE_LOOP ( 'NONE', ( #312, #302 ) ) ;
#104 = STYLED_ITEM ( 'NONE', ( #334 ), #337 ) ;
#105 =( CONVERSION_BASED_UNIT ( 'INCH', #370 ) LENGTH_UNIT ( ) NAMED_UNIT ( #357 ) );
#106 = EDGE_CURVE ( 'NONE', #27, #168, #367, .T. ) ;
#107 =( NAMED_UNIT ( * ) SI_UNIT ( $, .STERADIAN. ) SOLID_ANGLE_UNIT ( ) );
#108 = ADVANCED_FACE ( 'NONE', ( #209 ), #293, .T. ) ;
#109 = EDGE_LOOP ( 'NONE', ( #221, #52 ) ) ;
#110 = CARTESIAN_POINT ( 'NONE',  ( -6.123233995736772199E-17, 3.000000000000000444, 0.000000000000000000 ) ) ;
#111 = ORIENTED_EDGE ( 'NONE', *, *, #257, .F. ) ;
#112 = MECHANICAL_DESIGN_GEOMETRIC_PRESENTATION_REPRESENTATION (  '', ( #210 ), #324 ) ;
#113 = SURFACE_STYLE_USAGE ( .BOTH. , #141 ) ;
#114 = DIRECTION ( 'NONE',  ( 1.000000000000000000, 0.000000000000000000, 0.000000000000000000 ) ) ;
#115 = APPLICATION_CONTEXT ( 'automotive_design' ) ;
#116 = PRODUCT_CONTEXT ( 'NONE', #328, 'mechanical' ) ;
#117 = SURFACE_STYLE_USAGE ( .BOTH. , #229 ) ;
#118 = UNCERTAINTY_MEASURE_WITH_UNIT (LENGTH_MEASURE( 1.000000000000000082E-05 ), #21, 'distance_accuracy_value', 'NONE');
#119 = CIRCLE ( 'NONE', #237, 0.1250000000000000000 ) ;
#120 = FACE_OUTER_BOUND ( 'NONE', #339, .T. ) ;
#121 = CARTESIAN_POINT ( 'NONE',  ( 1.844336024200839662E-16, 1.000000000000000000, 0.000000000000000000 ) ) ;
#122 = DIMENSIONAL_EXPONENTS ( 1.000000000000000000, 0.000000000000000000, 0.000000000000000000, 0.000000000000000000, 0.000000000000000000, 0.000000000000000000, 0.000000000000000000 ) ;
#123 =( LENGTH_UNIT ( ) NAMED_UNIT ( * ) SI_UNIT ( $, .METRE. ) );
#124 =( GEOMETRIC_REPRESENTATION_CONTEXT ( 3 ) GLOBAL_UNCERTAINTY_ASSIGNED_CONTEXT ( ( #296 ) ) GLOBAL_UNIT_ASSIGNED_CONTEXT ( ( #23, #166, #107 ) ) REPRESENTATION_CONTEXT ( 'NONE', 'WORKASPACE' ) );
#125 = CLOSED_SHELL ( 'NONE', ( #180, #19, #194, #58 ) ) ;
#126 = SHAPE_DEFINITION_REPRESENTATION ( #342, #305 ) ;
#127 = AXIS2_PLACEMENT_3D ( 'NONE', #228, #300, #284 ) ;
#128 = DIMENSIONAL_EXPONENTS ( 1.000000000000000000, 0.000000000000000000, 0.000000000000000000, 0.000000000000000000, 0.000000000000000000, 0.000000000000000000, 0.000000000000000000 ) ;
#129 = EDGE_CURVE ( 'NONE', #27, #197, #298, .T. ) ;
#130 = LENGTH_MEASURE_WITH_UNIT ( LENGTH_MEASURE( 0.02539999999999999897 ), #123 );
#131 = CARTESIAN_POINT ( 'NONE',  ( 1.530808498934190893E-17, 0.000000000000000000, 0.1249999999999999306 ) ) ;
#132 = PRODUCT_DEFINITION_CONTEXT ( 'detailed design', #115, 'design' ) ;
#133 =( CONVERSION_BASED_UNIT ( 'INCH', #191 ) LENGTH_UNIT ( ) NAMED_UNIT ( #12 ) );
#134 = MECHANICAL_DESIGN_GEOMETRIC_PRESENTATION_REPRESENTATION (  '', ( #144 ), #124 ) ;
#135 = EDGE_CURVE ( 'NONE', #168, #60, #14, .T. ) ;
#136 = CARTESIAN_POINT ( 'NONE',  ( 0.000000000000000000, 1.000000000000000000, 0.000000000000000000 ) ) ;
#137 = CYLINDRICAL_SURFACE ( 'NONE', #92, 0.1249999999999999306 ) ;
#138 = VERTEX_POINT ( 'NONE', #41 ) ;
#139 = AXIS2_PLACEMENT_3D ( 'NONE', #98, #270, #73 ) ;
#140 = ORIENTED_EDGE ( 'NONE', *, *, #322, .F. ) ;
#141 = SURFACE_SIDE_STYLE ('',( #256 ) ) ;
#142 = FILL_AREA_STYLE_COLOUR ( '', #74 ) ;
#143 = CARTESIAN_POINT ( 'NONE',  ( 0.000000000000000000, 0.1250000000000000000, 0.000000000000000000 ) ) ;
#144 = STYLED_ITEM ( 'NONE', ( #4 ), #189 ) ;
#145 = SURFACE_STYLE_FILL_AREA ( #200 ) ;
#146 = AXIS2_PLACEMENT_3D ( 'NONE', #89, #35, #323 ) ;
#147 = CIRCLE ( 'NONE', #159, 0.1249999999999999861 ) ;
#148 = DIRECTION ( 'NONE',  ( 0.000000000000000000, 0.000000000000000000, -1.000000000000000000 ) ) ;
#149 = FACE_OUTER_BOUND ( 'NONE', #340, .T. ) ;
#150 = LENGTH_MEASURE_WITH_UNIT ( LENGTH_MEASURE( 0.02539999999999999897 ), #290 );
#151 = CIRCLE ( 'NONE', #317, 0.1249999999999999445 ) ;
#152 =( CONVERSION_BASED_UNIT ( 'INCH', #173 ) LENGTH_UNIT ( ) NAMED_UNIT ( #128 ) );
#153 = SURFACE_STYLE_USAGE ( .BOTH. , #48 ) ;
#154 = AXIS2_PLACEMENT_3D ( 'NONE', #66, #186, #97 ) ;
#155 = STYLED_ITEM ( 'NONE', ( #205 ), #263 ) ;
#156 = CARTESIAN_POINT ( 'NONE',  ( -1.530808498934191509E-17, 0.1250000000000000000, 0.000000000000000000 ) ) ;
#157 = DIRECTION ( 'NONE',  ( 0.000000000000000000, 0.000000000000000000, -1.000000000000000000 ) ) ;
#158 = CARTESIAN_POINT ( 'NONE',  ( -6.123233995736772199E-17, 3.000000000000000444, 0.000000000000000000 ) ) ;
#159 = AXIS2_PLACEMENT_3D ( 'NONE', #230, #86, #199 ) ;
#160 =( NAMED_UNIT ( * ) SI_UNIT ( $, .STERADIAN. ) SOLID_ANGLE_UNIT ( ) );
#161 = VERTEX_POINT ( 'NONE', #265 ) ;
#162 = CARTESIAN_POINT ( 'NONE',  ( 0.000000000000000000, 0.1250000000000000000, 0.000000000000000000 ) ) ;
#163 = ORIENTED_EDGE ( 'NONE', *, *, #239, .F. ) ;
#164 = STYLED_ITEM ( 'NONE', ( #331 ), #108 ) ;
#165 = VERTEX_POINT ( 'NONE', #235 ) ;
#166 =( NAMED_UNIT ( * ) PLANE_ANGLE_UNIT ( ) SI_UNIT ( $, .RADIAN. ) );
#167 = DIRECTION ( 'NONE',  ( 0.000000000000000000, 0.000000000000000000, 1.000000000000000000 ) ) ;
#168 = VERTEX_POINT ( 'NONE', #69 ) ;
#169 = DIRECTION ( 'NONE',  ( -1.228329711887258194E-16, 1.000000000000000000, -0.000000000000000000 ) ) ;
#170 = ORIENTED_EDGE ( 'NONE', *, *, #106, .T. ) ;
#171 = SURFACE_STYLE_FILL_AREA ( #61 ) ;
#172 = AXIS2_PLACEMENT_3D ( 'NONE', #101, #167, #252 ) ;
#173 = LENGTH_MEASURE_WITH_UNIT ( LENGTH_MEASURE( 0.02539999999999999897 ), #39 );
#174 = CIRCLE ( 'NONE', #154, 0.1249999999999997086 ) ;
#175 = STYLED_ITEM ( 'NONE', ( #99 ), #178 ) ;
#176 = DIRECTION ( 'NONE',  ( 0.000000000000000000, 1.000000000000000000, 0.000000000000000000 ) ) ;
#177 = DIRECTION ( 'NONE',  ( 1.000000000000000000, 1.228329711887258194E-16, 0.000000000000000000 ) ) ;
#178 = ADVANCED_FACE ( 'NONE', ( #100 ), #241, .T. ) ;
#179 = CARTESIAN_POINT ( 'NONE',  ( 0.000000000000000000, 0.000000000000000000, 0.000000000000000000 ) ) ;
#180 = ADVANCED_FACE ( 'NONE', ( #5 ), #28, .T. ) ;
#181 = AXIS2_PLACEMENT_3D ( 'NONE', #315, #351, #313 ) ;
#182 = FACE_OUTER_BOUND ( 'NONE', #109, .T. ) ;
#183 = SURFACE_STYLE_USAGE ( .BOTH. , #327 ) ;
#184 =( CONVERSION_BASED_UNIT ( 'INCH', #70 ) LENGTH_UNIT ( ) NAMED_UNIT ( #122 ) );
#185 = LINE ( 'NONE', #219, #238 ) ;
#186 = DIRECTION ( 'NONE',  ( -1.228329711887258194E-16, 1.000000000000000000, -0.000000000000000000 ) ) ;
#187 = UNCERTAINTY_MEASURE_WITH_UNIT (LENGTH_MEASURE( 1.000000000000000082E-05 ), #338, 'distance_accuracy_value', 'NONE');
#188 =( LENGTH_UNIT ( ) NAMED_UNIT ( * ) SI_UNIT ( $, .METRE. ) );
#189 = ADVANCED_FACE ( 'NONE', ( #149 ), #223, .T. ) ;
#190 = ORIENTED_EDGE ( 'NONE', *, *, #135, .T. ) ;
#191 = LENGTH_MEASURE_WITH_UNIT ( LENGTH_MEASURE( 0.02539999999999999897 ), #45 );
#192 =( GEOMETRIC_REPRESENTATION_CONTEXT ( 3 ) GLOBAL_UNCERTAINTY_ASSIGNED_CONTEXT ( ( #353 ) ) GLOBAL_UNIT_ASSIGNED_CONTEXT ( ( #184, #244, #332 ) ) REPRESENTATION_CONTEXT ( 'NONE', 'WORKASPACE' ) );
#193 = VERTEX_POINT ( 'NONE', #310 ) ;
#194 = ADVANCED_FACE ( 'NONE', ( #246 ), #88, .T. ) ;
#195 = ORIENTED_EDGE ( 'NONE', *, *, #264, .T. ) ;
#196 = ORIENTED_EDGE ( 'NONE', *, *, #71, .T. ) ;
#197 = VERTEX_POINT ( 'NONE', #372 ) ;
#198 = EDGE_CURVE ( 'NONE', #79, #161, #2, .T. ) ;
#199 = DIRECTION ( 'NONE',  ( 0.000000000000000000, 0.000000000000000000, -1.000000000000000000 ) ) ;
#200 = FILL_AREA_STYLE ('',( #319 ) ) ;
#201 = PRODUCT ( '81321', '81321', '', ( #116 ) ) ;
#202 = DIRECTION ( 'NONE',  ( -1.228329711887258194E-16, 1.000000000000000000, -0.000000000000000000 ) ) ;
#203 = PRESENTATION_LAYER_ASSIGNMENT (  '', '', ( #210 ) ) ;
#204 = PRESENTATION_LAYER_ASSIGNMENT (  '', '', ( #104 ) ) ;
#205 = PRESENTATION_STYLE_ASSIGNMENT (( #93 ) ) ;
#206 = DIRECTION ( 'NONE',  ( 0.000000000000000000, 0.000000000000000000, -1.000000000000000000 ) ) ;
#207 = CIRCLE ( 'NONE', #344, 0.1249999999999997086 ) ;
#208 = FILL_AREA_STYLE_COLOUR ( '', #232 ) ;
#209 = FACE_OUTER_BOUND ( 'NONE', #365, .T. ) ;
#210 = STYLED_ITEM ( 'NONE', ( #364 ), #7 ) ;
#211 = CIRCLE ( 'NONE', #368, 0.1249999999999999861 ) ;
#212 = EDGE_CURVE ( 'NONE', #193, #161, #151, .T. ) ;
#213 = CARTESIAN_POINT ( 'NONE',  ( -1.530808498934191509E-17, 0.1250000000000000000, 0.000000000000000000 ) ) ;
#214 = SURFACE_STYLE_FILL_AREA ( #360 ) ;
#215 =( NAMED_UNIT ( * ) SI_UNIT ( $, .STERADIAN. ) SOLID_ANGLE_UNIT ( ) );
#216 = DIMENSIONAL_EXPONENTS ( 1.000000000000000000, 0.000000000000000000, 0.000000000000000000, 0.000000000000000000, 0.000000000000000000, 0.000000000000000000, 0.000000000000000000 ) ;
#217 = ORIENTED_EDGE ( 'NONE', *, *, #71, .F. ) ;
#218 = CIRCLE ( 'NONE', #181, 0.1249999999999999861 ) ;
#219 = CARTESIAN_POINT ( 'NONE',  ( 0.1249999999999997641, 3.000000000000000444, 1.530808498934189352E-17 ) ) ;
#220 = AXIS2_PLACEMENT_3D ( 'NONE', #158, #345, #275 ) ;
#221 = ORIENTED_EDGE ( 'NONE', *, *, #90, .F. ) ;
#222 = ORIENTED_EDGE ( 'NONE', *, *, #129, .T. ) ;
#223 = CYLINDRICAL_SURFACE ( 'NONE', #96, 0.1249999999999999306 ) ;
#224 = ORIENTED_EDGE ( 'NONE', *, *, #326, .F. ) ;
#225 = DIRECTION ( 'NONE',  ( -1.000000000000000000, 0.000000000000000000, 0.000000000000000000 ) ) ;
#226 = COLOUR_RGB ( '',0.7921568627450980005, 0.8196078431372548767, 0.9333333333333333481 ) ;
#227 = ORIENTED_EDGE ( 'NONE', *, *, #106, .F. ) ;
#228 = CARTESIAN_POINT ( 'NONE',  ( -6.123233995736772199E-17, 3.000000000000000444, 0.000000000000000000 ) ) ;
#229 = SURFACE_SIDE_STYLE ('',( #145 ) ) ;
#230 = CARTESIAN_POINT ( 'NONE',  ( 0.000000000000000000, 0.1250000000000000000, 0.000000000000000000 ) ) ;
#231 = PLANE ( 'NONE',  #146 ) ;
#232 = COLOUR_RGB ( '',1.000000000000000000, 0.000000000000000000, 0.000000000000000000 ) ;
#233 = CARTESIAN_POINT ( 'NONE',  ( 0.1249999999999998751, 3.000000000000000444, 0.000000000000000000 ) ) ;
#234 = PRESENTATION_STYLE_ASSIGNMENT (( #117 ) ) ;
#235 = CARTESIAN_POINT ( 'NONE',  ( -7.654042494670957545E-18, 0.000000000000000000, 0.000000000000000000 ) ) ;
#236 =( GEOMETRIC_REPRESENTATION_CONTEXT ( 3 ) GLOBAL_UNCERTAINTY_ASSIGNED_CONTEXT ( ( #187 ) ) GLOBAL_UNIT_ASSIGNED_CONTEXT ( ( #338, #274, #363 ) ) REPRESENTATION_CONTEXT ( 'NONE', 'WORKASPACE' ) );
#237 = AXIS2_PLACEMENT_3D ( 'NONE', #350, #258, #40 ) ;
#238 = VECTOR ( 'NONE', #297, 39.37007874015748143 ) ;
#239 = EDGE_CURVE ( 'NONE', #333, #197, #147, .T. ) ;
#240 = EDGE_CURVE ( 'NONE', #60, #333, #218, .T. ) ;
#241 = PLANE ( 'NONE',  #269 ) ;
#242 =( GEOMETRIC_REPRESENTATION_CONTEXT ( 3 ) GLOBAL_UNCERTAINTY_ASSIGNED_CONTEXT ( ( #118 ) ) GLOBAL_UNIT_ASSIGNED_CONTEXT ( ( #21, #76, #266 ) ) REPRESENTATION_CONTEXT ( 'NONE', 'WORKASPACE' ) );
#243 = SURFACE_STYLE_USAGE ( .BOTH. , #369 ) ;
#244 =( NAMED_UNIT ( * ) PLANE_ANGLE_UNIT ( ) SI_UNIT ( $, .RADIAN. ) );
#245 = LENGTH_MEASURE_WITH_UNIT ( LENGTH_MEASURE( 0.02539999999999999897 ), #53 );
#246 = FACE_OUTER_BOUND ( 'NONE', #251, .T. ) ;
#247 = SURFACE_SIDE_STYLE ('',( #25 ) ) ;
#248 = ORIENTED_EDGE ( 'NONE', *, *, #326, .T. ) ;
#249 = FILL_AREA_STYLE_COLOUR ( '', #31 ) ;
#250 = VECTOR ( 'NONE', #11, 39.37007874015748143 ) ;
#251 = EDGE_LOOP ( 'NONE', ( #140, #82, #55, #84 ) ) ;
#252 = DIRECTION ( 'NONE',  ( 1.000000000000000000, 0.000000000000000000, 0.000000000000000000 ) ) ;
#253 = SURFACE_STYLE_USAGE ( .BOTH. , #247 ) ;
#254 = FILL_AREA_STYLE_COLOUR ( '', #226 ) ;
#255 = SPHERICAL_SURFACE ( 'NONE', #32, 0.1250000000000000000 ) ;
#256 = SURFACE_STYLE_FILL_AREA ( #33 ) ;
#257 = EDGE_CURVE ( 'NONE', #161, #193, #9, .T. ) ;
#258 = DIRECTION ( 'NONE',  ( 0.000000000000000000, 0.000000000000000000, -1.000000000000000000 ) ) ;
#259 = UNCERTAINTY_MEASURE_WITH_UNIT (LENGTH_MEASURE( 1.000000000000000082E-05 ), #105, 'distance_accuracy_value', 'NONE');
#260 =( CONVERSION_BASED_UNIT ( 'INCH', #150 ) LENGTH_UNIT ( ) NAMED_UNIT ( #44 ) );
#261 = AXIS2_PLACEMENT_3D ( 'NONE', #213, #49, #80 ) ;
#262 = DIRECTION ( 'NONE',  ( 1.228329711887258194E-16, -1.000000000000000000, 0.000000000000000000 ) ) ;
#263 = MANIFOLD_SOLID_BREP ( 'Revolve - Tool Body (Straight Shanked)', #125 ) ;
#264 = EDGE_CURVE ( 'NONE', #343, #60, #50, .T. ) ;
#265 = CARTESIAN_POINT ( 'NONE',  ( -0.1250000000000000278, 3.000000000000000444, 0.000000000000000000 ) ) ;
#266 =( NAMED_UNIT ( * ) SI_UNIT ( $, .STERADIAN. ) SOLID_ANGLE_UNIT ( ) );
#267 = PRODUCT_DEFINITION_FORMATION_WITH_SPECIFIED_SOURCE ( 'ANY', '', #201, .NOT_KNOWN. ) ;
#268 = STYLED_ITEM ( 'NONE', ( #234 ), #46 ) ;
#269 = AXIS2_PLACEMENT_3D ( 'NONE', #136, #176, #316 ) ;
#270 = DIRECTION ( 'NONE',  ( -0.000000000000000000, -1.000000000000000000, -0.000000000000000000 ) ) ;
#271 = SURFACE_STYLE_FILL_AREA ( #273 ) ;
#272 = UNCERTAINTY_MEASURE_WITH_UNIT (LENGTH_MEASURE( 1.000000000000000082E-05 ), #133, 'distance_accuracy_value', 'NONE');
#273 = FILL_AREA_STYLE ('',( #208 ) ) ;
#274 =( NAMED_UNIT ( * ) PLANE_ANGLE_UNIT ( ) SI_UNIT ( $, .RADIAN. ) );
#275 = DIRECTION ( 'NONE',  ( -1.000000000000000000, 0.000000000000000000, 0.000000000000000000 ) ) ;
#276 = DIMENSIONAL_EXPONENTS ( 1.000000000000000000, 0.000000000000000000, 0.000000000000000000, 0.000000000000000000, 0.000000000000000000, 0.000000000000000000, 0.000000000000000000 ) ;
#277 = APPLICATION_PROTOCOL_DEFINITION ( 'draft international standard', 'automotive_design', 1998, #328 ) ;
#278 = EDGE_LOOP ( 'NONE', ( #227, #217 ) ) ;
#279 = CARTESIAN_POINT ( 'NONE',  ( 0.1249999999999999861, 0.1250000000000000000, 0.000000000000000000 ) ) ;
#280 = ORIENTED_EDGE ( 'NONE', *, *, #240, .F. ) ;
#281 =( LENGTH_UNIT ( ) NAMED_UNIT ( * ) SI_UNIT ( $, .METRE. ) );
#282 =( LENGTH_UNIT ( ) NAMED_UNIT ( * ) SI_UNIT ( $, .METRE. ) );
#283 = ORIENTED_EDGE ( 'NONE', *, *, #198, .F. ) ;
#284 = DIRECTION ( 'NONE',  ( -1.000000000000000000, 0.000000000000000000, 0.000000000000000000 ) ) ;
#285 = ORIENTED_EDGE ( 'NONE', *, *, #129, .F. ) ;
#286 = AXIS2_PLACEMENT_3D ( 'NONE', #291, #354, #206 ) ;
#287 = COLOUR_RGB ( '',1.000000000000000000, 0.000000000000000000, 0.000000000000000000 ) ;
#288 = FILL_AREA_STYLE_COLOUR ( '', #287 ) ;
#289 =( NAMED_UNIT ( * ) PLANE_ANGLE_UNIT ( ) SI_UNIT ( $, .RADIAN. ) );
#290 =( LENGTH_UNIT ( ) NAMED_UNIT ( * ) SI_UNIT ( $, .METRE. ) );
#291 = CARTESIAN_POINT ( 'NONE',  ( 0.000000000000000000, 1.000000000000000000, 0.000000000000000000 ) ) ;
#292 = COLOUR_RGB ( '',1.000000000000000000, 0.000000000000000000, 0.000000000000000000 ) ;
#293 = SPHERICAL_SURFACE ( 'NONE', #85, 0.1250000000000000000 ) ;
#294 = FILL_AREA_STYLE_COLOUR ( '', #292 ) ;
#295 = MECHANICAL_DESIGN_GEOMETRIC_PRESENTATION_REPRESENTATION (  '', ( #268 ), #303 ) ;
#296 = UNCERTAINTY_MEASURE_WITH_UNIT (LENGTH_MEASURE( 1.000000000000000082E-05 ), #23, 'distance_accuracy_value', 'NONE');
#297 = DIRECTION ( 'NONE',  ( -1.228329711887258194E-16, 1.000000000000000000, -0.000000000000000000 ) ) ;
#298 = LINE ( 'NONE', #42, #356 ) ;
#299 = DIRECTION ( 'NONE',  ( 0.000000000000000000, 0.000000000000000000, -1.000000000000000000 ) ) ;
#300 = DIRECTION ( 'NONE',  ( -1.228329711887258194E-16, 1.000000000000000000, -0.000000000000000000 ) ) ;
#301 = MECHANICAL_DESIGN_GEOMETRIC_PRESENTATION_REPRESENTATION (  '', ( #155 ), #325 ) ;
#302 = ORIENTED_EDGE ( 'NONE', *, *, #212, .T. ) ;
#303 =( GEOMETRIC_REPRESENTATION_CONTEXT ( 3 ) GLOBAL_UNCERTAINTY_ASSIGNED_CONTEXT ( ( #321 ) ) GLOBAL_UNIT_ASSIGNED_CONTEXT ( ( #152, #289, #68 ) ) REPRESENTATION_CONTEXT ( 'NONE', 'WORKASPACE' ) );
#304 = AXIS2_PLACEMENT_3D ( 'NONE', #143, #359, #157 ) ;
#305 = ADVANCED_BREP_SHAPE_REPRESENTATION ( '81321', ( #337, #263, #172 ), #336 ) ;
#306 = EDGE_LOOP ( 'NONE', ( #371, #29, #111, #283 ) ) ;
#307 = SURFACE_STYLE_FILL_AREA ( #330 ) ;
#308 = ORIENTED_EDGE ( 'NONE', *, *, #135, .F. ) ;
#309 = ORIENTED_EDGE ( 'NONE', *, *, #264, .F. ) ;
#310 = CARTESIAN_POINT ( 'NONE',  ( 0.1249999999999998751, 3.000000000000000444, 1.530808498934190276E-17 ) ) ;
#311 = MECHANICAL_DESIGN_GEOMETRIC_PRESENTATION_REPRESENTATION (  '', ( #164 ), #242 ) ;
#312 = ORIENTED_EDGE ( 'NONE', *, *, #257, .T. ) ;
#313 = DIRECTION ( 'NONE',  ( 0.000000000000000000, 0.000000000000000000, -1.000000000000000000 ) ) ;
#314 = ORIENTED_EDGE ( 'NONE', *, *, #239, .T. ) ;
#315 = CARTESIAN_POINT ( 'NONE',  ( 0.000000000000000000, 0.1250000000000000000, 0.000000000000000000 ) ) ;
#316 = DIRECTION ( 'NONE',  ( 0.000000000000000000, -0.000000000000000000, 1.000000000000000000 ) ) ;
#317 = AXIS2_PLACEMENT_3D ( 'NONE', #110, #202, #225 ) ;
#318 = FACE_OUTER_BOUND ( 'NONE', #103, .T. ) ;
#319 = FILL_AREA_STYLE_COLOUR ( '', #1 ) ;
#320 = CARTESIAN_POINT ( 'NONE',  ( -0.1249999999999995143, 1.000000000000000000, 0.000000000000000000 ) ) ;
#321 = UNCERTAINTY_MEASURE_WITH_UNIT (LENGTH_MEASURE( 1.000000000000000082E-05 ), #152, 'distance_accuracy_value', 'NONE');
#322 = EDGE_CURVE ( 'NONE', #138, #193, #185, .T. ) ;
#323 = DIRECTION ( 'NONE',  ( -1.000000000000000000, -1.228329711887258194E-16, 0.000000000000000000 ) ) ;
#324 =( GEOMETRIC_REPRESENTATION_CONTEXT ( 3 ) GLOBAL_UNCERTAINTY_ASSIGNED_CONTEXT ( ( #259 ) ) GLOBAL_UNIT_ASSIGNED_CONTEXT ( ( #105, #94, #6 ) ) REPRESENTATION_CONTEXT ( 'NONE', 'WORKASPACE' ) );
#325 =( GEOMETRIC_REPRESENTATION_CONTEXT ( 3 ) GLOBAL_UNCERTAINTY_ASSIGNED_CONTEXT ( ( #17 ) ) GLOBAL_UNIT_ASSIGNED_CONTEXT ( ( #260, #20, #215 ) ) REPRESENTATION_CONTEXT ( 'NONE', 'WORKASPACE' ) );
#326 = EDGE_CURVE ( 'NONE', #197, #343, #211, .T. ) ;
#327 = SURFACE_SIDE_STYLE ('',( #214 ) ) ;
#328 = APPLICATION_CONTEXT ( 'automotive_design' ) ;
#329 = CLOSED_SHELL ( 'NONE', ( #108, #189, #178, #7, #46 ) ) ;
#330 = FILL_AREA_STYLE ('',( #249 ) ) ;
#331 = PRESENTATION_STYLE_ASSIGNMENT (( #153 ) ) ;
#332 =( NAMED_UNIT ( * ) SI_UNIT ( $, .STERADIAN. ) SOLID_ANGLE_UNIT ( ) );
#333 = VERTEX_POINT ( 'NONE', #75 ) ;
#334 = PRESENTATION_STYLE_ASSIGNMENT (( #243 ) ) ;
#335 = ORIENTED_EDGE ( 'NONE', *, *, #362, .T. ) ;
#336 =( GEOMETRIC_REPRESENTATION_CONTEXT ( 3 ) GLOBAL_UNCERTAINTY_ASSIGNED_CONTEXT ( ( #272 ) ) GLOBAL_UNIT_ASSIGNED_CONTEXT ( ( #133, #51, #160 ) ) REPRESENTATION_CONTEXT ( 'NONE', 'WORKASPACE' ) );
#337 = MANIFOLD_SOLID_BREP ( 'Revolve - Cutting Edge', #329 ) ;
#338 =( CONVERSION_BASED_UNIT ( 'INCH', #245 ) LENGTH_UNIT ( ) NAMED_UNIT ( #276 ) );
#339 = EDGE_LOOP ( 'NONE', ( #87, #314, #248, #81 ) ) ;
#340 = EDGE_LOOP ( 'NONE', ( #170, #190, #309, #224, #285 ) ) ;
#341 = CARTESIAN_POINT ( 'NONE',  ( 0.000000000000000000, 0.000000000000000000, 0.000000000000000000 ) ) ;
#342 = PRODUCT_DEFINITION_SHAPE ( 'NONE', 'NONE',  #63 ) ;
#343 = VERTEX_POINT ( 'NONE', #279 ) ;
#344 = AXIS2_PLACEMENT_3D ( 'NONE', #121, #37, #352 ) ;
#345 = DIRECTION ( 'NONE',  ( -1.228329711887258194E-16, 1.000000000000000000, -0.000000000000000000 ) ) ;
#346 = PRESENTATION_LAYER_ASSIGNMENT (  '', '', ( #144 ) ) ;
#347 = FACE_OUTER_BOUND ( 'NONE', #373, .T. ) ;
#348 = CARTESIAN_POINT ( 'NONE',  ( -0.1249999999999999029, 3.000000000000000444, 0.000000000000000000 ) ) ;
#349 = APPLICATION_PROTOCOL_DEFINITION ( 'draft international standard', 'automotive_design', 1998, #115 ) ;
#350 = CARTESIAN_POINT ( 'NONE',  ( -1.530808498934191509E-17, 0.1250000000000000000, 0.000000000000000000 ) ) ;
#351 = DIRECTION ( 'NONE',  ( -0.000000000000000000, -1.000000000000000000, -0.000000000000000000 ) ) ;
#352 = DIRECTION ( 'NONE',  ( -1.000000000000000000, 0.000000000000000000, 0.000000000000000000 ) ) ;
#353 = UNCERTAINTY_MEASURE_WITH_UNIT (LENGTH_MEASURE( 1.000000000000000082E-05 ), #184, 'distance_accuracy_value', 'NONE');
#354 = DIRECTION ( 'NONE',  ( -0.000000000000000000, -1.000000000000000000, -0.000000000000000000 ) ) ;
#355 = DIRECTION ( 'NONE',  ( 1.000000000000000000, 0.000000000000000000, 0.000000000000000000 ) ) ;
#356 = VECTOR ( 'NONE', #358, 39.37007874015748143 ) ;
#357 = DIMENSIONAL_EXPONENTS ( 1.000000000000000000, 0.000000000000000000, 0.000000000000000000, 0.000000000000000000, 0.000000000000000000, 0.000000000000000000, 0.000000000000000000 ) ;
#358 = DIRECTION ( 'NONE',  ( -0.000000000000000000, -1.000000000000000000, -0.000000000000000000 ) ) ;
#359 = DIRECTION ( 'NONE',  ( -0.000000000000000000, -1.000000000000000000, -0.000000000000000000 ) ) ;
#360 = FILL_AREA_STYLE ('',( #294 ) ) ;
#361 = PRESENTATION_LAYER_ASSIGNMENT (  '', '', ( #155 ) ) ;
#362 = EDGE_CURVE ( 'NONE', #333, #165, #77, .T. ) ;
#363 =( NAMED_UNIT ( * ) SI_UNIT ( $, .STERADIAN. ) SOLID_ANGLE_UNIT ( ) );
#364 = PRESENTATION_STYLE_ASSIGNMENT (( #253 ) ) ;
#365 = EDGE_LOOP ( 'NONE', ( #57, #335, #24, #195 ) ) ;
#366 = PRODUCT_RELATED_PRODUCT_CATEGORY ( 'part', '', ( #201 ) ) ;
#367 = CIRCLE ( 'NONE', #139, 0.1249999999999998751 ) ;
#368 = AXIS2_PLACEMENT_3D ( 'NONE', #162, #72, #299 ) ;
#369 = SURFACE_SIDE_STYLE ('',( #307 ) ) ;
#370 = LENGTH_MEASURE_WITH_UNIT ( LENGTH_MEASURE( 0.02539999999999999897 ), #281 );
#371 = ORIENTED_EDGE ( 'NONE', *, *, #90, .T. ) ;
#372 = CARTESIAN_POINT ( 'NONE',  ( 0.000000000000000000, 0.1250000000000000000, -0.1249999999999999861 ) ) ;
#373 = EDGE_LOOP ( 'NONE', ( #308, #196, #222, #163, #280 ) ) ;
ENDSEC;
END-ISO-10303-21;
