ISO-10303-21;
HEADER;
FILE_DESCRIPTION (( 'STEP AP214' ),
    '1' );
FILE_NAME ('83293.STEP',
    '2023-06-30T22:59:19',
    ( '' ),
    ( '' ),
    'SwSTEP 2.0',
    'SolidWorks 2023',
    '' );
FILE_SCHEMA (( 'AUTOMOTIVE_DESIGN' ));
ENDSEC;

DATA;
#1 = CARTESIAN_POINT ( 'NONE',  ( 0.000000000000000000, 1.000000000000000000, -0.1874999999999999167 ) ) ;
#2 = ORIENTED_EDGE ( 'NONE', *, *, #8, .F. ) ;
#3 = FACE_OUTER_BOUND ( 'NONE', #325, .T. ) ;
#4 = ORIENTED_EDGE ( 'NONE', *, *, #152, .F. ) ;
#5 = AXIS2_PLACEMENT_3D ( 'NONE', #344, #30, #121 ) ;
#6 = DIRECTION ( 'NONE',  ( 0.000000000000000000, 0.000000000000000000, 1.000000000000000000 ) ) ;
#7 = ORIENTED_EDGE ( 'NONE', *, *, #326, .F. ) ;
#8 = EDGE_CURVE ( 'NONE', #155, #351, #33, .T. ) ;
#9 = DIRECTION ( 'NONE',  ( -1.836970198721030674E-16, 1.000000000000000000, -0.000000000000000000 ) ) ;
#10 = LINE ( 'NONE', #242, #64 ) ;
#11 =( NAMED_UNIT ( * ) PLANE_ANGLE_UNIT ( ) SI_UNIT ( $, .RADIAN. ) );
#12 = ORIENTED_EDGE ( 'NONE', *, *, #25, .F. ) ;
#13 = AXIS2_PLACEMENT_3D ( 'NONE', #70, #140, #192 ) ;
#14 = VECTOR ( 'NONE', #95, 39.37007874015748143 ) ;
#15 = SURFACE_STYLE_USAGE ( .BOTH. , #272 ) ;
#16 = FILL_AREA_STYLE_COLOUR ( '', #82 ) ;
#17 =( NAMED_UNIT ( * ) PLANE_ANGLE_UNIT ( ) SI_UNIT ( $, .RADIAN. ) );
#18 = DIRECTION ( 'NONE',  ( 1.836970198721030427E-16, -1.000000000000000000, 0.000000000000000000 ) ) ;
#19 = CIRCLE ( 'NONE', #292, 0.1875000000000000278 ) ;
#20 = PRODUCT_DEFINITION_SHAPE ( 'NONE', 'NONE',  #85 ) ;
#21 = SURFACE_STYLE_FILL_AREA ( #195 ) ;
#22 = FACE_OUTER_BOUND ( 'NONE', #125, .T. ) ;
#23 = UNCERTAINTY_MEASURE_WITH_UNIT (LENGTH_MEASURE( 1.000000000000000082E-05 ), #226, 'distance_accuracy_value', 'NONE');
#24 = APPLICATION_PROTOCOL_DEFINITION ( 'draft international standard', 'automotive_design', 1998, #138 ) ;
#25 = EDGE_CURVE ( 'NONE', #155, #158, #124, .T. ) ;
#26 = AXIS2_PLACEMENT_3D ( 'NONE', #293, #164, #263 ) ;
#27 =( GEOMETRIC_REPRESENTATION_CONTEXT ( 3 ) GLOBAL_UNCERTAINTY_ASSIGNED_CONTEXT ( ( #312 ) ) GLOBAL_UNIT_ASSIGNED_CONTEXT ( ( #241, #11, #102 ) ) REPRESENTATION_CONTEXT ( 'NONE', 'WORKASPACE' ) );
#28 =( NAMED_UNIT ( * ) SI_UNIT ( $, .STERADIAN. ) SOLID_ANGLE_UNIT ( ) );
#29 = SHAPE_DEFINITION_REPRESENTATION ( #20, #31 ) ;
#30 = DIRECTION ( 'NONE',  ( -1.836970198721030427E-16, 1.000000000000000000, 0.000000000000000000 ) ) ;
#31 = ADVANCED_BREP_SHAPE_REPRESENTATION ( '83293', ( #244, #370, #343 ), #142 ) ;
#32 = LENGTH_MEASURE_WITH_UNIT ( LENGTH_MEASURE( 0.02539999999999999897 ), #347 );
#33 = CIRCLE ( 'NONE', #309, 0.1875000000000000555 ) ;
#34 =( NAMED_UNIT ( * ) SI_UNIT ( $, .STERADIAN. ) SOLID_ANGLE_UNIT ( ) );
#35 = APPLICATION_CONTEXT ( 'automotive_design' ) ;
#36 = ORIENTED_EDGE ( 'NONE', *, *, #249, .T. ) ;
#37 = ORIENTED_EDGE ( 'NONE', *, *, #299, .T. ) ;
#38 = EDGE_CURVE ( 'NONE', #345, #197, #111, .T. ) ;
#39 = AXIS2_PLACEMENT_3D ( 'NONE', #363, #201, #53 ) ;
#40 = AXIS2_PLACEMENT_3D ( 'NONE', #43, #233, #69 ) ;
#41 = SURFACE_STYLE_USAGE ( .BOTH. , #290 ) ;
#42 = DIRECTION ( 'NONE',  ( 0.000000000000000000, 0.000000000000000000, -1.000000000000000000 ) ) ;
#43 = CARTESIAN_POINT ( 'NONE',  ( -1.224646799147353700E-16, 3.000000000000000444, 0.000000000000000000 ) ) ;
#44 = EDGE_CURVE ( 'NONE', #104, #129, #291, .T. ) ;
#45 = ORIENTED_EDGE ( 'NONE', *, *, #354, .F. ) ;
#46 = FILL_AREA_STYLE_COLOUR ( '', #79 ) ;
#47 = MECHANICAL_DESIGN_GEOMETRIC_PRESENTATION_REPRESENTATION (  '', ( #321 ), #208 ) ;
#48 = CIRCLE ( 'NONE', #306, 0.1874999999999996669 ) ;
#49 = SURFACE_STYLE_USAGE ( .BOTH. , #298 ) ;
#50 = SPHERICAL_SURFACE ( 'NONE', #56, 0.1875000000000000555 ) ;
#51 =( NAMED_UNIT ( * ) PLANE_ANGLE_UNIT ( ) SI_UNIT ( $, .RADIAN. ) );
#52 = EDGE_CURVE ( 'NONE', #317, #197, #10, .T. ) ;
#53 = DIRECTION ( 'NONE',  ( -1.000000000000000000, 0.000000000000000000, 0.000000000000000000 ) ) ;
#54 = DIRECTION ( 'NONE',  ( -1.000000000000000000, 0.000000000000000000, 0.000000000000000000 ) ) ;
#55 = PRODUCT_DEFINITION_CONTEXT ( 'detailed design', #35, 'design' ) ;
#56 = AXIS2_PLACEMENT_3D ( 'NONE', #172, #204, #271 ) ;
#57 = MECHANICAL_DESIGN_GEOMETRIC_PRESENTATION_REPRESENTATION (  '', ( #307 ), #237 ) ;
#58 = DIRECTION ( 'NONE',  ( 0.000000000000000000, 0.000000000000000000, 1.000000000000000000 ) ) ;
#59 = DIRECTION ( 'NONE',  ( -1.836970198721030674E-16, 1.000000000000000000, -0.000000000000000000 ) ) ;
#60 = DIRECTION ( 'NONE',  ( -1.836970198721030427E-16, 1.000000000000000000, -0.000000000000000000 ) ) ;
#61 = ORIENTED_EDGE ( 'NONE', *, *, #264, .T. ) ;
#62 = CARTESIAN_POINT ( 'NONE',  ( 0.000000000000000000, 0.1875000000000000555, 0.000000000000000000 ) ) ;
#63 = EDGE_LOOP ( 'NONE', ( #280, #45 ) ) ;
#64 = VECTOR ( 'NONE', #353, 39.37007874015748143 ) ;
#65 = CIRCLE ( 'NONE', #141, 0.1874999999999996669 ) ;
#66 = ORIENTED_EDGE ( 'NONE', *, *, #196, .T. ) ;
#67 = ORIENTED_EDGE ( 'NONE', *, *, #354, .T. ) ;
#68 = ADVANCED_FACE ( 'NONE', ( #77 ), #297, .T. ) ;
#69 = DIRECTION ( 'NONE',  ( -1.000000000000000000, 0.000000000000000000, 0.000000000000000000 ) ) ;
#70 = CARTESIAN_POINT ( 'NONE',  ( -1.224646799147353700E-16, 3.000000000000000444, 0.000000000000000000 ) ) ;
#71 = CLOSED_SHELL ( 'NONE', ( #323, #162, #238, #91 ) ) ;
#72 = STYLED_ITEM ( 'NONE', ( #285 ), #244 ) ;
#73 = CARTESIAN_POINT ( 'NONE',  ( 2.296212748401286493E-17, 1.000000000000000000, 0.1874999999999999167 ) ) ;
#74 = ORIENTED_EDGE ( 'NONE', *, *, #8, .T. ) ;
#75 = EDGE_CURVE ( 'NONE', #197, #345, #342, .T. ) ;
#76 = CYLINDRICAL_SURFACE ( 'NONE', #179, 0.1874999999999999722 ) ;
#77 = FACE_OUTER_BOUND ( 'NONE', #212, .T. ) ;
#78 = PRESENTATION_STYLE_ASSIGNMENT (( #49 ) ) ;
#79 = COLOUR_RGB ( '',1.000000000000000000, 0.000000000000000000, 0.000000000000000000 ) ;
#80 = PRESENTATION_STYLE_ASSIGNMENT (( #333 ) ) ;
#81 = AXIS2_PLACEMENT_3D ( 'NONE', #319, #107, #42 ) ;
#82 = COLOUR_RGB ( '',1.000000000000000000, 0.000000000000000000, 0.000000000000000000 ) ;
#83 =( NAMED_UNIT ( * ) SI_UNIT ( $, .STERADIAN. ) SOLID_ANGLE_UNIT ( ) );
#84 = SURFACE_STYLE_FILL_AREA ( #329 ) ;
#85 = PRODUCT_DEFINITION ( 'UNKNOWN', '', #332, #55 ) ;
#86 =( NAMED_UNIT ( * ) SI_UNIT ( $, .STERADIAN. ) SOLID_ANGLE_UNIT ( ) );
#87 =( NAMED_UNIT ( * ) PLANE_ANGLE_UNIT ( ) SI_UNIT ( $, .RADIAN. ) );
#88 = PRESENTATION_LAYER_ASSIGNMENT (  '', '', ( #72 ) ) ;
#89 = UNCERTAINTY_MEASURE_WITH_UNIT (LENGTH_MEASURE( 1.000000000000000082E-05 ), #328, 'distance_accuracy_value', 'NONE');
#90 = DIRECTION ( 'NONE',  ( 0.000000000000000000, 0.000000000000000000, -1.000000000000000000 ) ) ;
#91 = ADVANCED_FACE ( 'NONE', ( #116 ), #174, .F. ) ;
#92 = STYLED_ITEM ( 'NONE', ( #176 ), #117 ) ;
#93 = LINE ( 'NONE', #148, #310 ) ;
#94 = LENGTH_MEASURE_WITH_UNIT ( LENGTH_MEASURE( 0.02539999999999999897 ), #228 );
#95 = DIRECTION ( 'NONE',  ( -0.000000000000000000, -1.000000000000000000, -0.000000000000000000 ) ) ;
#96 = ORIENTED_EDGE ( 'NONE', *, *, #256, .F. ) ;
#97 = CIRCLE ( 'NONE', #300, 0.1875000000000000278 ) ;
#98 = SPHERICAL_SURFACE ( 'NONE', #133, 0.1875000000000000555 ) ;
#99 = ORIENTED_EDGE ( 'NONE', *, *, #152, .T. ) ;
#100 = CARTESIAN_POINT ( 'NONE',  ( 2.449293598294708386E-16, 1.000000000000000000, 0.000000000000000000 ) ) ;
#101 = EDGE_LOOP ( 'NONE', ( #61, #74, #262, #316 ) ) ;
#102 =( NAMED_UNIT ( * ) SI_UNIT ( $, .STERADIAN. ) SOLID_ANGLE_UNIT ( ) );
#103 = DIMENSIONAL_EXPONENTS ( 1.000000000000000000, 0.000000000000000000, 0.000000000000000000, 0.000000000000000000, 0.000000000000000000, 0.000000000000000000, 0.000000000000000000 ) ;
#104 = VERTEX_POINT ( 'NONE', #358 ) ;
#105 = UNCERTAINTY_MEASURE_WITH_UNIT (LENGTH_MEASURE( 1.000000000000000082E-05 ), #275, 'distance_accuracy_value', 'NONE');
#106 = STYLED_ITEM ( 'NONE', ( #245 ), #367 ) ;
#107 = DIRECTION ( 'NONE',  ( -0.000000000000000000, -1.000000000000000000, -0.000000000000000000 ) ) ;
#108 = FILL_AREA_STYLE_COLOUR ( '', #261 ) ;
#109 = LENGTH_MEASURE_WITH_UNIT ( LENGTH_MEASURE( 0.02539999999999999897 ), #303 );
#110 = SURFACE_SIDE_STYLE ('',( #243 ) ) ;
#111 = CIRCLE ( 'NONE', #13, 0.1875000000000000555 ) ;
#112 = DIRECTION ( 'NONE',  ( -0.000000000000000000, -1.000000000000000000, -0.000000000000000000 ) ) ;
#113 = ADVANCED_FACE ( 'NONE', ( #22 ), #50, .T. ) ;
#114 =( NAMED_UNIT ( * ) SI_UNIT ( $, .STERADIAN. ) SOLID_ANGLE_UNIT ( ) );
#115 = FILL_AREA_STYLE ('',( #305 ) ) ;
#116 = FACE_OUTER_BOUND ( 'NONE', #207, .T. ) ;
#117 = ADVANCED_FACE ( 'NONE', ( #334 ), #220, .T. ) ;
#118 = SURFACE_STYLE_USAGE ( .BOTH. , #127 ) ;
#119 = SURFACE_STYLE_USAGE ( .BOTH. , #366 ) ;
#120 = EDGE_CURVE ( 'NONE', #104, #351, #361, .T. ) ;
#121 = DIRECTION ( 'NONE',  ( -1.000000000000000000, -1.836970198721030427E-16, 0.000000000000000000 ) ) ;
#122 = DIRECTION ( 'NONE',  ( 1.000000000000000000, 0.000000000000000000, 0.000000000000000000 ) ) ;
#123 = CARTESIAN_POINT ( 'NONE',  ( 0.000000000000000000, 0.1875000000000000555, -0.1875000000000000278 ) ) ;
#124 = CIRCLE ( 'NONE', #81, 0.1875000000000000278 ) ;
#125 = EDGE_LOOP ( 'NONE', ( #2, #240, #190, #216 ) ) ;
#126 = CIRCLE ( 'NONE', #236, 0.1874999999999999167 ) ;
#127 = SURFACE_SIDE_STYLE ('',( #364 ) ) ;
#128 =( CONVERSION_BASED_UNIT ( 'INCH', #32 ) LENGTH_UNIT ( ) NAMED_UNIT ( #103 ) );
#129 = VERTEX_POINT ( 'NONE', #149 ) ;
#130 = DIRECTION ( 'NONE',  ( -1.000000000000000000, 0.000000000000000000, 0.000000000000000000 ) ) ;
#131 = CARTESIAN_POINT ( 'NONE',  ( -2.296212748401287726E-17, 0.1875000000000000278, 0.000000000000000000 ) ) ;
#132 = PRESENTATION_LAYER_ASSIGNMENT (  '', '', ( #281 ) ) ;
#133 = AXIS2_PLACEMENT_3D ( 'NONE', #260, #6, #135 ) ;
#134 = COLOUR_RGB ( '',1.000000000000000000, 0.000000000000000000, 0.000000000000000000 ) ;
#135 = DIRECTION ( 'NONE',  ( 1.000000000000000000, 0.000000000000000000, 0.000000000000000000 ) ) ;
#136 = ORIENTED_EDGE ( 'NONE', *, *, #75, .F. ) ;
#137 = ORIENTED_EDGE ( 'NONE', *, *, #264, .F. ) ;
#138 = APPLICATION_CONTEXT ( 'automotive_design' ) ;
#139 = CARTESIAN_POINT ( 'NONE',  ( -0.1874999999999994449, 1.000000000000000000, 0.000000000000000000 ) ) ;
#140 = DIRECTION ( 'NONE',  ( -1.836970198721030674E-16, 1.000000000000000000, -0.000000000000000000 ) ) ;
#141 = AXIS2_PLACEMENT_3D ( 'NONE', #100, #9, #232 ) ;
#142 =( GEOMETRIC_REPRESENTATION_CONTEXT ( 3 ) GLOBAL_UNCERTAINTY_ASSIGNED_CONTEXT ( ( #89 ) ) GLOBAL_UNIT_ASSIGNED_CONTEXT ( ( #328, #17, #86 ) ) REPRESENTATION_CONTEXT ( 'NONE', 'WORKASPACE' ) );
#143 = CARTESIAN_POINT ( 'NONE',  ( 0.000000000000000000, 0.000000000000000000, 0.000000000000000000 ) ) ;
#144 = DIRECTION ( 'NONE',  ( 1.000000000000000000, 1.836970198721030427E-16, 0.000000000000000000 ) ) ;
#145 = DIRECTION ( 'NONE',  ( -0.000000000000000000, -1.000000000000000000, -0.000000000000000000 ) ) ;
#146 = MECHANICAL_DESIGN_GEOMETRIC_PRESENTATION_REPRESENTATION (  '', ( #203 ), #27 ) ;
#147 =( CONVERSION_BASED_UNIT ( 'INCH', #109 ) LENGTH_UNIT ( ) NAMED_UNIT ( #359 ) );
#148 = CARTESIAN_POINT ( 'NONE',  ( 2.296212748401286801E-17, 0.000000000000000000, 0.1874999999999999722 ) ) ;
#149 = CARTESIAN_POINT ( 'NONE',  ( 2.296212748401287109E-17, 0.1875000000000000555, 0.1875000000000000278 ) ) ;
#150 = COLOUR_RGB ( '',1.000000000000000000, 0.000000000000000000, 0.000000000000000000 ) ;
#151 = CARTESIAN_POINT ( 'NONE',  ( -2.296212748401287726E-17, 0.1875000000000000278, 0.000000000000000000 ) ) ;
#152 = EDGE_CURVE ( 'NONE', #349, #345, #337, .T. ) ;
#153 = CARTESIAN_POINT ( 'NONE',  ( 2.449293598294708386E-16, 1.000000000000000000, 0.000000000000000000 ) ) ;
#154 = DIRECTION ( 'NONE',  ( 0.000000000000000000, -0.000000000000000000, 1.000000000000000000 ) ) ;
#155 = VERTEX_POINT ( 'NONE', #368 ) ;
#156 = AXIS2_PLACEMENT_3D ( 'NONE', #182, #59, #250 ) ;
#157 = LENGTH_MEASURE_WITH_UNIT ( LENGTH_MEASURE( 0.02539999999999999897 ), #186 );
#158 = VERTEX_POINT ( 'NONE', #123 ) ;
#159 = CYLINDRICAL_SURFACE ( 'NONE', #40, 0.1874999999999998335 ) ;
#160 = EDGE_LOOP ( 'NONE', ( #4, #36, #284, #286 ) ) ;
#161 = COLOUR_RGB ( '',1.000000000000000000, 0.000000000000000000, 0.000000000000000000 ) ;
#162 = ADVANCED_FACE ( 'NONE', ( #180 ), #339, .F. ) ;
#163 = PRESENTATION_STYLE_ASSIGNMENT (( #41 ) ) ;
#164 = DIRECTION ( 'NONE',  ( -0.000000000000000000, -1.000000000000000000, -0.000000000000000000 ) ) ;
#165 = DIMENSIONAL_EXPONENTS ( 1.000000000000000000, 0.000000000000000000, 0.000000000000000000, 0.000000000000000000, 0.000000000000000000, 0.000000000000000000, 0.000000000000000000 ) ;
#166 = FACE_OUTER_BOUND ( 'NONE', #101, .T. ) ;
#167 = DIRECTION ( 'NONE',  ( 1.000000000000000000, 0.000000000000000000, -1.224646799147353207E-16 ) ) ;
#168 = DIRECTION ( 'NONE',  ( 0.000000000000000000, 0.000000000000000000, -1.000000000000000000 ) ) ;
#169 =( GEOMETRIC_REPRESENTATION_CONTEXT ( 3 ) GLOBAL_UNCERTAINTY_ASSIGNED_CONTEXT ( ( #206 ) ) GLOBAL_UNIT_ASSIGNED_CONTEXT ( ( #147, #51, #360 ) ) REPRESENTATION_CONTEXT ( 'NONE', 'WORKASPACE' ) );
#170 = DIRECTION ( 'NONE',  ( 0.000000000000000000, 0.000000000000000000, -1.000000000000000000 ) ) ;
#171 = PRESENTATION_LAYER_ASSIGNMENT (  '', '', ( #307 ) ) ;
#172 = CARTESIAN_POINT ( 'NONE',  ( -2.296212748401287726E-17, 0.1875000000000000278, 0.000000000000000000 ) ) ;
#173 = DIRECTION ( 'NONE',  ( 0.000000000000000000, 0.000000000000000000, -1.000000000000000000 ) ) ;
#174 = PLANE ( 'NONE',  #282 ) ;
#175 = UNCERTAINTY_MEASURE_WITH_UNIT (LENGTH_MEASURE( 1.000000000000000082E-05 ), #276, 'distance_accuracy_value', 'NONE');
#176 = PRESENTATION_STYLE_ASSIGNMENT (( #119 ) ) ;
#177 = FILL_AREA_STYLE_COLOUR ( '', #134 ) ;
#178 = EDGE_LOOP ( 'NONE', ( #96, #259 ) ) ;
#179 = AXIS2_PLACEMENT_3D ( 'NONE', #143, #324, #170 ) ;
#180 = FACE_OUTER_BOUND ( 'NONE', #178, .T. ) ;
#181 = EDGE_LOOP ( 'NONE', ( #66, #215, #252, #7, #338 ) ) ;
#182 = CARTESIAN_POINT ( 'NONE',  ( -1.224646799147353700E-16, 3.000000000000000444, 0.000000000000000000 ) ) ;
#183 = DIRECTION ( 'NONE',  ( -1.836970198721030674E-16, 1.000000000000000000, -0.000000000000000000 ) ) ;
#184 = ORIENTED_EDGE ( 'NONE', *, *, #75, .T. ) ;
#185 = MECHANICAL_DESIGN_GEOMETRIC_PRESENTATION_REPRESENTATION (  '', ( #281 ), #169 ) ;
#186 =( LENGTH_UNIT ( ) NAMED_UNIT ( * ) SI_UNIT ( $, .METRE. ) );
#187 = ORIENTED_EDGE ( 'NONE', *, *, #256, .T. ) ;
#188 = DIMENSIONAL_EXPONENTS ( 1.000000000000000000, 0.000000000000000000, 0.000000000000000000, 0.000000000000000000, 0.000000000000000000, 0.000000000000000000, 0.000000000000000000 ) ;
#189 =( NAMED_UNIT ( * ) PLANE_ANGLE_UNIT ( ) SI_UNIT ( $, .RADIAN. ) );
#190 = ORIENTED_EDGE ( 'NONE', *, *, #326, .T. ) ;
#191 = DIRECTION ( 'NONE',  ( -0.000000000000000000, -1.000000000000000000, -0.000000000000000000 ) ) ;
#192 = DIRECTION ( 'NONE',  ( -1.000000000000000000, 0.000000000000000000, 0.000000000000000000 ) ) ;
#193 = CARTESIAN_POINT ( 'NONE',  ( 0.000000000000000000, 1.000000000000000000, 0.000000000000000000 ) ) ;
#194 = DIMENSIONAL_EXPONENTS ( 1.000000000000000000, 0.000000000000000000, 0.000000000000000000, 0.000000000000000000, 0.000000000000000000, 0.000000000000000000, 0.000000000000000000 ) ;
#195 = FILL_AREA_STYLE ('',( #16 ) ) ;
#196 = EDGE_CURVE ( 'NONE', #254, #352, #247, .T. ) ;
#197 = VERTEX_POINT ( 'NONE', #308 ) ;
#198 = SURFACE_STYLE_USAGE ( .BOTH. , #266 ) ;
#199 = UNCERTAINTY_MEASURE_WITH_UNIT (LENGTH_MEASURE( 1.000000000000000082E-05 ), #265, 'distance_accuracy_value', 'NONE');
#200 = DIMENSIONAL_EXPONENTS ( 1.000000000000000000, 0.000000000000000000, 0.000000000000000000, 0.000000000000000000, 0.000000000000000000, 0.000000000000000000, 0.000000000000000000 ) ;
#201 = DIRECTION ( 'NONE',  ( -1.836970198721030674E-16, 1.000000000000000000, -0.000000000000000000 ) ) ;
#202 =( LENGTH_UNIT ( ) NAMED_UNIT ( * ) SI_UNIT ( $, .METRE. ) );
#203 = STYLED_ITEM ( 'NONE', ( #163 ), #346 ) ;
#204 = DIRECTION ( 'NONE',  ( 0.000000000000000000, 0.000000000000000000, 1.000000000000000000 ) ) ;
#205 = ORIENTED_EDGE ( 'NONE', *, *, #223, .F. ) ;
#206 = UNCERTAINTY_MEASURE_WITH_UNIT (LENGTH_MEASURE( 1.000000000000000082E-05 ), #147, 'distance_accuracy_value', 'NONE');
#207 = EDGE_LOOP ( 'NONE', ( #184, #369 ) ) ;
#208 =( GEOMETRIC_REPRESENTATION_CONTEXT ( 3 ) GLOBAL_UNCERTAINTY_ASSIGNED_CONTEXT ( ( #175 ) ) GLOBAL_UNIT_ASSIGNED_CONTEXT ( ( #276, #87, #114 ) ) REPRESENTATION_CONTEXT ( 'NONE', 'WORKASPACE' ) );
#209 = CYLINDRICAL_SURFACE ( 'NONE', #156, 0.1874999999999998335 ) ;
#210 = CARTESIAN_POINT ( 'NONE',  ( 0.000000000000000000, 0.000000000000000000, -0.1874999999999999722 ) ) ;
#211 = DIRECTION ( 'NONE',  ( 0.000000000000000000, 0.000000000000000000, -1.000000000000000000 ) ) ;
#212 = EDGE_LOOP ( 'NONE', ( #205, #67, #37, #12, #137 ) ) ;
#213 = DIMENSIONAL_EXPONENTS ( 1.000000000000000000, 0.000000000000000000, 0.000000000000000000, 0.000000000000000000, 0.000000000000000000, 0.000000000000000000, 0.000000000000000000 ) ;
#214 = DIRECTION ( 'NONE',  ( -0.000000000000000000, -1.000000000000000000, -0.000000000000000000 ) ) ;
#215 = ORIENTED_EDGE ( 'NONE', *, *, #223, .T. ) ;
#216 = ORIENTED_EDGE ( 'NONE', *, *, #120, .T. ) ;
#217 =( GEOMETRIC_REPRESENTATION_CONTEXT ( 3 ) GLOBAL_UNCERTAINTY_ASSIGNED_CONTEXT ( ( #199 ) ) GLOBAL_UNIT_ASSIGNED_CONTEXT ( ( #265, #218, #302 ) ) REPRESENTATION_CONTEXT ( 'NONE', 'WORKASPACE' ) );
#218 =( NAMED_UNIT ( * ) PLANE_ANGLE_UNIT ( ) SI_UNIT ( $, .RADIAN. ) );
#219 = FILL_AREA_STYLE ('',( #108 ) ) ;
#220 = PLANE ( 'NONE',  #251 ) ;
#221 = CARTESIAN_POINT ( 'NONE',  ( 0.000000000000000000, 0.000000000000000000, 0.000000000000000000 ) ) ;
#222 = CARTESIAN_POINT ( 'NONE',  ( 0.1874999999999999167, 3.000000000000000444, 0.000000000000000000 ) ) ;
#223 = EDGE_CURVE ( 'NONE', #352, #129, #93, .T. ) ;
#224 = SURFACE_STYLE_FILL_AREA ( #115 ) ;
#225 = COLOUR_RGB ( '',0.7921568627450980005, 0.8196078431372548767, 0.9333333333333333481 ) ;
#226 =( CONVERSION_BASED_UNIT ( 'INCH', #94 ) LENGTH_UNIT ( ) NAMED_UNIT ( #235 ) );
#227 = APPLICATION_PROTOCOL_DEFINITION ( 'draft international standard', 'automotive_design', 1998, #35 ) ;
#228 =( LENGTH_UNIT ( ) NAMED_UNIT ( * ) SI_UNIT ( $, .METRE. ) );
#229 = DIRECTION ( 'NONE',  ( 0.000000000000000000, 0.000000000000000000, -1.000000000000000000 ) ) ;
#230 = AXIS2_PLACEMENT_3D ( 'NONE', #151, #229, #54 ) ;
#231 = DIRECTION ( 'NONE',  ( -0.000000000000000000, -1.000000000000000000, -0.000000000000000000 ) ) ;
#232 = DIRECTION ( 'NONE',  ( -1.000000000000000000, 0.000000000000000000, 0.000000000000000000 ) ) ;
#233 = DIRECTION ( 'NONE',  ( -1.836970198721030674E-16, 1.000000000000000000, -0.000000000000000000 ) ) ;
#234 = AXIS2_PLACEMENT_3D ( 'NONE', #221, #145, #173 ) ;
#235 = DIMENSIONAL_EXPONENTS ( 1.000000000000000000, 0.000000000000000000, 0.000000000000000000, 0.000000000000000000, 0.000000000000000000, 0.000000000000000000, 0.000000000000000000 ) ;
#236 = AXIS2_PLACEMENT_3D ( 'NONE', #193, #112, #168 ) ;
#237 =( GEOMETRIC_REPRESENTATION_CONTEXT ( 3 ) GLOBAL_UNCERTAINTY_ASSIGNED_CONTEXT ( ( #105 ) ) GLOBAL_UNIT_ASSIGNED_CONTEXT ( ( #275, #248, #83 ) ) REPRESENTATION_CONTEXT ( 'NONE', 'WORKASPACE' ) );
#238 = ADVANCED_FACE ( 'NONE', ( #311 ), #209, .T. ) ;
#239 = SURFACE_STYLE_FILL_AREA ( #289 ) ;
#240 = ORIENTED_EDGE ( 'NONE', *, *, #25, .T. ) ;
#241 =( CONVERSION_BASED_UNIT ( 'INCH', #157 ) LENGTH_UNIT ( ) NAMED_UNIT ( #200 ) );
#242 = CARTESIAN_POINT ( 'NONE',  ( -0.1874999999999999722, 3.000000000000000444, 0.000000000000000000 ) ) ;
#243 = SURFACE_STYLE_FILL_AREA ( #219 ) ;
#244 = MANIFOLD_SOLID_BREP ( 'Revolve - Cutting Edge', #273 ) ;
#245 = PRESENTATION_STYLE_ASSIGNMENT (( #15 ) ) ;
#246 = LENGTH_MEASURE_WITH_UNIT ( LENGTH_MEASURE( 0.02539999999999999897 ), #202 );
#247 = CIRCLE ( 'NONE', #268, 0.1874999999999999167 ) ;
#248 =( NAMED_UNIT ( * ) PLANE_ANGLE_UNIT ( ) SI_UNIT ( $, .RADIAN. ) );
#249 = EDGE_CURVE ( 'NONE', #349, #317, #48, .T. ) ;
#250 = DIRECTION ( 'NONE',  ( -1.000000000000000000, 0.000000000000000000, 0.000000000000000000 ) ) ;
#251 = AXIS2_PLACEMENT_3D ( 'NONE', #371, #253, #154 ) ;
#252 = ORIENTED_EDGE ( 'NONE', *, *, #44, .F. ) ;
#253 = DIRECTION ( 'NONE',  ( 0.000000000000000000, 1.000000000000000000, 0.000000000000000000 ) ) ;
#254 = VERTEX_POINT ( 'NONE', #1 ) ;
#255 = PRODUCT_CONTEXT ( 'NONE', #138, 'mechanical' ) ;
#256 = EDGE_CURVE ( 'NONE', #317, #349, #65, .T. ) ;
#257 =( NAMED_UNIT ( * ) PLANE_ANGLE_UNIT ( ) SI_UNIT ( $, .RADIAN. ) );
#258 = CARTESIAN_POINT ( 'NONE',  ( 0.1874999999999996947, 3.000000000000000444, 2.296212748401285260E-17 ) ) ;
#259 = ORIENTED_EDGE ( 'NONE', *, *, #249, .F. ) ;
#260 = CARTESIAN_POINT ( 'NONE',  ( -2.296212748401287726E-17, 0.1875000000000000278, 0.000000000000000000 ) ) ;
#261 = COLOUR_RGB ( '',0.7921568627450980005, 0.8196078431372548767, 0.9333333333333333481 ) ;
#262 = ORIENTED_EDGE ( 'NONE', *, *, #120, .F. ) ;
#263 = DIRECTION ( 'NONE',  ( 0.000000000000000000, 0.000000000000000000, -1.000000000000000000 ) ) ;
#264 = EDGE_CURVE ( 'NONE', #129, #155, #19, .T. ) ;
#265 =( CONVERSION_BASED_UNIT ( 'INCH', #357 ) LENGTH_UNIT ( ) NAMED_UNIT ( #194 ) );
#266 = SURFACE_SIDE_STYLE ('',( #84 ) ) ;
#267 = PRESENTATION_LAYER_ASSIGNMENT (  '', '', ( #321 ) ) ;
#268 = AXIS2_PLACEMENT_3D ( 'NONE', #340, #231, #90 ) ;
#269 = FACE_OUTER_BOUND ( 'NONE', #181, .T. ) ;
#270 =( LENGTH_UNIT ( ) NAMED_UNIT ( * ) SI_UNIT ( $, .METRE. ) );
#271 = DIRECTION ( 'NONE',  ( 1.000000000000000000, 0.000000000000000000, 0.000000000000000000 ) ) ;
#272 = SURFACE_SIDE_STYLE ('',( #21 ) ) ;
#273 = CLOSED_SHELL ( 'NONE', ( #346, #367, #117, #68, #113 ) ) ;
#274 = VECTOR ( 'NONE', #60, 39.37007874015748143 ) ;
#275 =( CONVERSION_BASED_UNIT ( 'INCH', #304 ) LENGTH_UNIT ( ) NAMED_UNIT ( #188 ) );
#276 =( CONVERSION_BASED_UNIT ( 'INCH', #246 ) LENGTH_UNIT ( ) NAMED_UNIT ( #165 ) );
#277 = CARTESIAN_POINT ( 'NONE',  ( 0.000000000000000000, 0.000000000000000000, 0.000000000000000000 ) ) ;
#278 = FILL_AREA_STYLE ('',( #287 ) ) ;
#279 = SURFACE_STYLE_FILL_AREA ( #372 ) ;
#280 = ORIENTED_EDGE ( 'NONE', *, *, #196, .F. ) ;
#281 = STYLED_ITEM ( 'NONE', ( #301 ), #113 ) ;
#282 = AXIS2_PLACEMENT_3D ( 'NONE', #222, #18, #144 ) ;
#283 = PRESENTATION_LAYER_ASSIGNMENT (  '', '', ( #106 ) ) ;
#284 = ORIENTED_EDGE ( 'NONE', *, *, #52, .T. ) ;
#285 = PRESENTATION_STYLE_ASSIGNMENT (( #118 ) ) ;
#286 = ORIENTED_EDGE ( 'NONE', *, *, #38, .F. ) ;
#287 = FILL_AREA_STYLE_COLOUR ( '', #225 ) ;
#288 =( GEOMETRIC_REPRESENTATION_CONTEXT ( 3 ) GLOBAL_UNCERTAINTY_ASSIGNED_CONTEXT ( ( #327 ) ) GLOBAL_UNIT_ASSIGNED_CONTEXT ( ( #128, #189, #34 ) ) REPRESENTATION_CONTEXT ( 'NONE', 'WORKASPACE' ) );
#289 = FILL_AREA_STYLE ('',( #318 ) ) ;
#290 = SURFACE_SIDE_STYLE ('',( #239 ) ) ;
#291 = CIRCLE ( 'NONE', #26, 0.1875000000000000278 ) ;
#292 = AXIS2_PLACEMENT_3D ( 'NONE', #348, #214, #355 ) ;
#293 = CARTESIAN_POINT ( 'NONE',  ( 0.000000000000000000, 0.1875000000000000555, 0.000000000000000000 ) ) ;
#294 = CARTESIAN_POINT ( 'NONE',  ( 0.1874999999999998890, 3.000000000000000444, 2.296212748401286493E-17 ) ) ;
#295 = ORIENTED_EDGE ( 'NONE', *, *, #52, .F. ) ;
#296 =( LENGTH_UNIT ( ) NAMED_UNIT ( * ) SI_UNIT ( $, .METRE. ) );
#297 = CYLINDRICAL_SURFACE ( 'NONE', #234, 0.1874999999999999722 ) ;
#298 = SURFACE_SIDE_STYLE ('',( #224 ) ) ;
#299 = EDGE_CURVE ( 'NONE', #254, #158, #314, .T. ) ;
#300 = AXIS2_PLACEMENT_3D ( 'NONE', #62, #191, #211 ) ;
#301 = PRESENTATION_STYLE_ASSIGNMENT (( #198 ) ) ;
#302 =( NAMED_UNIT ( * ) SI_UNIT ( $, .STERADIAN. ) SOLID_ANGLE_UNIT ( ) );
#303 =( LENGTH_UNIT ( ) NAMED_UNIT ( * ) SI_UNIT ( $, .METRE. ) );
#304 = LENGTH_MEASURE_WITH_UNIT ( LENGTH_MEASURE( 0.02539999999999999897 ), #335 );
#305 = FILL_AREA_STYLE_COLOUR ( '', #161 ) ;
#306 = AXIS2_PLACEMENT_3D ( 'NONE', #153, #183, #130 ) ;
#307 = STYLED_ITEM ( 'NONE', ( #80 ), #370 ) ;
#308 = CARTESIAN_POINT ( 'NONE',  ( -0.1875000000000001943, 3.000000000000000444, 0.000000000000000000 ) ) ;
#309 = AXIS2_PLACEMENT_3D ( 'NONE', #131, #356, #167 ) ;
#310 = VECTOR ( 'NONE', #313, 39.37007874015748143 ) ;
#311 = FACE_OUTER_BOUND ( 'NONE', #160, .T. ) ;
#312 = UNCERTAINTY_MEASURE_WITH_UNIT (LENGTH_MEASURE( 1.000000000000000082E-05 ), #241, 'distance_accuracy_value', 'NONE');
#313 = DIRECTION ( 'NONE',  ( -0.000000000000000000, -1.000000000000000000, -0.000000000000000000 ) ) ;
#314 = LINE ( 'NONE', #210, #14 ) ;
#315 = CARTESIAN_POINT ( 'NONE',  ( 0.1874999999999998890, 1.000000000000000000, 2.296212748401286493E-17 ) ) ;
#316 = ORIENTED_EDGE ( 'NONE', *, *, #44, .T. ) ;
#317 = VERTEX_POINT ( 'NONE', #139 ) ;
#318 = FILL_AREA_STYLE_COLOUR ( '', #150 ) ;
#319 = CARTESIAN_POINT ( 'NONE',  ( 0.000000000000000000, 0.1875000000000000555, 0.000000000000000000 ) ) ;
#320 = CARTESIAN_POINT ( 'NONE',  ( -1.148106374200643555E-17, -3.414809992080329023E-17, 0.000000000000000000 ) ) ;
#321 = STYLED_ITEM ( 'NONE', ( #78 ), #68 ) ;
#322 = MECHANICAL_DESIGN_GEOMETRIC_PRESENTATION_REPRESENTATION (  '', ( #92 ), #365 ) ;
#323 = ADVANCED_FACE ( 'NONE', ( #3 ), #159, .T. ) ;
#324 = DIRECTION ( 'NONE',  ( -0.000000000000000000, -1.000000000000000000, -0.000000000000000000 ) ) ;
#325 = EDGE_LOOP ( 'NONE', ( #187, #99, #136, #295 ) ) ;
#326 = EDGE_CURVE ( 'NONE', #158, #104, #97, .T. ) ;
#327 = UNCERTAINTY_MEASURE_WITH_UNIT (LENGTH_MEASURE( 1.000000000000000082E-05 ), #128, 'distance_accuracy_value', 'NONE');
#328 =( CONVERSION_BASED_UNIT ( 'INCH', #362 ) LENGTH_UNIT ( ) NAMED_UNIT ( #213 ) );
#329 = FILL_AREA_STYLE ('',( #46 ) ) ;
#330 = MECHANICAL_DESIGN_GEOMETRIC_PRESENTATION_REPRESENTATION (  '', ( #72 ), #288 ) ;
#331 = MECHANICAL_DESIGN_GEOMETRIC_PRESENTATION_REPRESENTATION (  '', ( #106 ), #217 ) ;
#332 = PRODUCT_DEFINITION_FORMATION_WITH_SPECIFIED_SOURCE ( 'ANY', '', #373, .NOT_KNOWN. ) ;
#333 = SURFACE_STYLE_USAGE ( .BOTH. , #110 ) ;
#334 = FACE_OUTER_BOUND ( 'NONE', #63, .T. ) ;
#335 =( LENGTH_UNIT ( ) NAMED_UNIT ( * ) SI_UNIT ( $, .METRE. ) );
#336 = PRESENTATION_LAYER_ASSIGNMENT (  '', '', ( #92 ) ) ;
#337 = LINE ( 'NONE', #258, #274 ) ;
#338 = ORIENTED_EDGE ( 'NONE', *, *, #299, .F. ) ;
#339 = PLANE ( 'NONE',  #5 ) ;
#340 = CARTESIAN_POINT ( 'NONE',  ( 0.000000000000000000, 1.000000000000000000, 0.000000000000000000 ) ) ;
#341 = PRODUCT_RELATED_PRODUCT_CATEGORY ( 'part', '', ( #373 ) ) ;
#342 = CIRCLE ( 'NONE', #39, 0.1875000000000000555 ) ;
#343 = AXIS2_PLACEMENT_3D ( 'NONE', #277, #58, #122 ) ;
#344 = CARTESIAN_POINT ( 'NONE',  ( 2.449293598294706907E-16, 1.000000000000000000, 0.000000000000000000 ) ) ;
#345 = VERTEX_POINT ( 'NONE', #294 ) ;
#346 = ADVANCED_FACE ( 'NONE', ( #166 ), #98, .T. ) ;
#347 =( LENGTH_UNIT ( ) NAMED_UNIT ( * ) SI_UNIT ( $, .METRE. ) );
#348 = CARTESIAN_POINT ( 'NONE',  ( 0.000000000000000000, 0.1875000000000000555, 0.000000000000000000 ) ) ;
#349 = VERTEX_POINT ( 'NONE', #315 ) ;
#350 = PRESENTATION_LAYER_ASSIGNMENT (  '', '', ( #203 ) ) ;
#351 = VERTEX_POINT ( 'NONE', #320 ) ;
#352 = VERTEX_POINT ( 'NONE', #73 ) ;
#353 = DIRECTION ( 'NONE',  ( -1.836970198721030427E-16, 1.000000000000000000, -0.000000000000000000 ) ) ;
#354 = EDGE_CURVE ( 'NONE', #352, #254, #126, .T. ) ;
#355 = DIRECTION ( 'NONE',  ( 0.000000000000000000, 0.000000000000000000, -1.000000000000000000 ) ) ;
#356 = DIRECTION ( 'NONE',  ( 1.224646799147353207E-16, -0.000000000000000000, 1.000000000000000000 ) ) ;
#357 = LENGTH_MEASURE_WITH_UNIT ( LENGTH_MEASURE( 0.02539999999999999897 ), #296 );
#358 = CARTESIAN_POINT ( 'NONE',  ( 0.1875000000000000278, 0.1875000000000000555, 0.000000000000000000 ) ) ;
#359 = DIMENSIONAL_EXPONENTS ( 1.000000000000000000, 0.000000000000000000, 0.000000000000000000, 0.000000000000000000, 0.000000000000000000, 0.000000000000000000, 0.000000000000000000 ) ;
#360 =( NAMED_UNIT ( * ) SI_UNIT ( $, .STERADIAN. ) SOLID_ANGLE_UNIT ( ) );
#361 = CIRCLE ( 'NONE', #230, 0.1875000000000000555 ) ;
#362 = LENGTH_MEASURE_WITH_UNIT ( LENGTH_MEASURE( 0.02539999999999999897 ), #270 );
#363 = CARTESIAN_POINT ( 'NONE',  ( -1.224646799147353700E-16, 3.000000000000000444, 0.000000000000000000 ) ) ;
#364 = SURFACE_STYLE_FILL_AREA ( #278 ) ;
#365 =( GEOMETRIC_REPRESENTATION_CONTEXT ( 3 ) GLOBAL_UNCERTAINTY_ASSIGNED_CONTEXT ( ( #23 ) ) GLOBAL_UNIT_ASSIGNED_CONTEXT ( ( #226, #257, #28 ) ) REPRESENTATION_CONTEXT ( 'NONE', 'WORKASPACE' ) );
#366 = SURFACE_SIDE_STYLE ('',( #279 ) ) ;
#367 = ADVANCED_FACE ( 'NONE', ( #269 ), #76, .T. ) ;
#368 = CARTESIAN_POINT ( 'NONE',  ( -0.1875000000000000555, 0.1875000000000000555, 2.296212748401288034E-17 ) ) ;
#369 = ORIENTED_EDGE ( 'NONE', *, *, #38, .T. ) ;
#370 = MANIFOLD_SOLID_BREP ( 'Revolve - Tool Body (Straight Shanked)', #71 ) ;
#371 = CARTESIAN_POINT ( 'NONE',  ( 0.000000000000000000, 1.000000000000000000, 0.000000000000000000 ) ) ;
#372 = FILL_AREA_STYLE ('',( #177 ) ) ;
#373 = PRODUCT ( '83293', '83293', '', ( #255 ) ) ;
ENDSEC;
END-ISO-10303-21;
