ISO-10303-21;
HEADER;
FILE_DESCRIPTION (( 'STEP AP214' ),
    '1' );
FILE_NAME ('Micro_GEC-375-4-010X.STEP',
    '2021-09-03T17:22:19',
    ( '' ),
    ( '' ),
    'SwSTEP 2.0',
    'SolidWorks 2020',
    '' );
FILE_SCHEMA (( 'AUTOMOTIVE_DESIGN' ));
ENDSEC;

DATA;
#1 = CARTESIAN_POINT ( 'NONE',  ( 0.0000000000000000000, 0.0000000000000000000, 2.484999999999999432 ) ) ;
#2 = AXIS2_PLACEMENT_3D ( 'NONE', #178, #158, #146 ) ;
#3 = CIRCLE ( 'NONE', #74, 0.1724999999999995981 ) ;
#4 = FACE_OUTER_BOUND ( 'NONE', #234, .T. ) ;
#5 = CIRCLE ( 'NONE', #54, 0.009999999999999995004 ) ;
#6 = CARTESIAN_POINT ( 'NONE',  ( 0.0000000000000000000, 0.0000000000000000000, 2.500000000000000000 ) ) ;
#7 = ADVANCED_FACE ( 'NONE', ( #231 ), #38, .T. ) ;
#8 = DIRECTION ( 'NONE',  ( 1.000000000000000000, 0.0000000000000000000, 0.0000000000000000000 ) ) ;
#9 = AXIS2_PLACEMENT_3D ( 'NONE', #165, #263, #191 ) ;
#10 = EDGE_CURVE ( 'NONE', #336, #46, #5, .T. ) ;
#11 =( CONVERSION_BASED_UNIT ( 'INCH', #145 ) LENGTH_UNIT ( ) NAMED_UNIT ( #117 ) );
#12 = FACE_OUTER_BOUND ( 'NONE', #43, .T. ) ;
#13 = ORIENTED_EDGE ( 'NONE', *, *, #168, .T. ) ;
#14 = DIRECTION ( 'NONE',  ( 1.000000000000000000, 0.0000000000000000000, 0.0000000000000000000 ) ) ;
#15 = ORIENTED_EDGE ( 'NONE', *, *, #111, .T. ) ;
#16 = FACE_OUTER_BOUND ( 'NONE', #287, .T. ) ;
#17 = ORIENTED_EDGE ( 'NONE', *, *, #218, .T. ) ;
#18 = AXIS2_PLACEMENT_3D ( 'NONE', #1, #78, #268 ) ;
#19 = CARTESIAN_POINT ( 'NONE',  ( 0.0000000000000000000, 0.0000000000000000000, 2.484999999999999432 ) ) ;
#20 = DIRECTION ( 'NONE',  ( 0.0000000000000000000, 0.0000000000000000000, -1.000000000000000000 ) ) ;
#21 = EDGE_LOOP ( 'NONE', ( #186, #179, #228, #209 ) ) ;
#22 = DIRECTION ( 'NONE',  ( -1.000000000000000000, 0.0000000000000000000, 0.0000000000000000000 ) ) ;
#23 = PRODUCT_DEFINITION_FORMATION_WITH_SPECIFIED_SOURCE ( 'ANY', '', #119, .NOT_KNOWN. ) ;
#24 = DIRECTION ( 'NONE',  ( -0.0000000000000000000, -0.0000000000000000000, -1.000000000000000000 ) ) ;
#25 = DIRECTION ( 'NONE',  ( 0.0000000000000000000, 0.0000000000000000000, -1.000000000000000000 ) ) ;
#26 = CARTESIAN_POINT ( 'NONE',  ( -0.1724999999999995981, 0.0000000000000000000, 2.500000000000000000 ) ) ;
#27 = EDGE_CURVE ( 'NONE', #341, #336, #220, .T. ) ;
#28 = VECTOR ( 'NONE', #294, 39.37007874015748854 ) ;
#29 = AXIS2_PLACEMENT_3D ( 'NONE', #93, #274, #8 ) ;
#30 = FACE_OUTER_BOUND ( 'NONE', #170, .T. ) ;
#31 = CIRCLE ( 'NONE', #2, 0.1724999999999995981 ) ;
#32 = CIRCLE ( 'NONE', #207, 0.1873124999999999374 ) ;
#33 =( NAMED_UNIT ( * ) SI_UNIT ( $, .STERADIAN. ) SOLID_ANGLE_UNIT ( ) );
#34 = ORIENTED_EDGE ( 'NONE', *, *, #218, .F. ) ;
#35 =( LENGTH_UNIT ( ) NAMED_UNIT ( * ) SI_UNIT ( $, .METRE. ) );
#36 = PRESENTATION_LAYER_ASSIGNMENT (  '', '', ( #193 ) ) ;
#37 = LINE ( 'NONE', #65, #154 ) ;
#38 = TOROIDAL_SURFACE ( 'NONE', #324, 0.1773124999999999840, 0.01000000000000000021 ) ;
#39 = ORIENTED_EDGE ( 'NONE', *, *, #85, .T. ) ;
#40 = DIRECTION ( 'NONE',  ( 0.0000000000000000000, 0.0000000000000000000, -1.000000000000000000 ) ) ;
#41 = VERTEX_POINT ( 'NONE', #278 ) ;
#42 = DIRECTION ( 'NONE',  ( 0.7071067811865385799, 8.659560562354823157E-17, -0.7071067811865563435 ) ) ;
#43 = EDGE_LOOP ( 'NONE', ( #246, #17 ) ) ;
#44 = CIRCLE ( 'NONE', #56, 0.1773124999999999840 ) ;
#45 = DIRECTION ( 'NONE',  ( -0.1736481776669312749, 2.126576849575784241E-17, 0.9848077530122077983 ) ) ;
#46 = VERTEX_POINT ( 'NONE', #72 ) ;
#47 = PRODUCT_DEFINITION ( 'UNKNOWN', '', #23, #279 ) ;
#48 = CARTESIAN_POINT ( 'NONE',  ( 0.0000000000000000000, 0.0000000000000000000, 2.500000000000000000 ) ) ;
#49 = DIRECTION ( 'NONE',  ( -1.000000000000000000, 0.0000000000000000000, 0.0000000000000000000 ) ) ;
#50 = VECTOR ( 'NONE', #132, 39.37007874015748143 ) ;
#51 = DIRECTION ( 'NONE',  ( 1.224646799147353207E-16, 0.0000000000000000000, 1.000000000000000000 ) ) ;
#52 = DIRECTION ( 'NONE',  ( 0.0000000000000000000, 0.0000000000000000000, 1.000000000000000000 ) ) ;
#53 = FACE_OUTER_BOUND ( 'NONE', #151, .T. ) ;
#54 = AXIS2_PLACEMENT_3D ( 'NONE', #346, #327, #140 ) ;
#55 = CIRCLE ( 'NONE', #18, 0.1875000000000000278 ) ;
#56 = AXIS2_PLACEMENT_3D ( 'NONE', #114, #213, #212 ) ;
#57 = FILL_AREA_STYLE_COLOUR ( '', #338 ) ;
#58 = APPLICATION_CONTEXT ( 'automotive_design' ) ;
#59 = EDGE_LOOP ( 'NONE', ( #157, #66, #348, #315 ) ) ;
#60 = FILL_AREA_STYLE ('',( #57 ) ) ;
#61 = CARTESIAN_POINT ( 'NONE',  ( -0.1773124999999999840, 2.232684195695518071E-17, 0.0000000000000000000 ) ) ;
#62 = DIRECTION ( 'NONE',  ( 0.0000000000000000000, 0.0000000000000000000, 1.000000000000000000 ) ) ;
#63 = CIRCLE ( 'NONE', #113, 0.1875000000000000278 ) ;
#64 = EDGE_LOOP ( 'NONE', ( #203, #70, #176, #159 ) ) ;
#65 = CARTESIAN_POINT ( 'NONE',  ( -0.1873124999999998541, 2.293916535652885288E-17, 0.8750000000000000000 ) ) ;
#66 = ORIENTED_EDGE ( 'NONE', *, *, #118, .T. ) ;
#67 = ADVANCED_FACE ( 'NONE', ( #12 ), #281, .F. ) ;
#68 = FILL_AREA_STYLE_COLOUR ( '', #349 ) ;
#69 = DIRECTION ( 'NONE',  ( 1.000000000000000000, 0.0000000000000000000, 0.0000000000000000000 ) ) ;
#70 = ORIENTED_EDGE ( 'NONE', *, *, #275, .T. ) ;
#71 = SURFACE_STYLE_USAGE ( .BOTH. , #90 ) ;
#72 = CARTESIAN_POINT ( 'NONE',  ( -0.1873124999999999929, 0.0000000000000000000, 0.01000000000000000194 ) ) ;
#73 = VERTEX_POINT ( 'NONE', #317 ) ;
#74 = AXIS2_PLACEMENT_3D ( 'NONE', #187, #52, #210 ) ;
#75 = DIRECTION ( 'NONE',  ( -1.224646799147353207E-16, -0.0000000000000000000, -1.000000000000000000 ) ) ;
#76 = EDGE_CURVE ( 'NONE', #252, #41, #175, .T. ) ;
#77 = ORIENTED_EDGE ( 'NONE', *, *, #160, .F. ) ;
#78 = DIRECTION ( 'NONE',  ( 0.0000000000000000000, 0.0000000000000000000, -1.000000000000000000 ) ) ;
#79 = DIRECTION ( 'NONE',  ( -1.224646799147353207E-16, -0.0000000000000000000, -1.000000000000000000 ) ) ;
#80 = AXIS2_PLACEMENT_3D ( 'NONE', #344, #94, #307 ) ;
#81 = ADVANCED_BREP_SHAPE_REPRESENTATION ( 'Micro_GEC-375-4-010X', ( #310, #29 ), #300 ) ;
#82 = LINE ( 'NONE', #115, #245 ) ;
#83 = DIRECTION ( 'NONE',  ( 1.000000000000000000, 0.0000000000000000000, 0.0000000000000000000 ) ) ;
#84 = FACE_OUTER_BOUND ( 'NONE', #95, .T. ) ;
#85 = EDGE_CURVE ( 'NONE', #130, #41, #37, .T. ) ;
#86 = EDGE_CURVE ( 'NONE', #205, #98, #31, .T. ) ;
#87 = VECTOR ( 'NONE', #227, 39.37007874015748143 ) ;
#88 = SURFACE_SIDE_STYLE ('',( #195 ) ) ;
#89 = ADVANCED_FACE ( 'NONE', ( #16 ), #311, .T. ) ;
#90 = SURFACE_SIDE_STYLE ('',( #121 ) ) ;
#91 = DIMENSIONAL_EXPONENTS ( 1.000000000000000000, 0.0000000000000000000, 0.0000000000000000000, 0.0000000000000000000, 0.0000000000000000000, 0.0000000000000000000, 0.0000000000000000000 ) ;
#92 = DIRECTION ( 'NONE',  ( 1.000000000000000000, 0.0000000000000000000, 0.0000000000000000000 ) ) ;
#93 = CARTESIAN_POINT ( 'NONE',  ( 0.0000000000000000000, 0.0000000000000000000, 0.0000000000000000000 ) ) ;
#94 = DIRECTION ( 'NONE',  ( -1.224646799147353207E-16, -0.0000000000000000000, -1.000000000000000000 ) ) ;
#95 = EDGE_LOOP ( 'NONE', ( #342, #13, #100, #291 ) ) ;
#96 = CIRCLE ( 'NONE', #142, 0.01000000000000000021 ) ;
#97 = TOROIDAL_SURFACE ( 'NONE', #296, 0.1773124999999999840, 0.01000000000000000021 ) ;
#98 = VERTEX_POINT ( 'NONE', #123 ) ;
#99 = FILL_AREA_STYLE ('',( #68 ) ) ;
#100 = ORIENTED_EDGE ( 'NONE', *, *, #76, .T. ) ;
#101 = LENGTH_MEASURE_WITH_UNIT ( LENGTH_MEASURE( 0.02539999999999999897 ), #250 );
#102 = CARTESIAN_POINT ( 'NONE',  ( 1.224646799147353384E-18, 0.0000000000000000000, 0.01000000000000000021 ) ) ;
#103 = EDGE_CURVE ( 'NONE', #323, #153, #181, .T. ) ;
#104 = LINE ( 'NONE', #26, #28 ) ;
#105 = ORIENTED_EDGE ( 'NONE', *, *, #168, .F. ) ;
#106 = CONICAL_SURFACE ( 'NONE', #201, 0.1724999999999995981, 0.7853981633974357335 ) ;
#107 = CYLINDRICAL_SURFACE ( 'NONE', #171, 0.1873124999999999929 ) ;
#108 = CLOSED_SHELL ( 'NONE', ( #302, #148, #221, #240, #198, #290, #243, #262, #89, #211, #67, #7 ) ) ;
#109 = EDGE_CURVE ( 'NONE', #341, #73, #96, .T. ) ;
#110 = LINE ( 'NONE', #297, #303 ) ;
#111 = EDGE_CURVE ( 'NONE', #153, #41, #223, .T. ) ;
#112 = CARTESIAN_POINT ( 'NONE',  ( 1.071565949253934025E-16, 0.0000000000000000000, 0.8750000000000000000 ) ) ;
#113 = AXIS2_PLACEMENT_3D ( 'NONE', #167, #236, #350 ) ;
#114 = CARTESIAN_POINT ( 'NONE',  ( 1.224646799147353384E-18, 0.0000000000000000000, 0.0000000000000000000 ) ) ;
#115 = CARTESIAN_POINT ( 'NONE',  ( 0.1873124999999999929, 2.293916535652885596E-17, -2.293916535652885596E-17 ) ) ;
#116 = EDGE_CURVE ( 'NONE', #46, #73, #313, .T. ) ;
#117 = DIMENSIONAL_EXPONENTS ( 1.000000000000000000, 0.0000000000000000000, 0.0000000000000000000, 0.0000000000000000000, 0.0000000000000000000, 0.0000000000000000000, 0.0000000000000000000 ) ;
#118 = EDGE_CURVE ( 'NONE', #205, #282, #286, .T. ) ;
#119 = PRODUCT ( 'Micro_GEC-375-4-010X', 'Micro_GEC-375-4-010X', '', ( #199 ) ) ;
#120 = CIRCLE ( 'NONE', #214, 0.1873124999999999374 ) ;
#121 = SURFACE_STYLE_FILL_AREA ( #99 ) ;
#122 =( CONVERSION_BASED_UNIT ( 'INCH', #101 ) LENGTH_UNIT ( ) NAMED_UNIT ( #91 ) );
#123 = CARTESIAN_POINT ( 'NONE',  ( -0.1724999999999995981, 0.0000000000000000000, 2.500000000000000000 ) ) ;
#124 = ORIENTED_EDGE ( 'NONE', *, *, #173, .T. ) ;
#125 = ORIENTED_EDGE ( 'NONE', *, *, #85, .F. ) ;
#126 = CIRCLE ( 'NONE', #333, 0.1873124999999999929 ) ;
#127 = CARTESIAN_POINT ( 'NONE',  ( 1.071565949253934025E-16, 0.0000000000000000000, 0.8750000000000000000 ) ) ;
#128 = ORIENTED_EDGE ( 'NONE', *, *, #116, .T. ) ;
#129 = APPLICATION_PROTOCOL_DEFINITION ( 'draft international standard', 'automotive_design', 1998, #58 ) ;
#130 = VERTEX_POINT ( 'NONE', #340 ) ;
#131 = UNCERTAINTY_MEASURE_WITH_UNIT (LENGTH_MEASURE( 1.000000000000000082E-05 ), #11, 'distance_accuracy_value', 'NONE');
#132 = DIRECTION ( 'NONE',  ( -0.0000000000000000000, -0.0000000000000000000, -1.000000000000000000 ) ) ;
#133 = ORIENTED_EDGE ( 'NONE', *, *, #10, .T. ) ;
#134 = CARTESIAN_POINT ( 'NONE',  ( 0.1875000000000000833, 2.296212748401288650E-17, 0.8760633653411785682 ) ) ;
#135 = CARTESIAN_POINT ( 'NONE',  ( 0.0000000000000000000, 0.0000000000000000000, 2.500000000000000000 ) ) ;
#136 = LINE ( 'NONE', #266, #138 ) ;
#137 = DIRECTION ( 'NONE',  ( 0.0000000000000000000, 0.0000000000000000000, 1.000000000000000000 ) ) ;
#138 = VECTOR ( 'NONE', #24, 39.37007874015748143 ) ;
#139 = CARTESIAN_POINT ( 'NONE',  ( 0.0000000000000000000, 0.0000000000000000000, 2.500000000000000000 ) ) ;
#140 = DIRECTION ( 'NONE',  ( -1.000000000000000000, 1.224646799147354933E-16, 0.0000000000000000000 ) ) ;
#141 = EDGE_CURVE ( 'NONE', #323, #130, #120, .T. ) ;
#142 = AXIS2_PLACEMENT_3D ( 'NONE', #152, #255, #20 ) ;
#143 = CONICAL_SURFACE ( 'NONE', #288, 0.1724999999999995981, 0.7853981633974357335 ) ;
#144 = LENGTH_MEASURE_WITH_UNIT ( LENGTH_MEASURE( 0.02539999999999999897 ), #35 );
#145 = LENGTH_MEASURE_WITH_UNIT ( LENGTH_MEASURE( 0.02539999999999999897 ), #257 );
#146 = DIRECTION ( 'NONE',  ( 1.000000000000000000, 0.0000000000000000000, 0.0000000000000000000 ) ) ;
#147 = ORIENTED_EDGE ( 'NONE', *, *, #331, .F. ) ;
#148 = ADVANCED_FACE ( 'NONE', ( #239 ), #326, .T. ) ;
#149 = EDGE_CURVE ( 'NONE', #73, #46, #126, .T. ) ;
#150 = CARTESIAN_POINT ( 'NONE',  ( 1.224646799147353577E-18, 0.0000000000000000000, 0.01000000000000000194 ) ) ;
#151 = EDGE_LOOP ( 'NONE', ( #256, #229, #182, #128 ) ) ;
#152 = CARTESIAN_POINT ( 'NONE',  ( 0.1773124999999999840, 0.0000000000000000000, 0.01000000000000000021 ) ) ;
#153 = VERTEX_POINT ( 'NONE', #134 ) ;
#154 = VECTOR ( 'NONE', #45, 39.37007874015748143 ) ;
#155 = CARTESIAN_POINT ( 'NONE',  ( 0.0000000000000000000, 0.0000000000000000000, 0.0000000000000000000 ) ) ;
#156 = EDGE_CURVE ( 'NONE', #130, #46, #110, .T. ) ;
#157 = ORIENTED_EDGE ( 'NONE', *, *, #86, .F. ) ;
#158 = DIRECTION ( 'NONE',  ( 0.0000000000000000000, 0.0000000000000000000, 1.000000000000000000 ) ) ;
#159 = ORIENTED_EDGE ( 'NONE', *, *, #156, .F. ) ;
#160 = EDGE_CURVE ( 'NONE', #98, #205, #3, .T. ) ;
#161 = DIRECTION ( 'NONE',  ( -1.000000000000000000, 0.0000000000000000000, 0.0000000000000000000 ) ) ;
#162 = AXIS2_PLACEMENT_3D ( 'NONE', #127, #260, #69 ) ;
#163 = CARTESIAN_POINT ( 'NONE',  ( 0.0000000000000000000, 0.0000000000000000000, 0.0000000000000000000 ) ) ;
#164 = AXIS2_PLACEMENT_3D ( 'NONE', #150, #62, #14 ) ;
#165 = CARTESIAN_POINT ( 'NONE',  ( 0.0000000000000000000, 0.0000000000000000000, 0.0000000000000000000 ) ) ;
#166 = DIRECTION ( 'NONE',  ( -1.000000000000000000, 0.0000000000000000000, 0.0000000000000000000 ) ) ;
#167 = CARTESIAN_POINT ( 'NONE',  ( 1.072868196215332765E-16, 0.0000000000000000000, 0.8760633653411785682 ) ) ;
#168 = EDGE_CURVE ( 'NONE', #282, #252, #55, .T. ) ;
#169 = MECHANICAL_DESIGN_GEOMETRIC_PRESENTATION_REPRESENTATION (  '', ( #183 ), #189 ) ;
#170 = EDGE_LOOP ( 'NONE', ( #345, #248 ) ) ;
#171 = AXIS2_PLACEMENT_3D ( 'NONE', #163, #75, #237 ) ;
#172 = SURFACE_STYLE_USAGE ( .BOTH. , #88 ) ;
#173 = EDGE_CURVE ( 'NONE', #41, #153, #63, .T. ) ;
#174 = CIRCLE ( 'NONE', #301, 0.1875000000000000278 ) ;
#175 = LINE ( 'NONE', #289, #50 ) ;
#176 = ORIENTED_EDGE ( 'NONE', *, *, #149, .T. ) ;
#177 = APPLICATION_CONTEXT ( 'automotive_design' ) ;
#178 = CARTESIAN_POINT ( 'NONE',  ( 0.0000000000000000000, 0.0000000000000000000, 2.500000000000000000 ) ) ;
#179 = ORIENTED_EDGE ( 'NONE', *, *, #27, .F. ) ;
#180 = PRESENTATION_STYLE_ASSIGNMENT (( #71 ) ) ;
#181 = LINE ( 'NONE', #230, #87 ) ;
#182 = ORIENTED_EDGE ( 'NONE', *, *, #156, .T. ) ;
#183 = STYLED_ITEM ( 'NONE', ( #306 ), #310 ) ;
#184 = ORIENTED_EDGE ( 'NONE', *, *, #141, .F. ) ;
#185 = CARTESIAN_POINT ( 'NONE',  ( -0.1875000000000000278, 0.0000000000000000000, 2.484999999999999432 ) ) ;
#186 = ORIENTED_EDGE ( 'NONE', *, *, #10, .F. ) ;
#187 = CARTESIAN_POINT ( 'NONE',  ( 0.0000000000000000000, 0.0000000000000000000, 2.500000000000000000 ) ) ;
#188 = DIRECTION ( 'NONE',  ( 1.000000000000000000, 0.0000000000000000000, 0.0000000000000000000 ) ) ;
#189 =( GEOMETRIC_REPRESENTATION_CONTEXT ( 3 ) GLOBAL_UNCERTAINTY_ASSIGNED_CONTEXT ( ( #305 ) ) GLOBAL_UNIT_ASSIGNED_CONTEXT ( ( #247, #273, #33 ) ) REPRESENTATION_CONTEXT ( 'NONE', 'WORKASPACE' ) );
#190 = CARTESIAN_POINT ( 'NONE',  ( 1.224646799147353577E-18, 0.0000000000000000000, 0.01000000000000000194 ) ) ;
#191 = DIRECTION ( 'NONE',  ( -1.000000000000000000, 0.0000000000000000000, 1.224646799147352961E-16 ) ) ;
#192 = CYLINDRICAL_SURFACE ( 'NONE', #265, 0.1875000000000000278 ) ;
#193 = STYLED_ITEM ( 'NONE', ( #180 ), #81 ) ;
#194 = CONICAL_SURFACE ( 'NONE', #249, 0.1873124999999999374, 0.1745329251994340025 ) ;
#195 = SURFACE_STYLE_FILL_AREA ( #60 ) ;
#196 = ORIENTED_EDGE ( 'NONE', *, *, #272, .T. ) ;
#197 = DIRECTION ( 'NONE',  ( -1.000000000000000000, 0.0000000000000000000, 0.0000000000000000000 ) ) ;
#198 = ADVANCED_FACE ( 'NONE', ( #4 ), #329, .T. ) ;
#199 = PRODUCT_CONTEXT ( 'NONE', #58, 'mechanical' ) ;
#200 = ORIENTED_EDGE ( 'NONE', *, *, #118, .F. ) ;
#201 = AXIS2_PLACEMENT_3D ( 'NONE', #135, #241, #49 ) ;
#202 =( NAMED_UNIT ( * ) SI_UNIT ( $, .STERADIAN. ) SOLID_ANGLE_UNIT ( ) );
#203 = ORIENTED_EDGE ( 'NONE', *, *, #331, .T. ) ;
#204 = DIRECTION ( 'NONE',  ( 1.000000000000000000, 0.0000000000000000000, 0.0000000000000000000 ) ) ;
#205 = VERTEX_POINT ( 'NONE', #269 ) ;
#206 = DIRECTION ( 'NONE',  ( 0.0000000000000000000, 0.0000000000000000000, 1.000000000000000000 ) ) ;
#207 = AXIS2_PLACEMENT_3D ( 'NONE', #280, #224, #197 ) ;
#208 = FACE_OUTER_BOUND ( 'NONE', #312, .T. ) ;
#209 = ORIENTED_EDGE ( 'NONE', *, *, #116, .F. ) ;
#210 = DIRECTION ( 'NONE',  ( 1.000000000000000000, 0.0000000000000000000, 0.0000000000000000000 ) ) ;
#211 = ADVANCED_FACE ( 'NONE', ( #53 ), #107, .T. ) ;
#212 = DIRECTION ( 'NONE',  ( 1.000000000000000000, 0.0000000000000000000, 0.0000000000000000000 ) ) ;
#213 = DIRECTION ( 'NONE',  ( -0.0000000000000000000, -0.0000000000000000000, -1.000000000000000000 ) ) ;
#214 = AXIS2_PLACEMENT_3D ( 'NONE', #112, #79, #22 ) ;
#215 = EDGE_CURVE ( 'NONE', #98, #252, #104, .T. ) ;
#216 = DIRECTION ( 'NONE',  ( -0.0000000000000000000, -0.0000000000000000000, -1.000000000000000000 ) ) ;
#217 = PRODUCT_DEFINITION_SHAPE ( 'NONE', 'NONE',  #47 ) ;
#218 = EDGE_CURVE ( 'NONE', #336, #341, #44, .T. ) ;
#219 = DIRECTION ( 'NONE',  ( -1.224646799147353207E-16, -0.0000000000000000000, -1.000000000000000000 ) ) ;
#220 = CIRCLE ( 'NONE', #264, 0.1773124999999999840 ) ;
#221 = ADVANCED_FACE ( 'NONE', ( #208 ), #194, .T. ) ;
#222 = CARTESIAN_POINT ( 'NONE',  ( 1.224646799147353384E-18, 0.0000000000000000000, 0.0000000000000000000 ) ) ;
#223 = CIRCLE ( 'NONE', #80, 0.1875000000000000278 ) ;
#224 = DIRECTION ( 'NONE',  ( -1.224646799147353207E-16, -0.0000000000000000000, -1.000000000000000000 ) ) ;
#225 = SHAPE_DEFINITION_REPRESENTATION ( #217, #81 ) ;
#226 = DIRECTION ( 'NONE',  ( 0.0000000000000000000, 0.0000000000000000000, 1.000000000000000000 ) ) ;
#227 = DIRECTION ( 'NONE',  ( 0.1736481776669314969, 0.0000000000000000000, 0.9848077530122077983 ) ) ;
#228 = ORIENTED_EDGE ( 'NONE', *, *, #109, .T. ) ;
#229 = ORIENTED_EDGE ( 'NONE', *, *, #141, .T. ) ;
#230 = CARTESIAN_POINT ( 'NONE',  ( 0.1873125000000000484, 0.0000000000000000000, 0.8750000000000000000 ) ) ;
#231 = FACE_OUTER_BOUND ( 'NONE', #21, .T. ) ;
#232 = DIRECTION ( 'NONE',  ( 1.000000000000000000, 0.0000000000000000000, 0.0000000000000000000 ) ) ;
#233 = ORIENTED_EDGE ( 'NONE', *, *, #109, .F. ) ;
#234 = EDGE_LOOP ( 'NONE', ( #259, #196, #284, #261 ) ) ;
#235 = MECHANICAL_DESIGN_GEOMETRIC_PRESENTATION_REPRESENTATION (  '', ( #193 ), #321 ) ;
#236 = DIRECTION ( 'NONE',  ( -1.224646799147353207E-16, -0.0000000000000000000, -1.000000000000000000 ) ) ;
#237 = DIRECTION ( 'NONE',  ( -1.000000000000000000, 0.0000000000000000000, 1.224646799147352961E-16 ) ) ;
#238 = DIMENSIONAL_EXPONENTS ( 1.000000000000000000, 0.0000000000000000000, 0.0000000000000000000, 0.0000000000000000000, 0.0000000000000000000, 0.0000000000000000000, 0.0000000000000000000 ) ;
#239 = FACE_OUTER_BOUND ( 'NONE', #64, .T. ) ;
#240 = ADVANCED_FACE ( 'NONE', ( #298 ), #106, .T. ) ;
#241 = DIRECTION ( 'NONE',  ( 0.0000000000000000000, 0.0000000000000000000, -1.000000000000000000 ) ) ;
#242 = AXIS2_PLACEMENT_3D ( 'NONE', #139, #244, #322 ) ;
#243 = ADVANCED_FACE ( 'NONE', ( #30 ), #330, .T. ) ;
#244 = DIRECTION ( 'NONE',  ( 0.0000000000000000000, 0.0000000000000000000, 1.000000000000000000 ) ) ;
#245 = VECTOR ( 'NONE', #219, 39.37007874015748143 ) ;
#246 = ORIENTED_EDGE ( 'NONE', *, *, #27, .T. ) ;
#247 =( CONVERSION_BASED_UNIT ( 'INCH', #144 ) LENGTH_UNIT ( ) NAMED_UNIT ( #238 ) );
#248 = ORIENTED_EDGE ( 'NONE', *, *, #86, .T. ) ;
#249 = AXIS2_PLACEMENT_3D ( 'NONE', #325, #51, #188 ) ;
#250 =( LENGTH_UNIT ( ) NAMED_UNIT ( * ) SI_UNIT ( $, .METRE. ) );
#251 = DIRECTION ( 'NONE',  ( 1.000000000000000000, 0.0000000000000000000, -0.0000000000000000000 ) ) ;
#252 = VERTEX_POINT ( 'NONE', #185 ) ;
#253 = CARTESIAN_POINT ( 'NONE',  ( 0.1773124999999999840, 0.0000000000000000000, 0.0000000000000000000 ) ) ;
#254 = ORIENTED_EDGE ( 'NONE', *, *, #149, .F. ) ;
#255 = DIRECTION ( 'NONE',  ( 0.0000000000000000000, -1.000000000000000000, 0.0000000000000000000 ) ) ;
#256 = ORIENTED_EDGE ( 'NONE', *, *, #275, .F. ) ;
#257 =( LENGTH_UNIT ( ) NAMED_UNIT ( * ) SI_UNIT ( $, .METRE. ) );
#258 = CARTESIAN_POINT ( 'NONE',  ( 0.1724999999999995981, 2.112515728529179297E-17, 2.500000000000000000 ) ) ;
#259 = ORIENTED_EDGE ( 'NONE', *, *, #334, .T. ) ;
#260 = DIRECTION ( 'NONE',  ( 1.224646799147353207E-16, 0.0000000000000000000, 1.000000000000000000 ) ) ;
#261 = ORIENTED_EDGE ( 'NONE', *, *, #76, .F. ) ;
#262 = ADVANCED_FACE ( 'NONE', ( #292 ), #143, .T. ) ;
#263 = DIRECTION ( 'NONE',  ( -1.224646799147353207E-16, -0.0000000000000000000, -1.000000000000000000 ) ) ;
#264 = AXIS2_PLACEMENT_3D ( 'NONE', #222, #347, #232 ) ;
#265 = AXIS2_PLACEMENT_3D ( 'NONE', #6, #270, #295 ) ;
#266 = CARTESIAN_POINT ( 'NONE',  ( 0.1875000000000000278, 2.296212748401287726E-17, 2.500000000000000000 ) ) ;
#267 = CARTESIAN_POINT ( 'NONE',  ( 0.0000000000000000000, 0.0000000000000000000, 2.500000000000000000 ) ) ;
#268 = DIRECTION ( 'NONE',  ( 1.000000000000000000, 0.0000000000000000000, 0.0000000000000000000 ) ) ;
#269 = CARTESIAN_POINT ( 'NONE',  ( 0.1724999999999995981, 2.204364238465233357E-17, 2.500000000000000000 ) ) ;
#270 = DIRECTION ( 'NONE',  ( -0.0000000000000000000, -0.0000000000000000000, -1.000000000000000000 ) ) ;
#271 = VECTOR ( 'NONE', #42, 39.37007874015748854 ) ;
#272 = EDGE_CURVE ( 'NONE', #282, #153, #136, .T. ) ;
#273 =( NAMED_UNIT ( * ) PLANE_ANGLE_UNIT ( ) SI_UNIT ( $, .RADIAN. ) );
#274 = DIRECTION ( 'NONE',  ( 0.0000000000000000000, 0.0000000000000000000, 1.000000000000000000 ) ) ;
#275 = EDGE_CURVE ( 'NONE', #323, #73, #82, .T. ) ;
#276 = EDGE_LOOP ( 'NONE', ( #34, #133, #254, #233 ) ) ;
#277 = CARTESIAN_POINT ( 'NONE',  ( 0.1873125000000000484, 0.0000000000000000000, 0.8750000000000000000 ) ) ;
#278 = CARTESIAN_POINT ( 'NONE',  ( -0.1874999999999999167, 0.0000000000000000000, 0.8760633653411785682 ) ) ;
#279 = PRODUCT_DEFINITION_CONTEXT ( 'detailed design', #177, 'design' ) ;
#280 = CARTESIAN_POINT ( 'NONE',  ( 1.071565949253934025E-16, 0.0000000000000000000, 0.8750000000000000000 ) ) ;
#281 = PLANE ( 'NONE',  #337 ) ;
#282 = VERTEX_POINT ( 'NONE', #332 ) ;
#283 = APPLICATION_PROTOCOL_DEFINITION ( 'draft international standard', 'automotive_design', 1998, #177 ) ;
#284 = ORIENTED_EDGE ( 'NONE', *, *, #173, .F. ) ;
#285 =( NAMED_UNIT ( * ) PLANE_ANGLE_UNIT ( ) SI_UNIT ( $, .RADIAN. ) );
#286 = LINE ( 'NONE', #258, #271 ) ;
#287 = EDGE_LOOP ( 'NONE', ( #125, #184, #304, #15 ) ) ;
#288 = AXIS2_PLACEMENT_3D ( 'NONE', #48, #25, #161 ) ;
#289 = CARTESIAN_POINT ( 'NONE',  ( -0.1875000000000000278, 0.0000000000000000000, 2.500000000000000000 ) ) ;
#290 = ADVANCED_FACE ( 'NONE', ( #84 ), #192, .T. ) ;
#291 = ORIENTED_EDGE ( 'NONE', *, *, #111, .F. ) ;
#292 = FACE_OUTER_BOUND ( 'NONE', #318, .T. ) ;
#293 = ORIENTED_EDGE ( 'NONE', *, *, #215, .T. ) ;
#294 = DIRECTION ( 'NONE',  ( -0.7071067811865385799, 0.0000000000000000000, -0.7071067811865563435 ) ) ;
#295 = DIRECTION ( 'NONE',  ( -1.000000000000000000, 0.0000000000000000000, 0.0000000000000000000 ) ) ;
#296 = AXIS2_PLACEMENT_3D ( 'NONE', #339, #226, #92 ) ;
#297 = CARTESIAN_POINT ( 'NONE',  ( -0.1873124999999999929, 0.0000000000000000000, 2.293916535652885596E-17 ) ) ;
#298 = FACE_OUTER_BOUND ( 'NONE', #59, .T. ) ;
#299 = DIRECTION ( 'NONE',  ( 1.000000000000000000, 0.0000000000000000000, 0.0000000000000000000 ) ) ;
#300 =( GEOMETRIC_REPRESENTATION_CONTEXT ( 3 ) GLOBAL_UNCERTAINTY_ASSIGNED_CONTEXT ( ( #131 ) ) GLOBAL_UNIT_ASSIGNED_CONTEXT ( ( #11, #316, #202 ) ) REPRESENTATION_CONTEXT ( 'NONE', 'WORKASPACE' ) );
#301 = AXIS2_PLACEMENT_3D ( 'NONE', #19, #40, #204 ) ;
#302 = ADVANCED_FACE ( 'NONE', ( #308 ), #97, .T. ) ;
#303 = VECTOR ( 'NONE', #351, 39.37007874015748143 ) ;
#304 = ORIENTED_EDGE ( 'NONE', *, *, #103, .T. ) ;
#305 = UNCERTAINTY_MEASURE_WITH_UNIT (LENGTH_MEASURE( 1.000000000000000082E-05 ), #247, 'distance_accuracy_value', 'NONE');
#306 = PRESENTATION_STYLE_ASSIGNMENT (( #172 ) ) ;
#307 = DIRECTION ( 'NONE',  ( 1.000000000000000000, 0.0000000000000000000, 0.0000000000000000000 ) ) ;
#308 = FACE_OUTER_BOUND ( 'NONE', #276, .T. ) ;
#309 = DIRECTION ( 'NONE',  ( 0.0000000000000000000, 0.0000000000000000000, 1.000000000000000000 ) ) ;
#310 = MANIFOLD_SOLID_BREP ( 'Fillet1', #108 ) ;
#311 = CONICAL_SURFACE ( 'NONE', #162, 0.1873124999999999374, 0.1745329251994340025 ) ;
#312 = EDGE_LOOP ( 'NONE', ( #147, #39, #124, #320 ) ) ;
#313 = CIRCLE ( 'NONE', #164, 0.1873124999999999929 ) ;
#314 =( NAMED_UNIT ( * ) SI_UNIT ( $, .STERADIAN. ) SOLID_ANGLE_UNIT ( ) );
#315 = ORIENTED_EDGE ( 'NONE', *, *, #215, .F. ) ;
#316 =( NAMED_UNIT ( * ) PLANE_ANGLE_UNIT ( ) SI_UNIT ( $, .RADIAN. ) );
#317 = CARTESIAN_POINT ( 'NONE',  ( 0.1873124999999999929, 2.293916535652885596E-17, 0.01000000000000000194 ) ) ;
#318 = EDGE_LOOP ( 'NONE', ( #200, #77, #293, #105 ) ) ;
#319 = UNCERTAINTY_MEASURE_WITH_UNIT (LENGTH_MEASURE( 1.000000000000000082E-05 ), #122, 'distance_accuracy_value', 'NONE');
#320 = ORIENTED_EDGE ( 'NONE', *, *, #103, .F. ) ;
#321 =( GEOMETRIC_REPRESENTATION_CONTEXT ( 3 ) GLOBAL_UNCERTAINTY_ASSIGNED_CONTEXT ( ( #319 ) ) GLOBAL_UNIT_ASSIGNED_CONTEXT ( ( #122, #285, #314 ) ) REPRESENTATION_CONTEXT ( 'NONE', 'WORKASPACE' ) );
#322 = DIRECTION ( 'NONE',  ( 1.000000000000000000, 0.0000000000000000000, -0.0000000000000000000 ) ) ;
#323 = VERTEX_POINT ( 'NONE', #277 ) ;
#324 = AXIS2_PLACEMENT_3D ( 'NONE', #102, #206, #83 ) ;
#325 = CARTESIAN_POINT ( 'NONE',  ( 1.071565949253934025E-16, 0.0000000000000000000, 0.8750000000000000000 ) ) ;
#326 = CYLINDRICAL_SURFACE ( 'NONE', #9, 0.1873124999999999929 ) ;
#327 = DIRECTION ( 'NONE',  ( 1.224646799147353207E-16, 1.000000000000000000, -0.0000000000000000000 ) ) ;
#328 = AXIS2_PLACEMENT_3D ( 'NONE', #267, #216, #166 ) ;
#329 = CYLINDRICAL_SURFACE ( 'NONE', #328, 0.1875000000000000278 ) ;
#330 = PLANE ( 'NONE',  #242 ) ;
#331 = EDGE_CURVE ( 'NONE', #130, #323, #32, .T. ) ;
#332 = CARTESIAN_POINT ( 'NONE',  ( 0.1875000000000000278, 2.296212748401287726E-17, 2.484999999999999432 ) ) ;
#333 = AXIS2_PLACEMENT_3D ( 'NONE', #190, #137, #299 ) ;
#334 = EDGE_CURVE ( 'NONE', #252, #282, #174, .T. ) ;
#335 = PRODUCT_RELATED_PRODUCT_CATEGORY ( 'part', '', ( #119 ) ) ;
#336 = VERTEX_POINT ( 'NONE', #61 ) ;
#337 = AXIS2_PLACEMENT_3D ( 'NONE', #155, #309, #251 ) ;
#338 = COLOUR_RGB ( '',0.7921568627450980005, 0.8196078431372548767, 0.9333333333333333481 ) ;
#339 = CARTESIAN_POINT ( 'NONE',  ( 1.224646799147353384E-18, 0.0000000000000000000, 0.01000000000000000021 ) ) ;
#340 = CARTESIAN_POINT ( 'NONE',  ( -0.1873124999999998541, 2.295064642027086199E-17, 0.8750000000000000000 ) ) ;
#341 = VERTEX_POINT ( 'NONE', #253 ) ;
#342 = ORIENTED_EDGE ( 'NONE', *, *, #272, .F. ) ;
#343 = PRESENTATION_LAYER_ASSIGNMENT (  '', '', ( #183 ) ) ;
#344 = CARTESIAN_POINT ( 'NONE',  ( 1.072868196215332765E-16, 0.0000000000000000000, 0.8760633653411785682 ) ) ;
#345 = ORIENTED_EDGE ( 'NONE', *, *, #160, .T. ) ;
#346 = CARTESIAN_POINT ( 'NONE',  ( -0.1773124999999999840, 2.171451855738150547E-17, 0.01000000000000000021 ) ) ;
#347 = DIRECTION ( 'NONE',  ( -0.0000000000000000000, -0.0000000000000000000, -1.000000000000000000 ) ) ;
#348 = ORIENTED_EDGE ( 'NONE', *, *, #334, .F. ) ;
#349 = COLOUR_RGB ( '',0.7921568627450980005, 0.8196078431372548767, 0.9333333333333333481 ) ;
#350 = DIRECTION ( 'NONE',  ( 1.000000000000000000, 0.0000000000000000000, 0.0000000000000000000 ) ) ;
#351 = DIRECTION ( 'NONE',  ( -1.224646799147353207E-16, -0.0000000000000000000, -1.000000000000000000 ) ) ;
ENDSEC;
END-ISO-10303-21;
