ISO-10303-21;
HEADER;
FILE_DESCRIPTION (( 'STEP AP214' ),
    '1' );
FILE_NAME ('Micro_SFPM-080-40.STEP',
    '2021-09-02T07:37:29',
    ( '' ),
    ( '' ),
    'SwSTEP 2.0',
    'SolidWorks 2020',
    '' );
FILE_SCHEMA (( 'AUTOMOTIVE_DESIGN' ));
ENDSEC;

DATA;
#1 = SURFACE_STYLE_FILL_AREA ( #247 ) ;
#2 = VERTEX_POINT ( 'NONE', #219 ) ;
#3 = ORIENTED_EDGE ( 'NONE', *, *, #69, .F. ) ;
#4 = FACE_OUTER_BOUND ( 'NONE', #215, .T. ) ;
#5 = ORIENTED_EDGE ( 'NONE', *, *, #112, .F. ) ;
#6 = DIRECTION ( 'NONE',  ( 1.000000000000000000, 0.0000000000000000000, 0.0000000000000000000 ) ) ;
#7 = CIRCLE ( 'NONE', #273, 0.1573230194999999942 ) ;
#8 = CIRCLE ( 'NONE', #245, 0.1574804999999999955 ) ;
#9 = CARTESIAN_POINT ( 'NONE',  ( 0.1574804999999999955, 1.928579902531247412E-17, 3.922008000000000827 ) ) ;
#10 = DIRECTION ( 'NONE',  ( -1.224646799147353207E-16, -0.0000000000000000000, -1.000000000000000000 ) ) ;
#11 =( LENGTH_UNIT ( ) NAMED_UNIT ( * ) SI_UNIT ( $, .METRE. ) );
#12 = AXIS2_PLACEMENT_3D ( 'NONE', #42, #144, #110 ) ;
#13 = VECTOR ( 'NONE', #114, 39.37007874015748143 ) ;
#14 = DIRECTION ( 'NONE',  ( -1.224646799147353207E-16, -0.0000000000000000000, -1.000000000000000000 ) ) ;
#15 = FACE_OUTER_BOUND ( 'NONE', #216, .T. ) ;
#16 = DIRECTION ( 'NONE',  ( 1.000000000000000000, 0.0000000000000000000, 0.0000000000000000000 ) ) ;
#17 = DIRECTION ( 'NONE',  ( 0.0000000000000000000, 0.0000000000000000000, 1.000000000000000000 ) ) ;
#18 = EDGE_CURVE ( 'NONE', #2, #254, #218, .T. ) ;
#19 = CARTESIAN_POINT ( 'NONE',  ( 0.1424805000000004540, 1.836731392595198898E-17, 3.937007999999999619 ) ) ;
#20 = AXIS2_PLACEMENT_3D ( 'NONE', #183, #63, #83 ) ;
#21 = DIRECTION ( 'NONE',  ( -0.7071067811865563435, 0.0000000000000000000, -0.7071067811865386910 ) ) ;
#22 = CARTESIAN_POINT ( 'NONE',  ( 0.0000000000000000000, 0.0000000000000000000, 3.937007999999999619 ) ) ;
#23 = EDGE_CURVE ( 'NONE', #125, #153, #171, .T. ) ;
#24 = ORIENTED_EDGE ( 'NONE', *, *, #81, .F. ) ;
#25 = CARTESIAN_POINT ( 'NONE',  ( 1.928577453237649374E-16, 0.0000000000000000000, 1.574802999999999953 ) ) ;
#26 = ORIENTED_EDGE ( 'NONE', *, *, #23, .F. ) ;
#27 = ORIENTED_EDGE ( 'NONE', *, *, #41, .T. ) ;
#28 = EDGE_LOOP ( 'NONE', ( #26, #76, #148, #96 ) ) ;
#29 = ORIENTED_EDGE ( 'NONE', *, *, #202, .T. ) ;
#30 = VECTOR ( 'NONE', #173, 39.37007874015748143 ) ;
#31 = VECTOR ( 'NONE', #14, 39.37007874015748143 ) ;
#32 = PRODUCT_DEFINITION_FORMATION_WITH_SPECIFIED_SOURCE ( 'ANY', '', #93, .NOT_KNOWN. ) ;
#33 = ADVANCED_FACE ( 'NONE', ( #249 ), #281, .T. ) ;
#34 = ORIENTED_EDGE ( 'NONE', *, *, #248, .F. ) ;
#35 = DIRECTION ( 'NONE',  ( 1.224646799147353207E-16, 0.0000000000000000000, 1.000000000000000000 ) ) ;
#36 = DIRECTION ( 'NONE',  ( 0.0000000000000000000, 0.0000000000000000000, -1.000000000000000000 ) ) ;
#37 = DIMENSIONAL_EXPONENTS ( 1.000000000000000000, 0.0000000000000000000, 0.0000000000000000000, 0.0000000000000000000, 0.0000000000000000000, 0.0000000000000000000, 0.0000000000000000000 ) ;
#38 = PLANE ( 'NONE',  #120 ) ;
#39 = CARTESIAN_POINT ( 'NONE',  ( 1.929671205251539824E-16, 0.0000000000000000000, 1.575696116296594118 ) ) ;
#40 =( NAMED_UNIT ( * ) PLANE_ANGLE_UNIT ( ) SI_UNIT ( $, .RADIAN. ) );
#41 = EDGE_CURVE ( 'NONE', #170, #196, #141, .T. ) ;
#42 = CARTESIAN_POINT ( 'NONE',  ( 0.0000000000000000000, 0.0000000000000000000, 3.937007999999999619 ) ) ;
#43 = LENGTH_MEASURE_WITH_UNIT ( LENGTH_MEASURE( 0.02539999999999999897 ), #274 );
#44 = SURFACE_SIDE_STYLE ('',( #1 ) ) ;
#45 = ORIENTED_EDGE ( 'NONE', *, *, #209, .F. ) ;
#46 = DIRECTION ( 'NONE',  ( -1.224646799147353207E-16, -0.0000000000000000000, -1.000000000000000000 ) ) ;
#47 = ORIENTED_EDGE ( 'NONE', *, *, #100, .F. ) ;
#48 = STYLED_ITEM ( 'NONE', ( #97 ), #60 ) ;
#49 = CARTESIAN_POINT ( 'NONE',  ( 0.0000000000000000000, 0.0000000000000000000, 3.922008000000000827 ) ) ;
#50 = SURFACE_STYLE_USAGE ( .BOTH. , #162 ) ;
#51 = EDGE_LOOP ( 'NONE', ( #122, #145, #217, #5 ) ) ;
#52 = EDGE_CURVE ( 'NONE', #153, #169, #7, .T. ) ;
#53 = DIRECTION ( 'NONE',  ( -1.000000000000000000, 0.0000000000000000000, 1.224646799147353454E-16 ) ) ;
#54 = EDGE_LOOP ( 'NONE', ( #59, #105 ) ) ;
#55 = FACE_OUTER_BOUND ( 'NONE', #73, .T. ) ;
#56 = MECHANICAL_DESIGN_GEOMETRIC_PRESENTATION_REPRESENTATION (  '', ( #48 ), #197 ) ;
#57 = CIRCLE ( 'NONE', #193, 0.1424805000000004540 ) ;
#58 = PRODUCT_RELATED_PRODUCT_CATEGORY ( 'part', '', ( #93 ) ) ;
#59 = ORIENTED_EDGE ( 'NONE', *, *, #209, .T. ) ;
#60 = MANIFOLD_SOLID_BREP ( 'Cut-Revolve1', #101 ) ;
#61 = AXIS2_PLACEMENT_3D ( 'NONE', #253, #279, #78 ) ;
#62 = ADVANCED_FACE ( 'NONE', ( #55 ), #102, .T. ) ;
#63 = DIRECTION ( 'NONE',  ( -0.0000000000000000000, -0.0000000000000000000, -1.000000000000000000 ) ) ;
#64 = ORIENTED_EDGE ( 'NONE', *, *, #95, .F. ) ;
#65 = EDGE_CURVE ( 'NONE', #235, #2, #124, .T. ) ;
#66 = DIRECTION ( 'NONE',  ( 1.000000000000000000, 0.0000000000000000000, -0.0000000000000000000 ) ) ;
#67 = EDGE_LOOP ( 'NONE', ( #130, #195 ) ) ;
#68 = DIRECTION ( 'NONE',  ( 1.000000000000000000, 0.0000000000000000000, 0.0000000000000000000 ) ) ;
#69 = EDGE_CURVE ( 'NONE', #125, #295, #203, .T. ) ;
#70 =( NAMED_UNIT ( * ) SI_UNIT ( $, .STERADIAN. ) SOLID_ANGLE_UNIT ( ) );
#71 = AXIS2_PLACEMENT_3D ( 'NONE', #221, #205, #211 ) ;
#72 = DIRECTION ( 'NONE',  ( 1.000000000000000000, 0.0000000000000000000, 0.0000000000000000000 ) ) ;
#73 = EDGE_LOOP ( 'NONE', ( #298, #27, #29, #3 ) ) ;
#74 = DIRECTION ( 'NONE',  ( 1.000000000000000000, 0.0000000000000000000, -0.0000000000000000000 ) ) ;
#75 =( NAMED_UNIT ( * ) PLANE_ANGLE_UNIT ( ) SI_UNIT ( $, .RADIAN. ) );
#76 = ORIENTED_EDGE ( 'NONE', *, *, #100, .T. ) ;
#77 = ORIENTED_EDGE ( 'NONE', *, *, #41, .F. ) ;
#78 = DIRECTION ( 'NONE',  ( 1.000000000000000000, 0.0000000000000000000, 0.0000000000000000000 ) ) ;
#79 = EDGE_LOOP ( 'NONE', ( #119, #190, #212, #64 ) ) ;
#80 = DIRECTION ( 'NONE',  ( -1.224646799147353207E-16, -0.0000000000000000000, -1.000000000000000000 ) ) ;
#81 = EDGE_CURVE ( 'NONE', #254, #185, #89, .T. ) ;
#82 =( GEOMETRIC_REPRESENTATION_CONTEXT ( 3 ) GLOBAL_UNCERTAINTY_ASSIGNED_CONTEXT ( ( #163 ) ) GLOBAL_UNIT_ASSIGNED_CONTEXT ( ( #228, #75, #70 ) ) REPRESENTATION_CONTEXT ( 'NONE', 'WORKASPACE' ) );
#83 = DIRECTION ( 'NONE',  ( -1.000000000000000000, 0.0000000000000000000, 0.0000000000000000000 ) ) ;
#84 = FACE_OUTER_BOUND ( 'NONE', #79, .T. ) ;
#85 = AXIS2_PLACEMENT_3D ( 'NONE', #270, #35, #68 ) ;
#86 = DIRECTION ( 'NONE',  ( 0.0000000000000000000, 0.0000000000000000000, 1.000000000000000000 ) ) ;
#87 = CARTESIAN_POINT ( 'NONE',  ( 0.0000000000000000000, 0.0000000000000000000, 3.937007999999999619 ) ) ;
#88 = CARTESIAN_POINT ( 'NONE',  ( -0.1573230194999999942, 0.0000000000000000000, 3.853302645257433254E-17 ) ) ;
#89 = CIRCLE ( 'NONE', #231, 0.1574804999999999955 ) ;
#90 = ORIENTED_EDGE ( 'NONE', *, *, #23, .T. ) ;
#91 = ORIENTED_EDGE ( 'NONE', *, *, #69, .T. ) ;
#92 =( LENGTH_UNIT ( ) NAMED_UNIT ( * ) SI_UNIT ( $, .METRE. ) );
#93 = PRODUCT ( 'Micro_SFPM-080-40', 'Micro_SFPM-080-40', '', ( #143 ) ) ;
#94 = FACE_OUTER_BOUND ( 'NONE', #28, .T. ) ;
#95 = EDGE_CURVE ( 'NONE', #295, #196, #243, .T. ) ;
#96 = ORIENTED_EDGE ( 'NONE', *, *, #52, .F. ) ;
#97 = PRESENTATION_STYLE_ASSIGNMENT (( #139 ) ) ;
#98 = CARTESIAN_POINT ( 'NONE',  ( 0.1574805000000001898, 1.928579902531250185E-17, 1.575696116296594118 ) ) ;
#99 =( CONVERSION_BASED_UNIT ( 'INCH', #230 ) LENGTH_UNIT ( ) NAMED_UNIT ( #208 ) );
#100 = EDGE_CURVE ( 'NONE', #125, #170, #268, .T. ) ;
#101 = CLOSED_SHELL ( 'NONE', ( #155, #62, #138, #256, #192, #33, #127, #132, #168, #106 ) ) ;
#102 = CONICAL_SURFACE ( 'NONE', #299, 0.1573230194999999942, 0.1745329251994339470 ) ;
#103 = VECTOR ( 'NONE', #126, 39.37007874015748143 ) ;
#104 = UNCERTAINTY_MEASURE_WITH_UNIT (LENGTH_MEASURE( 1.000000000000000082E-05 ), #99, 'distance_accuracy_value', 'NONE');
#105 = ORIENTED_EDGE ( 'NONE', *, *, #52, .T. ) ;
#106 = ADVANCED_FACE ( 'NONE', ( #135 ), #38, .F. ) ;
#107 = AXIS2_PLACEMENT_3D ( 'NONE', #133, #17, #115 ) ;
#108 = PRODUCT_DEFINITION ( 'UNKNOWN', '', #32, #226 ) ;
#109 = CYLINDRICAL_SURFACE ( 'NONE', #20, 0.1574804999999999955 ) ;
#110 = DIRECTION ( 'NONE',  ( -1.000000000000000000, 0.0000000000000000000, 0.0000000000000000000 ) ) ;
#111 = AXIS2_PLACEMENT_3D ( 'NONE', #286, #10, #294 ) ;
#112 = EDGE_CURVE ( 'NONE', #254, #196, #128, .T. ) ;
#113 = DIRECTION ( 'NONE',  ( -1.224646799147353207E-16, -0.0000000000000000000, -1.000000000000000000 ) ) ;
#114 = DIRECTION ( 'NONE',  ( -0.0000000000000000000, -0.0000000000000000000, -1.000000000000000000 ) ) ;
#115 = DIRECTION ( 'NONE',  ( 1.000000000000000000, 0.0000000000000000000, 0.0000000000000000000 ) ) ;
#116 = EDGE_LOOP ( 'NONE', ( #77, #47, #91, #194 ) ) ;
#117 = APPLICATION_CONTEXT ( 'automotive_design' ) ;
#118 =( CONVERSION_BASED_UNIT ( 'INCH', #288 ) LENGTH_UNIT ( ) NAMED_UNIT ( #244 ) );
#119 = ORIENTED_EDGE ( 'NONE', *, *, #234, .F. ) ;
#120 = AXIS2_PLACEMENT_3D ( 'NONE', #157, #86, #66 ) ;
#121 = DIRECTION ( 'NONE',  ( -1.000000000000000000, 0.0000000000000000000, 1.224646799147353454E-16 ) ) ;
#122 = ORIENTED_EDGE ( 'NONE', *, *, #81, .T. ) ;
#123 = DIRECTION ( 'NONE',  ( 1.224646799147353207E-16, 0.0000000000000000000, 1.000000000000000000 ) ) ;
#124 = CIRCLE ( 'NONE', #61, 0.1424805000000004540 ) ;
#125 = VERTEX_POINT ( 'NONE', #240 ) ;
#126 = DIRECTION ( 'NONE',  ( 0.7071067811865563435, 8.659560562355041327E-17, -0.7071067811865386910 ) ) ;
#127 = ADVANCED_FACE ( 'NONE', ( #204 ), #165, .T. ) ;
#128 = LINE ( 'NONE', #161, #206 ) ;
#129 = PRESENTATION_LAYER_ASSIGNMENT (  '', '', ( #48 ) ) ;
#130 = ORIENTED_EDGE ( 'NONE', *, *, #248, .T. ) ;
#131 = CARTESIAN_POINT ( 'NONE',  ( 0.0000000000000000000, 0.0000000000000000000, 3.937007999999999619 ) ) ;
#132 = ADVANCED_FACE ( 'NONE', ( #182 ), #278, .T. ) ;
#133 = CARTESIAN_POINT ( 'NONE',  ( 0.0000000000000000000, 0.0000000000000000000, 0.0000000000000000000 ) ) ;
#134 = AXIS2_PLACEMENT_3D ( 'NONE', #39, #136, #72 ) ;
#135 = FACE_OUTER_BOUND ( 'NONE', #54, .T. ) ;
#136 = DIRECTION ( 'NONE',  ( -1.224646799147353207E-16, -0.0000000000000000000, -1.000000000000000000 ) ) ;
#137 = CARTESIAN_POINT ( 'NONE',  ( -0.1573230194999999942, 0.0000000000000000000, 1.926651322628716627E-17 ) ) ;
#138 = ADVANCED_FACE ( 'NONE', ( #15 ), #154, .T. ) ;
#139 = SURFACE_STYLE_USAGE ( .BOTH. , #44 ) ;
#140 = DIRECTION ( 'NONE',  ( -1.000000000000000000, 0.0000000000000000000, 1.224646799147353454E-16 ) ) ;
#141 = LINE ( 'NONE', #191, #30 ) ;
#142 = AXIS2_PLACEMENT_3D ( 'NONE', #223, #201, #267 ) ;
#143 = PRODUCT_CONTEXT ( 'NONE', #117, 'mechanical' ) ;
#144 = DIRECTION ( 'NONE',  ( 0.0000000000000000000, 0.0000000000000000000, -1.000000000000000000 ) ) ;
#145 = ORIENTED_EDGE ( 'NONE', *, *, #234, .T. ) ;
#146 = CARTESIAN_POINT ( 'NONE',  ( 0.0000000000000000000, 0.0000000000000000000, 3.937007999999999619 ) ) ;
#147 = ORIENTED_EDGE ( 'NONE', *, *, #186, .F. ) ;
#148 = ORIENTED_EDGE ( 'NONE', *, *, #186, .T. ) ;
#149 = FILL_AREA_STYLE_COLOUR ( '', #293 ) ;
#150 = DIRECTION ( 'NONE',  ( 0.0000000000000000000, 0.0000000000000000000, -1.000000000000000000 ) ) ;
#151 = ORIENTED_EDGE ( 'NONE', *, *, #65, .F. ) ;
#152 = ORIENTED_EDGE ( 'NONE', *, *, #177, .F. ) ;
#153 = VERTEX_POINT ( 'NONE', #214 ) ;
#154 = CONICAL_SURFACE ( 'NONE', #12, 0.1424805000000004540, 0.7853981633974608245 ) ;
#155 = ADVANCED_FACE ( 'NONE', ( #4 ), #242, .T. ) ;
#156 = CARTESIAN_POINT ( 'NONE',  ( 0.1424805000000004540, 1.744882882659150076E-17, 3.937007999999999619 ) ) ;
#157 = CARTESIAN_POINT ( 'NONE',  ( 0.0000000000000000000, 0.0000000000000000000, 0.0000000000000000000 ) ) ;
#158 = DIRECTION ( 'NONE',  ( 0.0000000000000000000, 0.0000000000000000000, 1.000000000000000000 ) ) ;
#159 = AXIS2_PLACEMENT_3D ( 'NONE', #22, #232, #74 ) ;
#160 = MECHANICAL_DESIGN_GEOMETRIC_PRESENTATION_REPRESENTATION (  '', ( #285 ), #82 ) ;
#161 = CARTESIAN_POINT ( 'NONE',  ( -0.1574804999999999955, 0.0000000000000000000, 3.937007999999999619 ) ) ;
#162 = SURFACE_SIDE_STYLE ('',( #266 ) ) ;
#163 = UNCERTAINTY_MEASURE_WITH_UNIT (LENGTH_MEASURE( 1.000000000000000082E-05 ), #228, 'distance_accuracy_value', 'NONE');
#164 = LINE ( 'NONE', #137, #31 ) ;
#165 = CONICAL_SURFACE ( 'NONE', #179, 0.1424805000000004540, 0.7853981633974608245 ) ;
#166 = LINE ( 'NONE', #189, #13 ) ;
#167 = CARTESIAN_POINT ( 'NONE',  ( 2.359467375330272285E-33, 0.0000000000000000000, 1.926651322628716627E-17 ) ) ;
#168 = ADVANCED_FACE ( 'NONE', ( #94 ), #280, .T. ) ;
#169 = VERTEX_POINT ( 'NONE', #88 ) ;
#170 = VERTEX_POINT ( 'NONE', #269 ) ;
#171 = LINE ( 'NONE', #297, #284 ) ;
#172 = CIRCLE ( 'NONE', #134, 0.1574804999999999955 ) ;
#173 = DIRECTION ( 'NONE',  ( -0.1736481776669312194, 2.126576849575783625E-17, 0.9848077530122077983 ) ) ;
#174 = FILL_AREA_STYLE ('',( #225 ) ) ;
#175 =( NAMED_UNIT ( * ) SI_UNIT ( $, .STERADIAN. ) SOLID_ANGLE_UNIT ( ) );
#176 = DIRECTION ( 'NONE',  ( 0.1736481776669314414, 0.0000000000000000000, 0.9848077530122077983 ) ) ;
#177 = EDGE_CURVE ( 'NONE', #185, #254, #8, .T. ) ;
#178 = PRESENTATION_LAYER_ASSIGNMENT (  '', '', ( #285 ) ) ;
#179 = AXIS2_PLACEMENT_3D ( 'NONE', #131, #289, #241 ) ;
#180 =( GEOMETRIC_REPRESENTATION_CONTEXT ( 3 ) GLOBAL_UNCERTAINTY_ASSIGNED_CONTEXT ( ( #220 ) ) GLOBAL_UNIT_ASSIGNED_CONTEXT ( ( #118, #40, #261 ) ) REPRESENTATION_CONTEXT ( 'NONE', 'WORKASPACE' ) );
#181 = DIRECTION ( 'NONE',  ( -0.0000000000000000000, -0.0000000000000000000, -1.000000000000000000 ) ) ;
#182 = FACE_OUTER_BOUND ( 'NONE', #116, .T. ) ;
#183 = CARTESIAN_POINT ( 'NONE',  ( 0.0000000000000000000, 0.0000000000000000000, 3.937007999999999619 ) ) ;
#184 = APPLICATION_PROTOCOL_DEFINITION ( 'draft international standard', 'automotive_design', 1998, #117 ) ;
#185 = VERTEX_POINT ( 'NONE', #9 ) ;
#186 = EDGE_CURVE ( 'NONE', #170, #169, #164, .T. ) ;
#187 = DIRECTION ( 'NONE',  ( -0.0000000000000000000, -0.0000000000000000000, -1.000000000000000000 ) ) ;
#188 = SHAPE_DEFINITION_REPRESENTATION ( #250, #237 ) ;
#189 = CARTESIAN_POINT ( 'NONE',  ( 0.1574804999999999955, 1.928579902531247412E-17, 3.937007999999999619 ) ) ;
#190 = ORIENTED_EDGE ( 'NONE', *, *, #177, .T. ) ;
#191 = CARTESIAN_POINT ( 'NONE',  ( -0.1573230194999998000, 1.926651322628716627E-17, 1.574802999999999953 ) ) ;
#192 = ADVANCED_FACE ( 'NONE', ( #84 ), #292, .T. ) ;
#193 = AXIS2_PLACEMENT_3D ( 'NONE', #146, #158, #6 ) ;
#194 = ORIENTED_EDGE ( 'NONE', *, *, #95, .T. ) ;
#195 = ORIENTED_EDGE ( 'NONE', *, *, #65, .T. ) ;
#196 = VERTEX_POINT ( 'NONE', #272 ) ;
#197 =( GEOMETRIC_REPRESENTATION_CONTEXT ( 3 ) GLOBAL_UNCERTAINTY_ASSIGNED_CONTEXT ( ( #104 ) ) GLOBAL_UNIT_ASSIGNED_CONTEXT ( ( #99, #258, #175 ) ) REPRESENTATION_CONTEXT ( 'NONE', 'WORKASPACE' ) );
#198 = CIRCLE ( 'NONE', #287, 0.1573230194999999942 ) ;
#199 = ORIENTED_EDGE ( 'NONE', *, *, #18, .T. ) ;
#200 = CARTESIAN_POINT ( 'NONE',  ( 0.0000000000000000000, 0.0000000000000000000, 0.0000000000000000000 ) ) ;
#201 = DIRECTION ( 'NONE',  ( -1.224646799147353207E-16, -0.0000000000000000000, -1.000000000000000000 ) ) ;
#202 = EDGE_CURVE ( 'NONE', #196, #295, #172, .T. ) ;
#203 = LINE ( 'NONE', #282, #251 ) ;
#204 = FACE_OUTER_BOUND ( 'NONE', #236, .T. ) ;
#205 = DIRECTION ( 'NONE',  ( -1.224646799147353207E-16, -0.0000000000000000000, -1.000000000000000000 ) ) ;
#206 = VECTOR ( 'NONE', #181, 39.37007874015748143 ) ;
#207 = CIRCLE ( 'NONE', #111, 0.1573230194999999942 ) ;
#208 = DIMENSIONAL_EXPONENTS ( 1.000000000000000000, 0.0000000000000000000, 0.0000000000000000000, 0.0000000000000000000, 0.0000000000000000000, 0.0000000000000000000, 0.0000000000000000000 ) ;
#209 = EDGE_CURVE ( 'NONE', #169, #153, #198, .T. ) ;
#210 = PRESENTATION_STYLE_ASSIGNMENT (( #50 ) ) ;
#211 = DIRECTION ( 'NONE',  ( -1.000000000000000000, 0.0000000000000000000, 1.224646799147353454E-16 ) ) ;
#212 = ORIENTED_EDGE ( 'NONE', *, *, #112, .T. ) ;
#213 = COLOUR_RGB ( '',0.7921568627450980005, 0.8196078431372548767, 0.9333333333333333481 ) ;
#214 = CARTESIAN_POINT ( 'NONE',  ( 0.1573230194999999942, 1.926651322628716627E-17, 0.0000000000000000000 ) ) ;
#215 = EDGE_LOOP ( 'NONE', ( #255, #90, #45, #147 ) ) ;
#216 = EDGE_LOOP ( 'NONE', ( #151, #260, #24, #283 ) ) ;
#217 = ORIENTED_EDGE ( 'NONE', *, *, #202, .F. ) ;
#218 = LINE ( 'NONE', #276, #224 ) ;
#219 = CARTESIAN_POINT ( 'NONE',  ( -0.1424805000000004540, 0.0000000000000000000, 3.937007999999999619 ) ) ;
#220 = UNCERTAINTY_MEASURE_WITH_UNIT (LENGTH_MEASURE( 1.000000000000000082E-05 ), #118, 'distance_accuracy_value', 'NONE');
#221 = CARTESIAN_POINT ( 'NONE',  ( 0.0000000000000000000, 0.0000000000000000000, 0.0000000000000000000 ) ) ;
#222 = CARTESIAN_POINT ( 'NONE',  ( -0.1574804999999999955, 0.0000000000000000000, 3.922008000000000827 ) ) ;
#223 = CARTESIAN_POINT ( 'NONE',  ( 1.928577453237649374E-16, 0.0000000000000000000, 1.574802999999999953 ) ) ;
#224 = VECTOR ( 'NONE', #21, 39.37007874015748143 ) ;
#225 = FILL_AREA_STYLE_COLOUR ( '', #213 ) ;
#226 = PRODUCT_DEFINITION_CONTEXT ( 'detailed design', #257, 'design' ) ;
#227 = FACE_OUTER_BOUND ( 'NONE', #51, .T. ) ;
#228 =( CONVERSION_BASED_UNIT ( 'INCH', #43 ) LENGTH_UNIT ( ) NAMED_UNIT ( #37 ) );
#229 = DIRECTION ( 'NONE',  ( -1.224646799147353207E-16, -0.0000000000000000000, -1.000000000000000000 ) ) ;
#230 = LENGTH_MEASURE_WITH_UNIT ( LENGTH_MEASURE( 0.02539999999999999897 ), #92 );
#231 = AXIS2_PLACEMENT_3D ( 'NONE', #49, #150, #238 ) ;
#232 = DIRECTION ( 'NONE',  ( 0.0000000000000000000, 0.0000000000000000000, 1.000000000000000000 ) ) ;
#233 = DIRECTION ( 'NONE',  ( -1.224646799147353207E-16, -0.0000000000000000000, -1.000000000000000000 ) ) ;
#234 = EDGE_CURVE ( 'NONE', #185, #295, #166, .T. ) ;
#235 = VERTEX_POINT ( 'NONE', #19 ) ;
#236 = EDGE_LOOP ( 'NONE', ( #275, #34, #199, #152 ) ) ;
#237 = ADVANCED_BREP_SHAPE_REPRESENTATION ( 'Micro_SFPM-080-40', ( #60, #107 ), #180 ) ;
#238 = DIRECTION ( 'NONE',  ( 1.000000000000000000, 0.0000000000000000000, 0.0000000000000000000 ) ) ;
#239 = LINE ( 'NONE', #156, #103 ) ;
#240 = CARTESIAN_POINT ( 'NONE',  ( 0.1573230195000002163, 0.0000000000000000000, 1.574802999999999953 ) ) ;
#241 = DIRECTION ( 'NONE',  ( -1.000000000000000000, 0.0000000000000000000, 0.0000000000000000000 ) ) ;
#242 = CYLINDRICAL_SURFACE ( 'NONE', #263, 0.1573230194999999942 ) ;
#243 = CIRCLE ( 'NONE', #259, 0.1574804999999999955 ) ;
#244 = DIMENSIONAL_EXPONENTS ( 1.000000000000000000, 0.0000000000000000000, 0.0000000000000000000, 0.0000000000000000000, 0.0000000000000000000, 0.0000000000000000000, 0.0000000000000000000 ) ;
#245 = AXIS2_PLACEMENT_3D ( 'NONE', #290, #36, #16 ) ;
#246 = APPLICATION_PROTOCOL_DEFINITION ( 'draft international standard', 'automotive_design', 1998, #257 ) ;
#247 = FILL_AREA_STYLE ('',( #149 ) ) ;
#248 = EDGE_CURVE ( 'NONE', #2, #235, #57, .T. ) ;
#249 = FACE_OUTER_BOUND ( 'NONE', #67, .T. ) ;
#250 = PRODUCT_DEFINITION_SHAPE ( 'NONE', 'NONE',  #108 ) ;
#251 = VECTOR ( 'NONE', #176, 39.37007874015748143 ) ;
#252 = AXIS2_PLACEMENT_3D ( 'NONE', #87, #187, #271 ) ;
#253 = CARTESIAN_POINT ( 'NONE',  ( 0.0000000000000000000, 0.0000000000000000000, 3.937007999999999619 ) ) ;
#254 = VERTEX_POINT ( 'NONE', #222 ) ;
#255 = ORIENTED_EDGE ( 'NONE', *, *, #291, .T. ) ;
#256 = ADVANCED_FACE ( 'NONE', ( #227 ), #109, .T. ) ;
#257 = APPLICATION_CONTEXT ( 'automotive_design' ) ;
#258 =( NAMED_UNIT ( * ) PLANE_ANGLE_UNIT ( ) SI_UNIT ( $, .RADIAN. ) );
#259 = AXIS2_PLACEMENT_3D ( 'NONE', #262, #229, #264 ) ;
#260 = ORIENTED_EDGE ( 'NONE', *, *, #265, .T. ) ;
#261 =( NAMED_UNIT ( * ) SI_UNIT ( $, .STERADIAN. ) SOLID_ANGLE_UNIT ( ) );
#262 = CARTESIAN_POINT ( 'NONE',  ( 1.929671205251539824E-16, 0.0000000000000000000, 1.575696116296594118 ) ) ;
#263 = AXIS2_PLACEMENT_3D ( 'NONE', #200, #46, #121 ) ;
#264 = DIRECTION ( 'NONE',  ( 1.000000000000000000, 0.0000000000000000000, 0.0000000000000000000 ) ) ;
#265 = EDGE_CURVE ( 'NONE', #235, #185, #239, .T. ) ;
#266 = SURFACE_STYLE_FILL_AREA ( #174 ) ;
#267 = DIRECTION ( 'NONE',  ( -1.000000000000000000, 0.0000000000000000000, 0.0000000000000000000 ) ) ;
#268 = CIRCLE ( 'NONE', #142, 0.1573230194999999942 ) ;
#269 = CARTESIAN_POINT ( 'NONE',  ( -0.1573230194999998000, 1.927615612579982019E-17, 1.574802999999999953 ) ) ;
#270 = CARTESIAN_POINT ( 'NONE',  ( 1.928577453237649374E-16, 0.0000000000000000000, 1.574802999999999953 ) ) ;
#271 = DIRECTION ( 'NONE',  ( -1.000000000000000000, 0.0000000000000000000, 0.0000000000000000000 ) ) ;
#272 = CARTESIAN_POINT ( 'NONE',  ( -0.1574804999999997734, 0.0000000000000000000, 1.575696116296594118 ) ) ;
#273 = AXIS2_PLACEMENT_3D ( 'NONE', #277, #233, #53 ) ;
#274 =( LENGTH_UNIT ( ) NAMED_UNIT ( * ) SI_UNIT ( $, .METRE. ) );
#275 = ORIENTED_EDGE ( 'NONE', *, *, #265, .F. ) ;
#276 = CARTESIAN_POINT ( 'NONE',  ( -0.1424805000000004540, 0.0000000000000000000, 3.937007999999999619 ) ) ;
#277 = CARTESIAN_POINT ( 'NONE',  ( 2.359467375330272285E-33, 0.0000000000000000000, 1.926651322628716627E-17 ) ) ;
#278 = CONICAL_SURFACE ( 'NONE', #85, 0.1573230194999999942, 0.1745329251994339470 ) ;
#279 = DIRECTION ( 'NONE',  ( 0.0000000000000000000, 0.0000000000000000000, 1.000000000000000000 ) ) ;
#280 = CYLINDRICAL_SURFACE ( 'NONE', #71, 0.1573230194999999942 ) ;
#281 = PLANE ( 'NONE',  #159 ) ;
#282 = CARTESIAN_POINT ( 'NONE',  ( 0.1573230195000002163, 0.0000000000000000000, 1.574802999999999953 ) ) ;
#283 = ORIENTED_EDGE ( 'NONE', *, *, #18, .F. ) ;
#284 = VECTOR ( 'NONE', #113, 39.37007874015748143 ) ;
#285 = STYLED_ITEM ( 'NONE', ( #210 ), #237 ) ;
#286 = CARTESIAN_POINT ( 'NONE',  ( 1.928577453237649374E-16, 0.0000000000000000000, 1.574802999999999953 ) ) ;
#287 = AXIS2_PLACEMENT_3D ( 'NONE', #167, #80, #140 ) ;
#288 = LENGTH_MEASURE_WITH_UNIT ( LENGTH_MEASURE( 0.02539999999999999897 ), #11 );
#289 = DIRECTION ( 'NONE',  ( 0.0000000000000000000, 0.0000000000000000000, -1.000000000000000000 ) ) ;
#290 = CARTESIAN_POINT ( 'NONE',  ( 0.0000000000000000000, 0.0000000000000000000, 3.922008000000000827 ) ) ;
#291 = EDGE_CURVE ( 'NONE', #170, #125, #207, .T. ) ;
#292 = CYLINDRICAL_SURFACE ( 'NONE', #252, 0.1574804999999999955 ) ;
#293 = COLOUR_RGB ( '',0.7921568627450980005, 0.8196078431372548767, 0.9333333333333333481 ) ;
#294 = DIRECTION ( 'NONE',  ( -1.000000000000000000, 0.0000000000000000000, 0.0000000000000000000 ) ) ;
#295 = VERTEX_POINT ( 'NONE', #98 ) ;
#296 = DIRECTION ( 'NONE',  ( 1.000000000000000000, 0.0000000000000000000, 0.0000000000000000000 ) ) ;
#297 = CARTESIAN_POINT ( 'NONE',  ( 0.1573230194999999942, 1.926651322628716627E-17, -1.926651322628716627E-17 ) ) ;
#298 = ORIENTED_EDGE ( 'NONE', *, *, #291, .F. ) ;
#299 = AXIS2_PLACEMENT_3D ( 'NONE', #25, #123, #296 ) ;
ENDSEC;
END-ISO-10303-21;
