ISO-10303-21;
HEADER;
FILE_DESCRIPTION (( 'STEP AP214' ),
    '1' );
FILE_NAME ('03437.STEP',
    '2023-06-22T15:18:18',
    ( '' ),
    ( '' ),
    'SwSTEP 2.0',
    'SolidWorks 2023',
    '' );
FILE_SCHEMA (( 'AUTOMOTIVE_DESIGN' ));
ENDSEC;

DATA;
#1 = SURFACE_STYLE_FILL_AREA ( #170 ) ;
#2 = ORIENTED_EDGE ( 'NONE', *, *, #13, .F. ) ;
#3 = DIRECTION ( 'NONE',  ( 0.000000000000000000, 0.000000000000000000, -1.000000000000000000 ) ) ;
#4 = VERTEX_POINT ( 'NONE', #9 ) ;
#5 =( CONVERSION_BASED_UNIT ( 'INCH', #26 ) LENGTH_UNIT ( ) NAMED_UNIT ( #36 ) );
#6 = CARTESIAN_POINT ( 'NONE',  ( 0.000000000000000000, 0.000000000000000000, -0.2500000000000000000 ) ) ;
#7 = ADVANCED_FACE ( 'NONE', ( #253 ), #68, .T. ) ;
#8 = CARTESIAN_POINT ( 'NONE',  ( 0.2500000000000000000, 2.500000000000000000, 0.000000000000000000 ) ) ;
#9 = CARTESIAN_POINT ( 'NONE',  ( -0.2500000000000000000, 0.6250000000000000000, 0.000000000000000000 ) ) ;
#10 = CARTESIAN_POINT ( 'NONE',  ( 3.061616997868383018E-17, 0.6250000000000000000, 0.2500000000000000000 ) ) ;
#11 =( GEOMETRIC_REPRESENTATION_CONTEXT ( 3 ) GLOBAL_UNCERTAINTY_ASSIGNED_CONTEXT ( ( #80 ) ) GLOBAL_UNIT_ASSIGNED_CONTEXT ( ( #255, #167, #236 ) ) REPRESENTATION_CONTEXT ( 'NONE', 'WORKASPACE' ) );
#12 = STYLED_ITEM ( 'NONE', ( #227 ), #72 ) ;
#13 = EDGE_CURVE ( 'NONE', #4, #55, #143, .T. ) ;
#14 = DIMENSIONAL_EXPONENTS ( 1.000000000000000000, 0.000000000000000000, 0.000000000000000000, 0.000000000000000000, 0.000000000000000000, 0.000000000000000000, 0.000000000000000000 ) ;
#15 =( CONVERSION_BASED_UNIT ( 'INCH', #135 ) LENGTH_UNIT ( ) NAMED_UNIT ( #112 ) );
#16 =( GEOMETRIC_REPRESENTATION_CONTEXT ( 3 ) GLOBAL_UNCERTAINTY_ASSIGNED_CONTEXT ( ( #64 ) ) GLOBAL_UNIT_ASSIGNED_CONTEXT ( ( #221, #224, #299 ) ) REPRESENTATION_CONTEXT ( 'NONE', 'WORKASPACE' ) );
#17 = CARTESIAN_POINT ( 'NONE',  ( 0.2500000000000000000, 0.6250000000000000000, 3.061616997868382402E-17 ) ) ;
#18 = COLOUR_RGB ( '',1.000000000000000000, 0.000000000000000000, 0.000000000000000000 ) ;
#19 = ADVANCED_FACE ( 'NONE', ( #238 ), #215, .T. ) ;
#20 = DIRECTION ( 'NONE',  ( 0.000000000000000000, 0.000000000000000000, -1.000000000000000000 ) ) ;
#21 = AXIS2_PLACEMENT_3D ( 'NONE', #8, #54, #269 ) ;
#22 = COLOUR_RGB ( '',1.000000000000000000, 0.000000000000000000, 0.000000000000000000 ) ;
#23 = COLOUR_RGB ( '',0.7921568627450980005, 0.8196078431372548767, 0.9333333333333333481 ) ;
#24 = DIRECTION ( 'NONE',  ( 0.000000000000000000, 0.000000000000000000, -1.000000000000000000 ) ) ;
#25 = ORIENTED_EDGE ( 'NONE', *, *, #200, .T. ) ;
#26 = LENGTH_MEASURE_WITH_UNIT ( LENGTH_MEASURE( 0.02539999999999999897 ), #176 );
#27 = PLANE ( 'NONE',  #148 ) ;
#28 = LENGTH_MEASURE_WITH_UNIT ( LENGTH_MEASURE( 0.02539999999999999897 ), #194 );
#29 = UNCERTAINTY_MEASURE_WITH_UNIT (LENGTH_MEASURE( 1.000000000000000082E-05 ), #15, 'distance_accuracy_value', 'NONE');
#30 = DIRECTION ( 'NONE',  ( 0.000000000000000000, 0.000000000000000000, -1.000000000000000000 ) ) ;
#31 = FILL_AREA_STYLE ('',( #182 ) ) ;
#32 = ORIENTED_EDGE ( 'NONE', *, *, #126, .T. ) ;
#33 = DIRECTION ( 'NONE',  ( 1.632862398863137527E-16, 1.000000000000000000, -0.000000000000000000 ) ) ;
#34 = VERTEX_POINT ( 'NONE', #6 ) ;
#35 = COLOUR_RGB ( '',1.000000000000000000, 0.000000000000000000, 0.000000000000000000 ) ;
#36 = DIMENSIONAL_EXPONENTS ( 1.000000000000000000, 0.000000000000000000, 0.000000000000000000, 0.000000000000000000, 0.000000000000000000, 0.000000000000000000, 0.000000000000000000 ) ;
#37 = EDGE_CURVE ( 'NONE', #151, #47, #254, .T. ) ;
#38 = EDGE_LOOP ( 'NONE', ( #25, #305, #78, #60 ) ) ;
#39 = EDGE_CURVE ( 'NONE', #4, #47, #235, .T. ) ;
#40 = CARTESIAN_POINT ( 'NONE',  ( 0.000000000000000000, 0.000000000000000000, 0.000000000000000000 ) ) ;
#41 = DIRECTION ( 'NONE',  ( 0.000000000000000000, -1.000000000000000000, -0.000000000000000000 ) ) ;
#42 = FILL_AREA_STYLE_COLOUR ( '', #226 ) ;
#43 = DIRECTION ( 'NONE',  ( -1.000000000000000000, 0.000000000000000000, 0.000000000000000000 ) ) ;
#44 =( CONVERSION_BASED_UNIT ( 'INCH', #172 ) LENGTH_UNIT ( ) NAMED_UNIT ( #62 ) );
#45 = CARTESIAN_POINT ( 'NONE',  ( 0.000000000000000000, 0.6250000000000000000, 0.000000000000000000 ) ) ;
#46 = AXIS2_PLACEMENT_3D ( 'NONE', #145, #243, #24 ) ;
#47 = VERTEX_POINT ( 'NONE', #136 ) ;
#48 = FILL_AREA_STYLE ('',( #123 ) ) ;
#49 = SURFACE_SIDE_STYLE ('',( #180 ) ) ;
#50 = ORIENTED_EDGE ( 'NONE', *, *, #184, .T. ) ;
#51 = CARTESIAN_POINT ( 'NONE',  ( 0.000000000000000000, 0.000000000000000000, 0.000000000000000000 ) ) ;
#52 = CARTESIAN_POINT ( 'NONE',  ( 0.000000000000000000, 0.000000000000000000, 0.000000000000000000 ) ) ;
#53 = VECTOR ( 'NONE', #279, 39.37007874015748143 ) ;
#54 = DIRECTION ( 'NONE',  ( -1.632862398863137527E-16, -1.000000000000000000, 0.000000000000000000 ) ) ;
#55 = VERTEX_POINT ( 'NONE', #17 ) ;
#56 = CARTESIAN_POINT ( 'NONE',  ( 0.000000000000000000, 0.000000000000000000, -0.2500000000000000000 ) ) ;
#57 = DIRECTION ( 'NONE',  ( -1.000000000000000000, 1.632862398863137527E-16, 0.000000000000000000 ) ) ;
#58 = CARTESIAN_POINT ( 'NONE',  ( -0.2499999999999995559, 2.500000000000000000, 0.000000000000000000 ) ) ;
#59 = ORIENTED_EDGE ( 'NONE', *, *, #37, .T. ) ;
#60 = ORIENTED_EDGE ( 'NONE', *, *, #280, .F. ) ;
#61 = EDGE_CURVE ( 'NONE', #55, #151, #287, .T. ) ;
#62 = DIMENSIONAL_EXPONENTS ( 1.000000000000000000, 0.000000000000000000, 0.000000000000000000, 0.000000000000000000, 0.000000000000000000, 0.000000000000000000, 0.000000000000000000 ) ;
#63 = UNCERTAINTY_MEASURE_WITH_UNIT (LENGTH_MEASURE( 1.000000000000000082E-05 ), #5, 'distance_accuracy_value', 'NONE');
#64 = UNCERTAINTY_MEASURE_WITH_UNIT (LENGTH_MEASURE( 1.000000000000000082E-05 ), #221, 'distance_accuracy_value', 'NONE');
#65 = CIRCLE ( 'NONE', #309, 0.2499999999999996947 ) ;
#66 = DIRECTION ( 'NONE',  ( 1.632862398863137527E-16, 1.000000000000000000, -0.000000000000000000 ) ) ;
#67 = ADVANCED_FACE ( 'NONE', ( #94 ), #71, .T. ) ;
#68 = PLANE ( 'NONE',  #163 ) ;
#69 = SURFACE_STYLE_USAGE ( .BOTH. , #191 ) ;
#70 = DIRECTION ( 'NONE',  ( 0.000000000000000000, 0.000000000000000000, -1.000000000000000000 ) ) ;
#71 = CYLINDRICAL_SURFACE ( 'NONE', #301, 0.2499999999999998612 ) ;
#72 = MANIFOLD_SOLID_BREP ( 'Revolve - Tool Body (Straight Shanked)', #119 ) ;
#73 = MANIFOLD_SOLID_BREP ( 'Revolve - Cutting Edge', #87 ) ;
#74 = ADVANCED_FACE ( 'NONE', ( #302 ), #27, .F. ) ;
#75 = ORIENTED_EDGE ( 'NONE', *, *, #184, .F. ) ;
#76 = DIRECTION ( 'NONE',  ( -0.000000000000000000, -1.000000000000000000, -0.000000000000000000 ) ) ;
#77 =( GEOMETRIC_REPRESENTATION_CONTEXT ( 3 ) GLOBAL_UNCERTAINTY_ASSIGNED_CONTEXT ( ( #188 ) ) GLOBAL_UNIT_ASSIGNED_CONTEXT ( ( #44, #147, #142 ) ) REPRESENTATION_CONTEXT ( 'NONE', 'WORKASPACE' ) );
#78 = ORIENTED_EDGE ( 'NONE', *, *, #105, .F. ) ;
#79 = LENGTH_MEASURE_WITH_UNIT ( LENGTH_MEASURE( 0.02539999999999999897 ), #124 );
#80 = UNCERTAINTY_MEASURE_WITH_UNIT (LENGTH_MEASURE( 1.000000000000000082E-05 ), #255, 'distance_accuracy_value', 'NONE');
#81 = DIRECTION ( 'NONE',  ( -0.000000000000000000, -1.000000000000000000, -0.000000000000000000 ) ) ;
#82 = SURFACE_STYLE_USAGE ( .BOTH. , #49 ) ;
#83 = APPLICATION_PROTOCOL_DEFINITION ( 'draft international standard', 'automotive_design', 1998, #285 ) ;
#84 = DIRECTION ( 'NONE',  ( -1.000000000000000000, 0.000000000000000000, 0.000000000000000000 ) ) ;
#85 = ADVANCED_FACE ( 'NONE', ( #130 ), #107, .F. ) ;
#86 = MECHANICAL_DESIGN_GEOMETRIC_PRESENTATION_REPRESENTATION (  '', ( #214 ), #108 ) ;
#87 = CLOSED_SHELL ( 'NONE', ( #131, #7, #216, #19 ) ) ;
#88 = EDGE_LOOP ( 'NONE', ( #185, #276, #175, #206 ) ) ;
#89 =( NAMED_UNIT ( * ) SI_UNIT ( $, .STERADIAN. ) SOLID_ANGLE_UNIT ( ) );
#90 = CARTESIAN_POINT ( 'NONE',  ( 3.061616997868383141E-16, 2.500000000000000000, 0.000000000000000000 ) ) ;
#91 = SURFACE_STYLE_FILL_AREA ( #232 ) ;
#92 = STYLED_ITEM ( 'NONE', ( #198 ), #19 ) ;
#93 = CARTESIAN_POINT ( 'NONE',  ( 3.061616997868383141E-16, 2.500000000000000000, 0.000000000000000000 ) ) ;
#94 = FACE_OUTER_BOUND ( 'NONE', #88, .T. ) ;
#95 = DIMENSIONAL_EXPONENTS ( 1.000000000000000000, 0.000000000000000000, 0.000000000000000000, 0.000000000000000000, 0.000000000000000000, 0.000000000000000000, 0.000000000000000000 ) ;
#96 = VECTOR ( 'NONE', #256, 39.37007874015748143 ) ;
#97 =( NAMED_UNIT ( * ) SI_UNIT ( $, .STERADIAN. ) SOLID_ANGLE_UNIT ( ) );
#98 = PRESENTATION_LAYER_ASSIGNMENT (  '', '', ( #12 ) ) ;
#99 = LENGTH_MEASURE_WITH_UNIT ( LENGTH_MEASURE( 0.02539999999999999897 ), #307 );
#100 = SURFACE_SIDE_STYLE ('',( #1 ) ) ;
#101 =( GEOMETRIC_REPRESENTATION_CONTEXT ( 3 ) GLOBAL_UNCERTAINTY_ASSIGNED_CONTEXT ( ( #154 ) ) GLOBAL_UNIT_ASSIGNED_CONTEXT ( ( #272, #295, #278 ) ) REPRESENTATION_CONTEXT ( 'NONE', 'WORKASPACE' ) );
#102 = CYLINDRICAL_SURFACE ( 'NONE', #265, 0.2500000000000000000 ) ;
#103 = ORIENTED_EDGE ( 'NONE', *, *, #105, .T. ) ;
#104 = PRESENTATION_STYLE_ASSIGNMENT (( #82 ) ) ;
#105 = EDGE_CURVE ( 'NONE', #34, #266, #113, .T. ) ;
#106 = EDGE_LOOP ( 'NONE', ( #32, #59 ) ) ;
#107 = PLANE ( 'NONE',  #21 ) ;
#108 =( GEOMETRIC_REPRESENTATION_CONTEXT ( 3 ) GLOBAL_UNCERTAINTY_ASSIGNED_CONTEXT ( ( #306 ) ) GLOBAL_UNIT_ASSIGNED_CONTEXT ( ( #288, #193, #97 ) ) REPRESENTATION_CONTEXT ( 'NONE', 'WORKASPACE' ) );
#109 =( NAMED_UNIT ( * ) PLANE_ANGLE_UNIT ( ) SI_UNIT ( $, .RADIAN. ) );
#110 = AXIS2_PLACEMENT_3D ( 'NONE', #171, #173, #43 ) ;
#111 = PRODUCT ( '03437', '03437', '', ( #297 ) ) ;
#112 = DIMENSIONAL_EXPONENTS ( 1.000000000000000000, 0.000000000000000000, 0.000000000000000000, 0.000000000000000000, 0.000000000000000000, 0.000000000000000000, 0.000000000000000000 ) ;
#113 = CIRCLE ( 'NONE', #275, 0.2500000000000000000 ) ;
#114 = DIRECTION ( 'NONE',  ( -1.000000000000000000, 0.000000000000000000, 0.000000000000000000 ) ) ;
#115 = CARTESIAN_POINT ( 'NONE',  ( 0.2500000000000001665, 2.500000000000000000, 3.061616997868381785E-17 ) ) ;
#116 = EDGE_CURVE ( 'NONE', #290, #300, #242, .T. ) ;
#117 = PRESENTATION_LAYER_ASSIGNMENT (  '', '', ( #212 ) ) ;
#118 = CARTESIAN_POINT ( 'NONE',  ( 0.000000000000000000, 0.6250000000000000000, 0.000000000000000000 ) ) ;
#119 = CLOSED_SHELL ( 'NONE', ( #303, #74, #67, #85 ) ) ;
#120 = CARTESIAN_POINT ( 'NONE',  ( 0.000000000000000000, 0.6250000000000000000, 0.000000000000000000 ) ) ;
#121 = LENGTH_MEASURE_WITH_UNIT ( LENGTH_MEASURE( 0.02539999999999999897 ), #292 );
#122 = ORIENTED_EDGE ( 'NONE', *, *, #271, .F. ) ;
#123 = FILL_AREA_STYLE_COLOUR ( '', #35 ) ;
#124 =( LENGTH_UNIT ( ) NAMED_UNIT ( * ) SI_UNIT ( $, .METRE. ) );
#125 = DIRECTION ( 'NONE',  ( -0.000000000000000000, -1.000000000000000000, -0.000000000000000000 ) ) ;
#126 = EDGE_CURVE ( 'NONE', #47, #151, #65, .T. ) ;
#127 = MECHANICAL_DESIGN_GEOMETRIC_PRESENTATION_REPRESENTATION (  '', ( #92 ), #77 ) ;
#128 = FILL_AREA_STYLE_COLOUR ( '', #196 ) ;
#129 = LINE ( 'NONE', #277, #96 ) ;
#130 = FACE_OUTER_BOUND ( 'NONE', #106, .T. ) ;
#131 = ADVANCED_FACE ( 'NONE', ( #217 ), #237, .T. ) ;
#132 = VECTOR ( 'NONE', #234, 39.37007874015748143 ) ;
#133 = LINE ( 'NONE', #56, #132 ) ;
#134 = MECHANICAL_DESIGN_GEOMETRIC_PRESENTATION_REPRESENTATION (  '', ( #162 ), #195 ) ;
#135 = LENGTH_MEASURE_WITH_UNIT ( LENGTH_MEASURE( 0.02539999999999999897 ), #159 );
#136 = CARTESIAN_POINT ( 'NONE',  ( -0.2499999999999993894, 2.500000000000000000, 0.000000000000000000 ) ) ;
#137 = ORIENTED_EDGE ( 'NONE', *, *, #13, .T. ) ;
#138 = CYLINDRICAL_SURFACE ( 'NONE', #149, 0.2499999999999998612 ) ;
#139 = ORIENTED_EDGE ( 'NONE', *, *, #61, .T. ) ;
#140 = AXIS2_PLACEMENT_3D ( 'NONE', #45, #125, #166 ) ;
#141 = SURFACE_STYLE_USAGE ( .BOTH. , #218 ) ;
#142 =( NAMED_UNIT ( * ) SI_UNIT ( $, .STERADIAN. ) SOLID_ANGLE_UNIT ( ) );
#143 = CIRCLE ( 'NONE', #192, 0.2500000000000000000 ) ;
#144 = FILL_AREA_STYLE ('',( #286 ) ) ;
#145 = CARTESIAN_POINT ( 'NONE',  ( 0.000000000000000000, 0.000000000000000000, 0.000000000000000000 ) ) ;
#146 = CARTESIAN_POINT ( 'NONE',  ( 3.061616997868383141E-16, 2.500000000000000000, 0.000000000000000000 ) ) ;
#147 =( NAMED_UNIT ( * ) PLANE_ANGLE_UNIT ( ) SI_UNIT ( $, .RADIAN. ) );
#148 = AXIS2_PLACEMENT_3D ( 'NONE', #248, #187, #57 ) ;
#149 = AXIS2_PLACEMENT_3D ( 'NONE', #90, #33, #233 ) ;
#150 = VECTOR ( 'NONE', #169, 39.37007874015748143 ) ;
#151 = VERTEX_POINT ( 'NONE', #155 ) ;
#152 = EDGE_LOOP ( 'NONE', ( #137, #139, #222, #189 ) ) ;
#153 = APPLICATION_PROTOCOL_DEFINITION ( 'draft international standard', 'automotive_design', 1998, #161 ) ;
#154 = UNCERTAINTY_MEASURE_WITH_UNIT (LENGTH_MEASURE( 1.000000000000000082E-05 ), #272, 'distance_accuracy_value', 'NONE');
#155 = CARTESIAN_POINT ( 'NONE',  ( 0.2500000000000000000, 2.500000000000000000, 3.061616997868382402E-17 ) ) ;
#156 = DIRECTION ( 'NONE',  ( 0.000000000000000000, 0.000000000000000000, 1.000000000000000000 ) ) ;
#157 = DIRECTION ( 'NONE',  ( -0.000000000000000000, -1.000000000000000000, -0.000000000000000000 ) ) ;
#158 = EDGE_CURVE ( 'NONE', #55, #4, #283, .T. ) ;
#159 =( LENGTH_UNIT ( ) NAMED_UNIT ( * ) SI_UNIT ( $, .METRE. ) );
#160 = ORIENTED_EDGE ( 'NONE', *, *, #116, .F. ) ;
#161 = APPLICATION_CONTEXT ( 'automotive_design' ) ;
#162 = STYLED_ITEM ( 'NONE', ( #291 ), #216 ) ;
#163 = AXIS2_PLACEMENT_3D ( 'NONE', #220, #308, #240 ) ;
#164 = ORIENTED_EDGE ( 'NONE', *, *, #116, .T. ) ;
#165 = FACE_OUTER_BOUND ( 'NONE', #152, .T. ) ;
#166 = DIRECTION ( 'NONE',  ( 0.000000000000000000, 0.000000000000000000, -1.000000000000000000 ) ) ;
#167 =( NAMED_UNIT ( * ) PLANE_ANGLE_UNIT ( ) SI_UNIT ( $, .RADIAN. ) );
#168 = SURFACE_STYLE_FILL_AREA ( #144 ) ;
#169 = DIRECTION ( 'NONE',  ( 1.632862398863137527E-16, 1.000000000000000000, -0.000000000000000000 ) ) ;
#170 = FILL_AREA_STYLE ('',( #42 ) ) ;
#171 = CARTESIAN_POINT ( 'NONE',  ( 0.000000000000000000, 0.6250000000000000000, 0.000000000000000000 ) ) ;
#172 = LENGTH_MEASURE_WITH_UNIT ( LENGTH_MEASURE( 0.02539999999999999897 ), #263 );
#173 = DIRECTION ( 'NONE',  ( 1.632862398863137527E-16, 1.000000000000000000, -0.000000000000000000 ) ) ;
#174 = SURFACE_STYLE_FILL_AREA ( #296 ) ;
#175 = ORIENTED_EDGE ( 'NONE', *, *, #39, .T. ) ;
#176 =( LENGTH_UNIT ( ) NAMED_UNIT ( * ) SI_UNIT ( $, .METRE. ) );
#177 = PRESENTATION_LAYER_ASSIGNMENT (  '', '', ( #214 ) ) ;
#178 = ORIENTED_EDGE ( 'NONE', *, *, #200, .F. ) ;
#179 =( NAMED_UNIT ( * ) PLANE_ANGLE_UNIT ( ) SI_UNIT ( $, .RADIAN. ) );
#180 = SURFACE_STYLE_FILL_AREA ( #31 ) ;
#181 = SHAPE_DEFINITION_REPRESENTATION ( #257, #209 ) ;
#182 = FILL_AREA_STYLE_COLOUR ( '', #23 ) ;
#183 = DIRECTION ( 'NONE',  ( 1.632862398863137527E-16, 1.000000000000000000, -0.000000000000000000 ) ) ;
#184 = EDGE_CURVE ( 'NONE', #266, #34, #284, .T. ) ;
#185 = ORIENTED_EDGE ( 'NONE', *, *, #61, .F. ) ;
#186 = DIRECTION ( 'NONE',  ( -0.000000000000000000, -1.000000000000000000, -0.000000000000000000 ) ) ;
#187 = DIRECTION ( 'NONE',  ( 1.632862398863137527E-16, 1.000000000000000000, -0.000000000000000000 ) ) ;
#188 = UNCERTAINTY_MEASURE_WITH_UNIT (LENGTH_MEASURE( 1.000000000000000082E-05 ), #44, 'distance_accuracy_value', 'NONE');
#189 = ORIENTED_EDGE ( 'NONE', *, *, #39, .F. ) ;
#190 =( NAMED_UNIT ( * ) SI_UNIT ( $, .STERADIAN. ) SOLID_ANGLE_UNIT ( ) );
#191 = SURFACE_SIDE_STYLE ('',( #91 ) ) ;
#192 = AXIS2_PLACEMENT_3D ( 'NONE', #118, #66, #201 ) ;
#193 =( NAMED_UNIT ( * ) PLANE_ANGLE_UNIT ( ) SI_UNIT ( $, .RADIAN. ) );
#194 =( LENGTH_UNIT ( ) NAMED_UNIT ( * ) SI_UNIT ( $, .METRE. ) );
#195 =( GEOMETRIC_REPRESENTATION_CONTEXT ( 3 ) GLOBAL_UNCERTAINTY_ASSIGNED_CONTEXT ( ( #63 ) ) GLOBAL_UNIT_ASSIGNED_CONTEXT ( ( #5, #179, #89 ) ) REPRESENTATION_CONTEXT ( 'NONE', 'WORKASPACE' ) );
#196 = COLOUR_RGB ( '',0.7921568627450980005, 0.8196078431372548767, 0.9333333333333333481 ) ;
#197 = DIRECTION ( 'NONE',  ( 1.632862398863137527E-16, 1.000000000000000000, -0.000000000000000000 ) ) ;
#198 = PRESENTATION_STYLE_ASSIGNMENT (( #289 ) ) ;
#199 = PRESENTATION_STYLE_ASSIGNMENT (( #69 ) ) ;
#200 = EDGE_CURVE ( 'NONE', #300, #290, #210, .T. ) ;
#201 = DIRECTION ( 'NONE',  ( -1.000000000000000000, 0.000000000000000000, 0.000000000000000000 ) ) ;
#202 = MECHANICAL_DESIGN_GEOMETRIC_PRESENTATION_REPRESENTATION (  '', ( #212 ), #101 ) ;
#203 = PRODUCT_DEFINITION ( 'UNKNOWN', '', #230, #298 ) ;
#204 = EDGE_LOOP ( 'NONE', ( #178, #160 ) ) ;
#205 = SURFACE_SIDE_STYLE ('',( #267 ) ) ;
#206 = ORIENTED_EDGE ( 'NONE', *, *, #37, .F. ) ;
#207 = AXIS2_PLACEMENT_3D ( 'NONE', #249, #183, #84 ) ;
#208 = DIRECTION ( 'NONE',  ( 1.000000000000000000, 0.000000000000000000, 0.000000000000000000 ) ) ;
#209 = ADVANCED_BREP_SHAPE_REPRESENTATION ( '03437', ( #73, #72, #259 ), #225 ) ;
#210 = CIRCLE ( 'NONE', #293, 0.2500000000000000000 ) ;
#211 = MECHANICAL_DESIGN_GEOMETRIC_PRESENTATION_REPRESENTATION (  '', ( #231 ), #11 ) ;
#212 = STYLED_ITEM ( 'NONE', ( #104 ), #73 ) ;
#213 = FILL_AREA_STYLE_COLOUR ( '', #22 ) ;
#214 = STYLED_ITEM ( 'NONE', ( #239 ), #131 ) ;
#215 = PLANE ( 'NONE',  #260 ) ;
#216 = ADVANCED_FACE ( 'NONE', ( #247 ), #102, .T. ) ;
#217 = FACE_OUTER_BOUND ( 'NONE', #38, .T. ) ;
#218 = SURFACE_SIDE_STYLE ('',( #168 ) ) ;
#219 = DIRECTION ( 'NONE',  ( 0.000000000000000000, 0.000000000000000000, -1.000000000000000000 ) ) ;
#220 = CARTESIAN_POINT ( 'NONE',  ( 0.000000000000000000, 0.6250000000000000000, 0.000000000000000000 ) ) ;
#221 =( CONVERSION_BASED_UNIT ( 'INCH', #121 ) LENGTH_UNIT ( ) NAMED_UNIT ( #14 ) );
#222 = ORIENTED_EDGE ( 'NONE', *, *, #126, .F. ) ;
#223 = DIRECTION ( 'NONE',  ( -1.000000000000000000, 0.000000000000000000, 0.000000000000000000 ) ) ;
#224 =( NAMED_UNIT ( * ) PLANE_ANGLE_UNIT ( ) SI_UNIT ( $, .RADIAN. ) );
#225 =( GEOMETRIC_REPRESENTATION_CONTEXT ( 3 ) GLOBAL_UNCERTAINTY_ASSIGNED_CONTEXT ( ( #29 ) ) GLOBAL_UNIT_ASSIGNED_CONTEXT ( ( #15, #109, #190 ) ) REPRESENTATION_CONTEXT ( 'NONE', 'WORKASPACE' ) );
#226 = COLOUR_RGB ( '',1.000000000000000000, 0.000000000000000000, 0.000000000000000000 ) ;
#227 = PRESENTATION_STYLE_ASSIGNMENT (( #244 ) ) ;
#228 = CARTESIAN_POINT ( 'NONE',  ( 0.000000000000000000, 0.6250000000000000000, -0.2500000000000000000 ) ) ;
#229 = ORIENTED_EDGE ( 'NONE', *, *, #158, .F. ) ;
#230 = PRODUCT_DEFINITION_FORMATION_WITH_SPECIFIED_SOURCE ( 'ANY', '', #111, .NOT_KNOWN. ) ;
#231 = STYLED_ITEM ( 'NONE', ( #199 ), #7 ) ;
#232 = FILL_AREA_STYLE ('',( #213 ) ) ;
#233 = DIRECTION ( 'NONE',  ( -1.000000000000000000, 0.000000000000000000, 0.000000000000000000 ) ) ;
#234 = DIRECTION ( 'NONE',  ( -0.000000000000000000, -1.000000000000000000, -0.000000000000000000 ) ) ;
#235 = LINE ( 'NONE', #58, #53 ) ;
#236 =( NAMED_UNIT ( * ) SI_UNIT ( $, .STERADIAN. ) SOLID_ANGLE_UNIT ( ) );
#237 = CYLINDRICAL_SURFACE ( 'NONE', #245, 0.2500000000000000000 ) ;
#238 = FACE_OUTER_BOUND ( 'NONE', #282, .T. ) ;
#239 = PRESENTATION_STYLE_ASSIGNMENT (( #141 ) ) ;
#240 = DIRECTION ( 'NONE',  ( 0.000000000000000000, -0.000000000000000000, 1.000000000000000000 ) ) ;
#241 = DIRECTION ( 'NONE',  ( 1.632862398863137527E-16, 1.000000000000000000, -0.000000000000000000 ) ) ;
#242 = CIRCLE ( 'NONE', #140, 0.2500000000000000000 ) ;
#243 = DIRECTION ( 'NONE',  ( -0.000000000000000000, -1.000000000000000000, -0.000000000000000000 ) ) ;
#244 = SURFACE_STYLE_USAGE ( .BOTH. , #264 ) ;
#245 = AXIS2_PLACEMENT_3D ( 'NONE', #40, #76, #70 ) ;
#246 = EDGE_LOOP ( 'NONE', ( #2, #229 ) ) ;
#247 = FACE_OUTER_BOUND ( 'NONE', #294, .T. ) ;
#248 = CARTESIAN_POINT ( 'NONE',  ( 3.332799517026350012E-33, 0.6250000000000000000, 0.000000000000000000 ) ) ;
#249 = CARTESIAN_POINT ( 'NONE',  ( 3.061616997868383141E-16, 2.500000000000000000, 0.000000000000000000 ) ) ;
#250 = PRESENTATION_LAYER_ASSIGNMENT (  '', '', ( #231 ) ) ;
#251 = DIMENSIONAL_EXPONENTS ( 1.000000000000000000, 0.000000000000000000, 0.000000000000000000, 0.000000000000000000, 0.000000000000000000, 0.000000000000000000, 0.000000000000000000 ) ;
#252 = ORIENTED_EDGE ( 'NONE', *, *, #280, .T. ) ;
#253 = FACE_OUTER_BOUND ( 'NONE', #204, .T. ) ;
#254 = CIRCLE ( 'NONE', #207, 0.2499999999999996947 ) ;
#255 =( CONVERSION_BASED_UNIT ( 'INCH', #28 ) LENGTH_UNIT ( ) NAMED_UNIT ( #95 ) );
#256 = DIRECTION ( 'NONE',  ( -0.000000000000000000, -1.000000000000000000, -0.000000000000000000 ) ) ;
#257 = PRODUCT_DEFINITION_SHAPE ( 'NONE', 'NONE',  #203 ) ;
#258 = MECHANICAL_DESIGN_GEOMETRIC_PRESENTATION_REPRESENTATION (  '', ( #12 ), #16 ) ;
#259 = AXIS2_PLACEMENT_3D ( 'NONE', #51, #156, #208 ) ;
#260 = AXIS2_PLACEMENT_3D ( 'NONE', #261, #41, #219 ) ;
#261 = CARTESIAN_POINT ( 'NONE',  ( 0.000000000000000000, 0.000000000000000000, 0.000000000000000000 ) ) ;
#262 = PRESENTATION_LAYER_ASSIGNMENT (  '', '', ( #92 ) ) ;
#263 =( LENGTH_UNIT ( ) NAMED_UNIT ( * ) SI_UNIT ( $, .METRE. ) );
#264 = SURFACE_SIDE_STYLE ('',( #174 ) ) ;
#265 = AXIS2_PLACEMENT_3D ( 'NONE', #52, #186, #30 ) ;
#266 = VERTEX_POINT ( 'NONE', #304 ) ;
#267 = SURFACE_STYLE_FILL_AREA ( #48 ) ;
#268 = PRESENTATION_LAYER_ASSIGNMENT (  '', '', ( #162 ) ) ;
#269 = DIRECTION ( 'NONE',  ( 1.000000000000000000, -1.632862398863137527E-16, 0.000000000000000000 ) ) ;
#270 = SURFACE_STYLE_USAGE ( .BOTH. , #205 ) ;
#271 = EDGE_CURVE ( 'NONE', #290, #266, #129, .T. ) ;
#272 =( CONVERSION_BASED_UNIT ( 'INCH', #79 ) LENGTH_UNIT ( ) NAMED_UNIT ( #281 ) );
#273 = PRODUCT_RELATED_PRODUCT_CATEGORY ( 'part', '', ( #111 ) ) ;
#274 = CARTESIAN_POINT ( 'NONE',  ( 0.000000000000000000, 0.000000000000000000, 0.000000000000000000 ) ) ;
#275 = AXIS2_PLACEMENT_3D ( 'NONE', #274, #157, #20 ) ;
#276 = ORIENTED_EDGE ( 'NONE', *, *, #158, .T. ) ;
#277 = CARTESIAN_POINT ( 'NONE',  ( 3.061616997868383018E-17, 0.000000000000000000, 0.2500000000000000000 ) ) ;
#278 =( NAMED_UNIT ( * ) SI_UNIT ( $, .STERADIAN. ) SOLID_ANGLE_UNIT ( ) );
#279 = DIRECTION ( 'NONE',  ( 1.632862398863137527E-16, 1.000000000000000000, -0.000000000000000000 ) ) ;
#280 = EDGE_CURVE ( 'NONE', #300, #34, #133, .T. ) ;
#281 = DIMENSIONAL_EXPONENTS ( 1.000000000000000000, 0.000000000000000000, 0.000000000000000000, 0.000000000000000000, 0.000000000000000000, 0.000000000000000000, 0.000000000000000000 ) ;
#282 = EDGE_LOOP ( 'NONE', ( #103, #50 ) ) ;
#283 = CIRCLE ( 'NONE', #110, 0.2500000000000000000 ) ;
#284 = CIRCLE ( 'NONE', #46, 0.2500000000000000000 ) ;
#285 = APPLICATION_CONTEXT ( 'automotive_design' ) ;
#286 = FILL_AREA_STYLE_COLOUR ( '', #18 ) ;
#287 = LINE ( 'NONE', #115, #150 ) ;
#288 =( CONVERSION_BASED_UNIT ( 'INCH', #99 ) LENGTH_UNIT ( ) NAMED_UNIT ( #251 ) );
#289 = SURFACE_STYLE_USAGE ( .BOTH. , #100 ) ;
#290 = VERTEX_POINT ( 'NONE', #10 ) ;
#291 = PRESENTATION_STYLE_ASSIGNMENT (( #270 ) ) ;
#292 =( LENGTH_UNIT ( ) NAMED_UNIT ( * ) SI_UNIT ( $, .METRE. ) );
#293 = AXIS2_PLACEMENT_3D ( 'NONE', #120, #81, #3 ) ;
#294 = EDGE_LOOP ( 'NONE', ( #122, #164, #252, #75 ) ) ;
#295 =( NAMED_UNIT ( * ) PLANE_ANGLE_UNIT ( ) SI_UNIT ( $, .RADIAN. ) );
#296 = FILL_AREA_STYLE ('',( #128 ) ) ;
#297 = PRODUCT_CONTEXT ( 'NONE', #285, 'mechanical' ) ;
#298 = PRODUCT_DEFINITION_CONTEXT ( 'detailed design', #161, 'design' ) ;
#299 =( NAMED_UNIT ( * ) SI_UNIT ( $, .STERADIAN. ) SOLID_ANGLE_UNIT ( ) );
#300 = VERTEX_POINT ( 'NONE', #228 ) ;
#301 = AXIS2_PLACEMENT_3D ( 'NONE', #146, #241, #223 ) ;
#302 = FACE_OUTER_BOUND ( 'NONE', #246, .T. ) ;
#303 = ADVANCED_FACE ( 'NONE', ( #165 ), #138, .T. ) ;
#304 = CARTESIAN_POINT ( 'NONE',  ( 3.061616997868383018E-17, 0.000000000000000000, 0.2500000000000000000 ) ) ;
#305 = ORIENTED_EDGE ( 'NONE', *, *, #271, .T. ) ;
#306 = UNCERTAINTY_MEASURE_WITH_UNIT (LENGTH_MEASURE( 1.000000000000000082E-05 ), #288, 'distance_accuracy_value', 'NONE');
#307 =( LENGTH_UNIT ( ) NAMED_UNIT ( * ) SI_UNIT ( $, .METRE. ) );
#308 = DIRECTION ( 'NONE',  ( 0.000000000000000000, 1.000000000000000000, 0.000000000000000000 ) ) ;
#309 = AXIS2_PLACEMENT_3D ( 'NONE', #93, #197, #114 ) ;
ENDSEC;
END-ISO-10303-21;
