ISO-10303-21;
HEADER;
FILE_DESCRIPTION (( 'STEP AP214' ),
    '1' );
FILE_NAME ('Micro_BMR-028-2.STEP',
    '2021-09-03T14:01:07',
    ( '' ),
    ( '' ),
    'SwSTEP 2.0',
    'SolidWorks 2020',
    '' );
FILE_SCHEMA (( 'AUTOMOTIVE_DESIGN' ));
ENDSEC;

DATA;
#1 = CARTESIAN_POINT ( 'NONE',  ( 0.0000000000000000000, 0.0000000000000000000, 1.500000000000000222 ) ) ;
#2 = ORIENTED_EDGE ( 'NONE', *, *, #314, .F. ) ;
#3 = EDGE_CURVE ( 'NONE', #26, #198, #192, .T. ) ;
#4 = DIRECTION ( 'NONE',  ( -1.000000000000000000, 0.0000000000000000000, 0.0000000000000000000 ) ) ;
#5 = ORIENTED_EDGE ( 'NONE', *, *, #98, .F. ) ;
#6 = AXIS2_PLACEMENT_3D ( 'NONE', #63, #264, #214 ) ;
#7 = AXIS2_PLACEMENT_3D ( 'NONE', #155, #35, #55 ) ;
#8 = VERTEX_POINT ( 'NONE', #281 ) ;
#9 = ORIENTED_EDGE ( 'NONE', *, *, #66, .T. ) ;
#10 = CARTESIAN_POINT ( 'NONE',  ( -0.01398599999999998802, 1.712791013287488164E-18, 0.08400000000000001910 ) ) ;
#11 = AXIS2_PLACEMENT_3D ( 'NONE', #290, #240, #162 ) ;
#12 = AXIS2_PLACEMENT_3D ( 'NONE', #271, #18, #102 ) ;
#13 = CARTESIAN_POINT ( 'NONE',  ( 0.0000000000000000000, 0.0000000000000000000, 0.0000000000000000000 ) ) ;
#14 = CARTESIAN_POINT ( 'NONE',  ( -0.04750000000000064587, 0.0000000000000000000, 1.500000000000000222 ) ) ;
#15 = DIRECTION ( 'NONE',  ( -0.1736481776669311639, 2.126576849575783008E-17, 0.9848077530122080203 ) ) ;
#16 = AXIS2_PLACEMENT_3D ( 'NONE', #197, #125, #294 ) ;
#17 = DIRECTION ( 'NONE',  ( -1.224646799147353454E-16, -0.0000000000000000000, -1.000000000000000000 ) ) ;
#18 = DIRECTION ( 'NONE',  ( -1.224646799147353454E-16, -0.0000000000000000000, -1.000000000000000000 ) ) ;
#19 = CLOSED_SHELL ( 'NONE', ( #187, #37, #274, #157, #250, #120, #211, #300, #322, #263, #311 ) ) ;
#20 =( GEOMETRIC_REPRESENTATION_CONTEXT ( 3 ) GLOBAL_UNCERTAINTY_ASSIGNED_CONTEXT ( ( #204 ) ) GLOBAL_UNIT_ASSIGNED_CONTEXT ( ( #233, #255, #308 ) ) REPRESENTATION_CONTEXT ( 'NONE', 'WORKASPACE' ) );
#21 = FACE_OUTER_BOUND ( 'NONE', #126, .T. ) ;
#22 = DIRECTION ( 'NONE',  ( -1.224646799147353454E-16, -0.0000000000000000000, -1.000000000000000000 ) ) ;
#23 = VERTEX_POINT ( 'NONE', #54 ) ;
#24 = AXIS2_PLACEMENT_3D ( 'NONE', #277, #117, #229 ) ;
#25 = CARTESIAN_POINT ( 'NONE',  ( -0.01398599999999999670, 0.0000000000000000000, 1.712791013287488164E-18 ) ) ;
#26 = VERTEX_POINT ( 'NONE', #259 ) ;
#27 = LINE ( 'NONE', #200, #215 ) ;
#28 = ORIENTED_EDGE ( 'NONE', *, *, #166, .F. ) ;
#29 = CARTESIAN_POINT ( 'NONE',  ( 0.0000000000000000000, 0.0000000000000000000, 1.485000000000000764 ) ) ;
#30 = PRESENTATION_LAYER_ASSIGNMENT (  '', '', ( #160 ) ) ;
#31 = DIRECTION ( 'NONE',  ( 1.000000000000000000, 0.0000000000000000000, 0.0000000000000000000 ) ) ;
#32 = EDGE_CURVE ( 'NONE', #23, #52, #140, .T. ) ;
#33 = APPLICATION_CONTEXT ( 'automotive_design' ) ;
#34 = CARTESIAN_POINT ( 'NONE',  ( 0.01398600000000001058, 0.0000000000000000000, 0.08400000000000001910 ) ) ;
#35 = DIRECTION ( 'NONE',  ( 1.224646799147353454E-16, 0.0000000000000000000, 1.000000000000000000 ) ) ;
#36 = AXIS2_PLACEMENT_3D ( 'NONE', #128, #304, #209 ) ;
#37 = ADVANCED_FACE ( 'NONE', ( #234 ), #265, .T. ) ;
#38 = DIRECTION ( 'NONE',  ( -1.000000000000000000, 0.0000000000000000000, 0.0000000000000000000 ) ) ;
#39 = SURFACE_STYLE_USAGE ( .BOTH. , #113 ) ;
#40 = LINE ( 'NONE', #110, #137 ) ;
#41 = AXIS2_PLACEMENT_3D ( 'NONE', #138, #242, #220 ) ;
#42 = SPHERICAL_SURFACE ( 'NONE', #41, 0.01398600000000000017 ) ;
#43 = PRODUCT_RELATED_PRODUCT_CATEGORY ( 'part', '', ( #245 ) ) ;
#44 = EDGE_LOOP ( 'NONE', ( #105, #254, #228, #203 ) ) ;
#45 = CIRCLE ( 'NONE', #16, 0.01398600000000000017 ) ;
#46 = CYLINDRICAL_SURFACE ( 'NONE', #230, 0.06250000000000002776 ) ;
#47 = ADVANCED_BREP_SHAPE_REPRESENTATION ( 'Micro_BMR-028-2', ( #139, #36 ), #88 ) ;
#48 = CYLINDRICAL_SURFACE ( 'NONE', #319, 0.01398599999999999670 ) ;
#49 = VERTEX_POINT ( 'NONE', #158 ) ;
#50 = AXIS2_PLACEMENT_3D ( 'NONE', #324, #320, #253 ) ;
#51 = FACE_OUTER_BOUND ( 'NONE', #284, .T. ) ;
#52 = VERTEX_POINT ( 'NONE', #181 ) ;
#53 = LENGTH_MEASURE_WITH_UNIT ( LENGTH_MEASURE( 0.02539999999999999897 ), #202 );
#54 = CARTESIAN_POINT ( 'NONE',  ( -0.06250000000000002776, 0.0000000000000000000, 1.485000000000000764 ) ) ;
#55 = DIRECTION ( 'NONE',  ( 1.000000000000000000, 0.0000000000000000000, 0.0000000000000000000 ) ) ;
#56 = ORIENTED_EDGE ( 'NONE', *, *, #243, .T. ) ;
#57 = DIMENSIONAL_EXPONENTS ( 1.000000000000000000, 0.0000000000000000000, 0.0000000000000000000, 0.0000000000000000000, 0.0000000000000000000, 0.0000000000000000000, 0.0000000000000000000 ) ;
#58 = VECTOR ( 'NONE', #152, 39.37007874015748143 ) ;
#59 = ORIENTED_EDGE ( 'NONE', *, *, #178, .F. ) ;
#60 = SHAPE_DEFINITION_REPRESENTATION ( #199, #47 ) ;
#61 = DIRECTION ( 'NONE',  ( 0.0000000000000000000, 0.0000000000000000000, -1.000000000000000000 ) ) ;
#62 = AXIS2_PLACEMENT_3D ( 'NONE', #221, #22, #73 ) ;
#63 = CARTESIAN_POINT ( 'NONE',  ( 0.0000000000000000000, 0.0000000000000000000, 1.500000000000000222 ) ) ;
#64 = DIRECTION ( 'NONE',  ( -1.224646799147353454E-16, -0.0000000000000000000, -1.000000000000000000 ) ) ;
#65 = PRESENTATION_STYLE_ASSIGNMENT (( #39 ) ) ;
#66 = EDGE_CURVE ( 'NONE', #297, #49, #283, .T. ) ;
#67 = AXIS2_PLACEMENT_3D ( 'NONE', #29, #231, #31 ) ;
#68 =( GEOMETRIC_REPRESENTATION_CONTEXT ( 3 ) GLOBAL_UNCERTAINTY_ASSIGNED_CONTEXT ( ( #280 ) ) GLOBAL_UNIT_ASSIGNED_CONTEXT ( ( #213, #184, #266 ) ) REPRESENTATION_CONTEXT ( 'NONE', 'WORKASPACE' ) );
#69 = CARTESIAN_POINT ( 'NONE',  ( 0.0000000000000000000, 0.0000000000000000000, 1.500000000000000222 ) ) ;
#70 = AXIS2_PLACEMENT_3D ( 'NONE', #13, #64, #185 ) ;
#71 = AXIS2_PLACEMENT_3D ( 'NONE', #1, #100, #75 ) ;
#72 = LINE ( 'NONE', #275, #84 ) ;
#73 = DIRECTION ( 'NONE',  ( -1.000000000000000000, 0.0000000000000000000, 0.0000000000000000000 ) ) ;
#74 = EDGE_LOOP ( 'NONE', ( #303, #101, #305, #82 ) ) ;
#75 = DIRECTION ( 'NONE',  ( -1.000000000000000000, 0.0000000000000000000, 0.0000000000000000000 ) ) ;
#76 = ORIENTED_EDGE ( 'NONE', *, *, #132, .F. ) ;
#77 = CIRCLE ( 'NONE', #121, 0.01398599999999999670 ) ;
#78 = SURFACE_STYLE_USAGE ( .BOTH. , #312 ) ;
#79 = DIRECTION ( 'NONE',  ( -1.000000000000000000, 0.0000000000000000000, 1.525994741205638611E-16 ) ) ;
#80 = LINE ( 'NONE', #175, #58 ) ;
#81 = VERTEX_POINT ( 'NONE', #135 ) ;
#82 = ORIENTED_EDGE ( 'NONE', *, *, #127, .F. ) ;
#83 = VECTOR ( 'NONE', #133, 39.37007874015748143 ) ;
#84 = VECTOR ( 'NONE', #169, 39.37007874015748143 ) ;
#85 = DIRECTION ( 'NONE',  ( 1.000000000000000000, 0.0000000000000000000, 0.0000000000000000000 ) ) ;
#86 = CARTESIAN_POINT ( 'NONE',  ( 0.0000000000000000000, 0.0000000000000000000, 1.500000000000000222 ) ) ;
#87 = DIRECTION ( 'NONE',  ( 0.0000000000000000000, -1.000000000000000000, 0.0000000000000000000 ) ) ;
#88 =( GEOMETRIC_REPRESENTATION_CONTEXT ( 3 ) GLOBAL_UNCERTAINTY_ASSIGNED_CONTEXT ( ( #94 ) ) GLOBAL_UNIT_ASSIGNED_CONTEXT ( ( #236, #111, #260 ) ) REPRESENTATION_CONTEXT ( 'NONE', 'WORKASPACE' ) );
#89 =( LENGTH_UNIT ( ) NAMED_UNIT ( * ) SI_UNIT ( $, .METRE. ) );
#90 = FACE_OUTER_BOUND ( 'NONE', #307, .T. ) ;
#91 = CIRCLE ( 'NONE', #323, 0.04750000000000064587 ) ;
#92 = EDGE_CURVE ( 'NONE', #170, #96, #136, .T. ) ;
#93 = SPHERICAL_SURFACE ( 'NONE', #50, 0.01398600000000000017 ) ;
#94 = UNCERTAINTY_MEASURE_WITH_UNIT (LENGTH_MEASURE( 1.000000000000000082E-05 ), #236, 'distance_accuracy_value', 'NONE');
#95 = CARTESIAN_POINT ( 'NONE',  ( 0.04750000000000064587, 6.735557395310483192E-18, 1.500000000000000222 ) ) ;
#96 = VERTEX_POINT ( 'NONE', #34 ) ;
#97 = DIRECTION ( 'NONE',  ( 1.224646799147353454E-16, 0.0000000000000000000, 1.000000000000000000 ) ) ;
#98 = EDGE_CURVE ( 'NONE', #96, #156, #235, .T. ) ;
#99 = ORIENTED_EDGE ( 'NONE', *, *, #219, .F. ) ;
#100 = DIRECTION ( 'NONE',  ( 0.0000000000000000000, 0.0000000000000000000, -1.000000000000000000 ) ) ;
#101 = ORIENTED_EDGE ( 'NONE', *, *, #286, .F. ) ;
#102 = DIRECTION ( 'NONE',  ( 1.000000000000000000, 0.0000000000000000000, 0.0000000000000000000 ) ) ;
#103 = CARTESIAN_POINT ( 'NONE',  ( 1.712791013287488357E-18, 0.0000000000000000000, 0.01398600000000000017 ) ) ;
#104 = COLOUR_RGB ( '',0.7921568627450980005, 0.8196078431372548767, 0.9333333333333333481 ) ;
#105 = ORIENTED_EDGE ( 'NONE', *, *, #32, .T. ) ;
#106 = APPLICATION_PROTOCOL_DEFINITION ( 'draft international standard', 'automotive_design', 1998, #315 ) ;
#107 = EDGE_LOOP ( 'NONE', ( #218, #56, #256, #150 ) ) ;
#108 = DIRECTION ( 'NONE',  ( 0.7071067811865462405, 8.659560562354916834E-17, -0.7071067811865486830 ) ) ;
#109 = CIRCLE ( 'NONE', #188, 0.06250000000000002776 ) ;
#110 = CARTESIAN_POINT ( 'NONE',  ( 0.04750000000000064587, 5.817072295950006528E-18, 1.500000000000000222 ) ) ;
#111 =( NAMED_UNIT ( * ) PLANE_ANGLE_UNIT ( ) SI_UNIT ( $, .RADIAN. ) );
#112 = CARTESIAN_POINT ( 'NONE',  ( -0.01398599999999998802, 4.683416753979223914E-18, 0.08400000000000001910 ) ) ;
#113 = SURFACE_SIDE_STYLE ('',( #239 ) ) ;
#114 = DIMENSIONAL_EXPONENTS ( 1.000000000000000000, 0.0000000000000000000, 0.0000000000000000000, 0.0000000000000000000, 0.0000000000000000000, 0.0000000000000000000, 0.0000000000000000000 ) ;
#115 = CONICAL_SURFACE ( 'NONE', #7, 0.01398600000000000017, 0.1745329251994338637 ) ;
#116 = FILL_AREA_STYLE ('',( #216 ) ) ;
#117 = DIRECTION ( 'NONE',  ( -1.224646799147353454E-16, -0.0000000000000000000, -1.000000000000000000 ) ) ;
#118 = DIRECTION ( 'NONE',  ( 0.0000000000000000000, 0.0000000000000000000, 1.000000000000000000 ) ) ;
#119 = CARTESIAN_POINT ( 'NONE',  ( 0.01398600000000000017, 1.712791013287487971E-18, 0.01398599999999999670 ) ) ;
#120 = ADVANCED_FACE ( 'NONE', ( #90 ), #261, .T. ) ;
#121 = AXIS2_PLACEMENT_3D ( 'NONE', #249, #97, #148 ) ;
#122 = ORIENTED_EDGE ( 'NONE', *, *, #149, .T. ) ;
#123 = CARTESIAN_POINT ( 'NONE',  ( 0.0000000000000000000, 0.0000000000000000000, 0.0000000000000000000 ) ) ;
#124 = ORIENTED_EDGE ( 'NONE', *, *, #92, .F. ) ;
#125 = DIRECTION ( 'NONE',  ( 1.224646799147353207E-16, 1.000000000000000000, -0.0000000000000000000 ) ) ;
#126 = EDGE_LOOP ( 'NONE', ( #124, #144, #129, #5 ) ) ;
#127 = EDGE_CURVE ( 'NONE', #52, #23, #109, .T. ) ;
#128 = CARTESIAN_POINT ( 'NONE',  ( 0.0000000000000000000, 0.0000000000000000000, 0.0000000000000000000 ) ) ;
#129 = ORIENTED_EDGE ( 'NONE', *, *, #217, .T. ) ;
#130 = CIRCLE ( 'NONE', #62, 0.01398600000000000017 ) ;
#131 = ORIENTED_EDGE ( 'NONE', *, *, #3, .F. ) ;
#132 = EDGE_CURVE ( 'NONE', #170, #81, #237, .T. ) ;
#133 = DIRECTION ( 'NONE',  ( 0.1736481776669313581, 0.0000000000000000000, 0.9848077530122077983 ) ) ;
#134 = FACE_OUTER_BOUND ( 'NONE', #252, .T. ) ;
#135 = CARTESIAN_POINT ( 'NONE',  ( -0.06249999999999997918, 0.0000000000000000000, 0.3591365661969322387 ) ) ;
#136 = CIRCLE ( 'NONE', #176, 0.01398600000000000017 ) ;
#137 = VECTOR ( 'NONE', #108, 39.37007874015748854 ) ;
#138 = CARTESIAN_POINT ( 'NONE',  ( 1.712791013287488357E-18, 0.0000000000000000000, 0.01398600000000000017 ) ) ;
#139 = MANIFOLD_SOLID_BREP ( 'Fillet1', #19 ) ;
#140 = CIRCLE ( 'NONE', #67, 0.06250000000000002776 ) ;
#141 = CONICAL_SURFACE ( 'NONE', #71, 0.04750000000000064587, 0.7853981633974466137 ) ;
#142 = DIRECTION ( 'NONE',  ( -0.0000000000000000000, -0.0000000000000000000, -1.000000000000000000 ) ) ;
#143 = DIRECTION ( 'NONE',  ( -1.000000000000000000, 0.0000000000000000000, 1.224646799147353454E-16 ) ) ;
#144 = ORIENTED_EDGE ( 'NONE', *, *, #132, .T. ) ;
#145 = DIRECTION ( 'NONE',  ( -0.0000000000000000000, -0.0000000000000000000, -1.000000000000000000 ) ) ;
#146 = PRESENTATION_LAYER_ASSIGNMENT (  '', '', ( #223 ) ) ;
#147 = ORIENTED_EDGE ( 'NONE', *, *, #178, .T. ) ;
#148 = DIRECTION ( 'NONE',  ( -1.000000000000000000, 0.0000000000000000000, 1.525994741205638611E-16 ) ) ;
#149 = EDGE_CURVE ( 'NONE', #297, #52, #40, .T. ) ;
#150 = ORIENTED_EDGE ( 'NONE', *, *, #267, .F. ) ;
#151 = ORIENTED_EDGE ( 'NONE', *, *, #267, .T. ) ;
#152 = DIRECTION ( 'NONE',  ( -0.0000000000000000000, -0.0000000000000000000, -1.000000000000000000 ) ) ;
#153 = ORIENTED_EDGE ( 'NONE', *, *, #32, .F. ) ;
#154 = VECTOR ( 'NONE', #182, 39.37007874015748854 ) ;
#155 = CARTESIAN_POINT ( 'NONE',  ( 1.028703311283777035E-17, 0.0000000000000000000, 0.08400000000000001910 ) ) ;
#156 = VERTEX_POINT ( 'NONE', #180 ) ;
#157 = ADVANCED_FACE ( 'NONE', ( #134 ), #241, .T. ) ;
#158 = CARTESIAN_POINT ( 'NONE',  ( -0.04750000000000064587, 0.0000000000000000000, 1.500000000000000222 ) ) ;
#159 = LENGTH_MEASURE_WITH_UNIT ( LENGTH_MEASURE( 0.02539999999999999897 ), #258 );
#160 = STYLED_ITEM ( 'NONE', ( #65 ), #139 ) ;
#161 = CARTESIAN_POINT ( 'NONE',  ( 0.01398600000000001058, 0.0000000000000000000, 0.08400000000000001910 ) ) ;
#162 = DIRECTION ( 'NONE',  ( -1.000000000000000000, 0.0000000000000000000, 0.0000000000000000000 ) ) ;
#163 = DIRECTION ( 'NONE',  ( 0.0000000000000000000, 0.0000000000000000000, -1.000000000000000000 ) ) ;
#164 = FACE_OUTER_BOUND ( 'NONE', #278, .T. ) ;
#165 = AXIS2_PLACEMENT_3D ( 'NONE', #313, #87, #163 ) ;
#166 = EDGE_CURVE ( 'NONE', #49, #23, #238, .T. ) ;
#167 = PRODUCT_DEFINITION_CONTEXT ( 'detailed design', #33, 'design' ) ;
#168 = DIRECTION ( 'NONE',  ( 1.224646799147353454E-16, 0.0000000000000000000, 1.000000000000000000 ) ) ;
#169 = DIRECTION ( 'NONE',  ( -1.224646799147353454E-16, -0.0000000000000000000, -1.000000000000000000 ) ) ;
#170 = VERTEX_POINT ( 'NONE', #112 ) ;
#171 = ORIENTED_EDGE ( 'NONE', *, *, #286, .T. ) ;
#172 = ORIENTED_EDGE ( 'NONE', *, *, #317, .F. ) ;
#173 = FACE_OUTER_BOUND ( 'NONE', #226, .T. ) ;
#174 = EDGE_LOOP ( 'NONE', ( #276, #205, #151, #186 ) ) ;
#175 = CARTESIAN_POINT ( 'NONE',  ( 0.06250000000000002776, 7.654042494670959086E-18, 1.500000000000000222 ) ) ;
#176 = AXIS2_PLACEMENT_3D ( 'NONE', #207, #17, #316 ) ;
#177 = ORIENTED_EDGE ( 'NONE', *, *, #257, .T. ) ;
#178 = EDGE_CURVE ( 'NONE', #8, #198, #301, .T. ) ;
#179 = MECHANICAL_DESIGN_GEOMETRIC_PRESENTATION_REPRESENTATION (  '', ( #160 ), #68 ) ;
#180 = CARTESIAN_POINT ( 'NONE',  ( 0.06250000000000006939, 7.654042494670963708E-18, 0.3591365661969322387 ) ) ;
#181 = CARTESIAN_POINT ( 'NONE',  ( 0.06250000000000002776, 7.654042494670959086E-18, 1.485000000000000764 ) ) ;
#182 = DIRECTION ( 'NONE',  ( -0.7071067811865462405, 0.0000000000000000000, -0.7071067811865486830 ) ) ;
#183 = VECTOR ( 'NONE', #15, 39.37007874015747433 ) ;
#184 =( NAMED_UNIT ( * ) PLANE_ANGLE_UNIT ( ) SI_UNIT ( $, .RADIAN. ) );
#185 = DIRECTION ( 'NONE',  ( -1.000000000000000000, 0.0000000000000000000, 1.224646799147353454E-16 ) ) ;
#186 = ORIENTED_EDGE ( 'NONE', *, *, #3, .T. ) ;
#187 = ADVANCED_FACE ( 'NONE', ( #293 ), #93, .T. ) ;
#188 = AXIS2_PLACEMENT_3D ( 'NONE', #291, #61, #85 ) ;
#189 = MECHANICAL_DESIGN_GEOMETRIC_PRESENTATION_REPRESENTATION (  '', ( #223 ), #20 ) ;
#190 = DIRECTION ( 'NONE',  ( 1.000000000000000000, 0.0000000000000000000, -0.0000000000000000000 ) ) ;
#191 = PRODUCT_DEFINITION ( 'UNKNOWN', '', #208, #167 ) ;
#192 = CIRCLE ( 'NONE', #288, 0.01398599999999999670 ) ;
#193 = FACE_OUTER_BOUND ( 'NONE', #74, .T. ) ;
#194 = AXIS2_PLACEMENT_3D ( 'NONE', #69, #321, #190 ) ;
#195 = CARTESIAN_POINT ( 'NONE',  ( 0.0000000000000000000, 0.0000000000000000000, 1.500000000000000222 ) ) ;
#196 = ORIENTED_EDGE ( 'NONE', *, *, #295, .F. ) ;
#197 = CARTESIAN_POINT ( 'NONE',  ( 1.712791013287488357E-18, 0.0000000000000000000, 0.01398600000000000017 ) ) ;
#198 = VERTEX_POINT ( 'NONE', #119 ) ;
#199 = PRODUCT_DEFINITION_SHAPE ( 'NONE', 'NONE',  #191 ) ;
#200 = CARTESIAN_POINT ( 'NONE',  ( -0.06250000000000002776, 0.0000000000000000000, 1.500000000000000222 ) ) ;
#201 = DIRECTION ( 'NONE',  ( 1.224646799147353454E-16, 0.0000000000000000000, 1.000000000000000000 ) ) ;
#202 =( LENGTH_UNIT ( ) NAMED_UNIT ( * ) SI_UNIT ( $, .METRE. ) );
#203 = ORIENTED_EDGE ( 'NONE', *, *, #257, .F. ) ;
#204 = UNCERTAINTY_MEASURE_WITH_UNIT (LENGTH_MEASURE( 1.000000000000000082E-05 ), #233, 'distance_accuracy_value', 'NONE');
#205 = ORIENTED_EDGE ( 'NONE', *, *, #295, .T. ) ;
#206 = PRESENTATION_STYLE_ASSIGNMENT (( #78 ) ) ;
#207 = CARTESIAN_POINT ( 'NONE',  ( 1.028703311283777035E-17, 0.0000000000000000000, 0.08400000000000001910 ) ) ;
#208 = PRODUCT_DEFINITION_FORMATION_WITH_SPECIFIED_SOURCE ( 'ANY', '', #245, .NOT_KNOWN. ) ;
#209 = DIRECTION ( 'NONE',  ( 1.000000000000000000, 0.0000000000000000000, 0.0000000000000000000 ) ) ;
#210 = LENGTH_MEASURE_WITH_UNIT ( LENGTH_MEASURE( 0.02539999999999999897 ), #89 );
#211 = ADVANCED_FACE ( 'NONE', ( #164 ), #222, .T. ) ;
#212 = FILL_AREA_STYLE ('',( #279 ) ) ;
#213 =( CONVERSION_BASED_UNIT ( 'INCH', #210 ) LENGTH_UNIT ( ) NAMED_UNIT ( #309 ) );
#214 = DIRECTION ( 'NONE',  ( 1.000000000000000000, 0.0000000000000000000, 0.0000000000000000000 ) ) ;
#215 = VECTOR ( 'NONE', #145, 39.37007874015748143 ) ;
#216 = FILL_AREA_STYLE_COLOUR ( '', #244 ) ;
#217 = EDGE_CURVE ( 'NONE', #81, #156, #289, .T. ) ;
#218 = ORIENTED_EDGE ( 'NONE', *, *, #92, .T. ) ;
#219 = EDGE_CURVE ( 'NONE', #8, #26, #45, .T. ) ;
#220 = DIRECTION ( 'NONE',  ( 1.000000000000000000, 0.0000000000000000000, 0.0000000000000000000 ) ) ;
#221 = CARTESIAN_POINT ( 'NONE',  ( 1.028703311283777035E-17, 0.0000000000000000000, 0.08400000000000001910 ) ) ;
#222 = PLANE ( 'NONE',  #194 ) ;
#223 = STYLED_ITEM ( 'NONE', ( #206 ), #47 ) ;
#224 = EDGE_LOOP ( 'NONE', ( #59, #282, #248 ) ) ;
#225 = DIRECTION ( 'NONE',  ( -1.224646799147353454E-16, -0.0000000000000000000, -1.000000000000000000 ) ) ;
#226 = EDGE_LOOP ( 'NONE', ( #76, #196, #318, #299 ) ) ;
#227 = FACE_OUTER_BOUND ( 'NONE', #44, .T. ) ;
#228 = ORIENTED_EDGE ( 'NONE', *, *, #217, .F. ) ;
#229 = DIRECTION ( 'NONE',  ( 1.000000000000000000, 0.0000000000000000000, 0.0000000000000000000 ) ) ;
#230 = AXIS2_PLACEMENT_3D ( 'NONE', #195, #142, #4 ) ;
#231 = DIRECTION ( 'NONE',  ( 0.0000000000000000000, 0.0000000000000000000, -1.000000000000000000 ) ) ;
#232 = EDGE_CURVE ( 'NONE', #198, #26, #77, .T. ) ;
#233 =( CONVERSION_BASED_UNIT ( 'INCH', #53 ) LENGTH_UNIT ( ) NAMED_UNIT ( #114 ) );
#234 = FACE_OUTER_BOUND ( 'NONE', #107, .T. ) ;
#235 = LINE ( 'NONE', #161, #83 ) ;
#236 =( CONVERSION_BASED_UNIT ( 'INCH', #159 ) LENGTH_UNIT ( ) NAMED_UNIT ( #57 ) );
#237 = LINE ( 'NONE', #10, #183 ) ;
#238 = LINE ( 'NONE', #14, #154 ) ;
#239 = SURFACE_STYLE_FILL_AREA ( #116 ) ;
#240 = DIRECTION ( 'NONE',  ( -0.0000000000000000000, -0.0000000000000000000, -1.000000000000000000 ) ) ;
#241 = CONICAL_SURFACE ( 'NONE', #310, 0.04750000000000064587, 0.7853981633974466137 ) ;
#242 = DIRECTION ( 'NONE',  ( 0.0000000000000000000, 1.000000000000000000, 0.0000000000000000000 ) ) ;
#243 = EDGE_CURVE ( 'NONE', #96, #198, #72, .T. ) ;
#244 = COLOUR_RGB ( '',0.7921568627450980005, 0.8196078431372548767, 0.9333333333333333481 ) ;
#245 = PRODUCT ( 'Micro_BMR-028-2', 'Micro_BMR-028-2', '', ( #306 ) ) ;
#246 = DIRECTION ( 'NONE',  ( -1.224646799147353454E-16, -0.0000000000000000000, -1.000000000000000000 ) ) ;
#247 = DIRECTION ( 'NONE',  ( 1.000000000000000000, 0.0000000000000000000, 0.0000000000000000000 ) ) ;
#248 = ORIENTED_EDGE ( 'NONE', *, *, #232, .F. ) ;
#249 = CARTESIAN_POINT ( 'NONE',  ( 1.712791013287488357E-18, 0.0000000000000000000, 0.01398600000000000017 ) ) ;
#250 = ADVANCED_FACE ( 'NONE', ( #227 ), #46, .T. ) ;
#251 = AXIS2_PLACEMENT_3D ( 'NONE', #298, #168, #268 ) ;
#252 = EDGE_LOOP ( 'NONE', ( #325, #122, #153, #28 ) ) ;
#253 = DIRECTION ( 'NONE',  ( 1.000000000000000000, 0.0000000000000000000, 0.0000000000000000000 ) ) ;
#254 = ORIENTED_EDGE ( 'NONE', *, *, #317, .T. ) ;
#255 =( NAMED_UNIT ( * ) PLANE_ANGLE_UNIT ( ) SI_UNIT ( $, .RADIAN. ) );
#256 = ORIENTED_EDGE ( 'NONE', *, *, #232, .T. ) ;
#257 = EDGE_CURVE ( 'NONE', #23, #81, #27, .T. ) ;
#258 =( LENGTH_UNIT ( ) NAMED_UNIT ( * ) SI_UNIT ( $, .METRE. ) );
#259 = CARTESIAN_POINT ( 'NONE',  ( -0.01398599999999999496, 0.0000000000000000000, 0.01398600000000000190 ) ) ;
#260 =( NAMED_UNIT ( * ) SI_UNIT ( $, .STERADIAN. ) SOLID_ANGLE_UNIT ( ) );
#261 = CYLINDRICAL_SURFACE ( 'NONE', #11, 0.06250000000000002776 ) ;
#262 = SURFACE_STYLE_FILL_AREA ( #212 ) ;
#263 = ADVANCED_FACE ( 'NONE', ( #302 ), #48, .T. ) ;
#264 = DIRECTION ( 'NONE',  ( 0.0000000000000000000, 0.0000000000000000000, 1.000000000000000000 ) ) ;
#265 = CYLINDRICAL_SURFACE ( 'NONE', #70, 0.01398599999999999670 ) ;
#266 =( NAMED_UNIT ( * ) SI_UNIT ( $, .STERADIAN. ) SOLID_ANGLE_UNIT ( ) );
#267 = EDGE_CURVE ( 'NONE', #170, #26, #296, .T. ) ;
#268 = DIRECTION ( 'NONE',  ( 1.000000000000000000, 0.0000000000000000000, 0.0000000000000000000 ) ) ;
#269 = CIRCLE ( 'NONE', #24, 0.06250000000000002776 ) ;
#270 = VECTOR ( 'NONE', #225, 39.37007874015748143 ) ;
#271 = CARTESIAN_POINT ( 'NONE',  ( 4.398154462498446902E-17, 0.0000000000000000000, 0.3591365661969322387 ) ) ;
#272 = CARTESIAN_POINT ( 'NONE',  ( 0.0000000000000000000, 0.0000000000000000000, 1.500000000000000222 ) ) ;
#273 = ORIENTED_EDGE ( 'NONE', *, *, #127, .T. ) ;
#274 = ADVANCED_FACE ( 'NONE', ( #21 ), #292, .T. ) ;
#275 = CARTESIAN_POINT ( 'NONE',  ( 0.01398599999999999670, 1.712791013287487971E-18, -1.712791013287488164E-18 ) ) ;
#276 = ORIENTED_EDGE ( 'NONE', *, *, #243, .F. ) ;
#277 = CARTESIAN_POINT ( 'NONE',  ( 4.398154462498446902E-17, 0.0000000000000000000, 0.3591365661969322387 ) ) ;
#278 = EDGE_LOOP ( 'NONE', ( #171, #9 ) ) ;
#279 = FILL_AREA_STYLE_COLOUR ( '', #104 ) ;
#280 = UNCERTAINTY_MEASURE_WITH_UNIT (LENGTH_MEASURE( 1.000000000000000082E-05 ), #213, 'distance_accuracy_value', 'NONE');
#281 = CARTESIAN_POINT ( 'NONE',  ( 2.569186519931232342E-18, 0.0000000000000000000, 0.0000000000000000000 ) ) ;
#282 = ORIENTED_EDGE ( 'NONE', *, *, #219, .T. ) ;
#283 = CIRCLE ( 'NONE', #6, 0.04750000000000064587 ) ;
#284 = EDGE_LOOP ( 'NONE', ( #99, #147, #131 ) ) ;
#285 = APPLICATION_PROTOCOL_DEFINITION ( 'draft international standard', 'automotive_design', 1998, #33 ) ;
#286 = EDGE_CURVE ( 'NONE', #49, #297, #91, .T. ) ;
#287 = DIRECTION ( 'NONE',  ( 0.0000000000000000000, 0.0000000000000000000, -1.000000000000000000 ) ) ;
#288 = AXIS2_PLACEMENT_3D ( 'NONE', #103, #201, #79 ) ;
#289 = CIRCLE ( 'NONE', #12, 0.06250000000000002776 ) ;
#290 = CARTESIAN_POINT ( 'NONE',  ( 0.0000000000000000000, 0.0000000000000000000, 1.500000000000000222 ) ) ;
#291 = CARTESIAN_POINT ( 'NONE',  ( 0.0000000000000000000, 0.0000000000000000000, 1.485000000000000764 ) ) ;
#292 = CONICAL_SURFACE ( 'NONE', #251, 0.01398600000000000017, 0.1745329251994338637 ) ;
#293 = FACE_OUTER_BOUND ( 'NONE', #224, .T. ) ;
#294 = DIRECTION ( 'NONE',  ( -1.000000000000000000, 1.224646799147353207E-16, 0.0000000000000000000 ) ) ;
#295 = EDGE_CURVE ( 'NONE', #96, #170, #130, .T. ) ;
#296 = LINE ( 'NONE', #25, #270 ) ;
#297 = VERTEX_POINT ( 'NONE', #95 ) ;
#298 = CARTESIAN_POINT ( 'NONE',  ( 1.028703311283777035E-17, 0.0000000000000000000, 0.08400000000000001910 ) ) ;
#299 = ORIENTED_EDGE ( 'NONE', *, *, #314, .T. ) ;
#300 = ADVANCED_FACE ( 'NONE', ( #193 ), #141, .T. ) ;
#301 = CIRCLE ( 'NONE', #165, 0.01398600000000000017 ) ;
#302 = FACE_OUTER_BOUND ( 'NONE', #174, .T. ) ;
#303 = ORIENTED_EDGE ( 'NONE', *, *, #149, .F. ) ;
#304 = DIRECTION ( 'NONE',  ( 0.0000000000000000000, 0.0000000000000000000, 1.000000000000000000 ) ) ;
#305 = ORIENTED_EDGE ( 'NONE', *, *, #166, .T. ) ;
#306 = PRODUCT_CONTEXT ( 'NONE', #315, 'mechanical' ) ;
#307 = EDGE_LOOP ( 'NONE', ( #172, #273, #177, #2 ) ) ;
#308 =( NAMED_UNIT ( * ) SI_UNIT ( $, .STERADIAN. ) SOLID_ANGLE_UNIT ( ) );
#309 = DIMENSIONAL_EXPONENTS ( 1.000000000000000000, 0.0000000000000000000, 0.0000000000000000000, 0.0000000000000000000, 0.0000000000000000000, 0.0000000000000000000, 0.0000000000000000000 ) ;
#310 = AXIS2_PLACEMENT_3D ( 'NONE', #86, #287, #38 ) ;
#311 = ADVANCED_FACE ( 'NONE', ( #51 ), #42, .T. ) ;
#312 = SURFACE_SIDE_STYLE ('',( #262 ) ) ;
#313 = CARTESIAN_POINT ( 'NONE',  ( 1.712791013287488357E-18, 0.0000000000000000000, 0.01398600000000000017 ) ) ;
#314 = EDGE_CURVE ( 'NONE', #156, #81, #269, .T. ) ;
#315 = APPLICATION_CONTEXT ( 'automotive_design' ) ;
#316 = DIRECTION ( 'NONE',  ( -1.000000000000000000, 0.0000000000000000000, 0.0000000000000000000 ) ) ;
#317 = EDGE_CURVE ( 'NONE', #52, #156, #80, .T. ) ;
#318 = ORIENTED_EDGE ( 'NONE', *, *, #98, .T. ) ;
#319 = AXIS2_PLACEMENT_3D ( 'NONE', #123, #246, #143 ) ;
#320 = DIRECTION ( 'NONE',  ( 0.0000000000000000000, 1.000000000000000000, 0.0000000000000000000 ) ) ;
#321 = DIRECTION ( 'NONE',  ( 0.0000000000000000000, 0.0000000000000000000, 1.000000000000000000 ) ) ;
#322 = ADVANCED_FACE ( 'NONE', ( #173 ), #115, .T. ) ;
#323 = AXIS2_PLACEMENT_3D ( 'NONE', #272, #118, #247 ) ;
#324 = CARTESIAN_POINT ( 'NONE',  ( 1.712791013287488357E-18, 0.0000000000000000000, 0.01398600000000000017 ) ) ;
#325 = ORIENTED_EDGE ( 'NONE', *, *, #66, .F. ) ;
ENDSEC;
END-ISO-10303-21;
