ISO-10303-21;
HEADER;
FILE_DESCRIPTION (( 'STEP AP214' ),
    '1' );
FILE_NAME ('82651.STEP',
    '2023-06-23T06:37:25',
    ( '' ),
    ( '' ),
    'SwSTEP 2.0',
    'SolidWorks 2023',
    '' );
FILE_SCHEMA (( 'AUTOMOTIVE_DESIGN' ));
ENDSEC;

DATA;
#1 = ORIENTED_EDGE ( 'NONE', *, *, #236, .F. ) ;
#2 = DIMENSIONAL_EXPONENTS ( 1.000000000000000000, 0.000000000000000000, 0.000000000000000000, 0.000000000000000000, 0.000000000000000000, 0.000000000000000000, 0.000000000000000000 ) ;
#3 = LENGTH_MEASURE_WITH_UNIT ( LENGTH_MEASURE( 0.02539999999999999897 ), #97 );
#4 = PRESENTATION_LAYER_ASSIGNMENT (  '', '', ( #229 ) ) ;
#5 = MECHANICAL_DESIGN_GEOMETRIC_PRESENTATION_REPRESENTATION (  '', ( #181 ), #68 ) ;
#6 = ADVANCED_FACE ( 'NONE', ( #110 ), #85, .T. ) ;
#7 = LENGTH_MEASURE_WITH_UNIT ( LENGTH_MEASURE( 0.02539999999999999897 ), #8 );
#8 =( LENGTH_UNIT ( ) NAMED_UNIT ( * ) SI_UNIT ( $, .METRE. ) );
#9 = STYLED_ITEM ( 'NONE', ( #225 ), #258 ) ;
#10 = CLOSED_SHELL ( 'NONE', ( #39, #48, #307, #78 ) ) ;
#11 = PLANE ( 'NONE',  #114 ) ;
#12 = VERTEX_POINT ( 'NONE', #17 ) ;
#13 = CARTESIAN_POINT ( 'NONE',  ( 0.1875000000000000278, 4.000000000000000000, 0.000000000000000000 ) ) ;
#14 = FILL_AREA_STYLE_COLOUR ( '', #167 ) ;
#15 = DIRECTION ( 'NONE',  ( 0.000000000000000000, 0.000000000000000000, -1.000000000000000000 ) ) ;
#16 = FILL_AREA_STYLE ('',( #63 ) ) ;
#17 = CARTESIAN_POINT ( 'NONE',  ( -0.1875000000000002776, 4.000000000000000000, 0.000000000000000000 ) ) ;
#18 = CIRCLE ( 'NONE', #294, 0.1875000000000000278 ) ;
#19 = CARTESIAN_POINT ( 'NONE',  ( 0.1875000000000000278, 2.000000000000000000, 2.296212748401288650E-17 ) ) ;
#20 = APPLICATION_CONTEXT ( 'automotive_design' ) ;
#21 = ORIENTED_EDGE ( 'NONE', *, *, #247, .T. ) ;
#22 = EDGE_CURVE ( 'NONE', #12, #132, #295, .T. ) ;
#23 = LINE ( 'NONE', #40, #134 ) ;
#24 = ORIENTED_EDGE ( 'NONE', *, *, #247, .F. ) ;
#25 = CIRCLE ( 'NONE', #47, 0.1875000000000000278 ) ;
#26 = CLOSED_SHELL ( 'NONE', ( #141, #30, #273, #6 ) ) ;
#27 =( CONVERSION_BASED_UNIT ( 'INCH', #162 ) LENGTH_UNIT ( ) NAMED_UNIT ( #2 ) );
#28 =( CONVERSION_BASED_UNIT ( 'INCH', #231 ) LENGTH_UNIT ( ) NAMED_UNIT ( #296 ) );
#29 = UNCERTAINTY_MEASURE_WITH_UNIT (LENGTH_MEASURE( 1.000000000000000082E-05 ), #275, 'distance_accuracy_value', 'NONE');
#30 = ADVANCED_FACE ( 'NONE', ( #146 ), #11, .T. ) ;
#31 = PRODUCT_DEFINITION ( 'UNKNOWN', '', #179, #262 ) ;
#32 = DIRECTION ( 'NONE',  ( 0.000000000000000000, 0.000000000000000000, -1.000000000000000000 ) ) ;
#33 = PLANE ( 'NONE',  #43 ) ;
#34 = DIRECTION ( 'NONE',  ( -6.123233995736763571E-17, 1.000000000000000000, -0.000000000000000000 ) ) ;
#35 = VECTOR ( 'NONE', #82, 39.37007874015748143 ) ;
#36 = DIRECTION ( 'NONE',  ( 0.000000000000000000, 0.000000000000000000, -1.000000000000000000 ) ) ;
#37 = FILL_AREA_STYLE_COLOUR ( '', #206 ) ;
#38 = AXIS2_PLACEMENT_3D ( 'NONE', #278, #157, #248 ) ;
#39 = ADVANCED_FACE ( 'NONE', ( #292 ), #142, .T. ) ;
#40 = CARTESIAN_POINT ( 'NONE',  ( -0.1875000000000002220, 4.000000000000000000, 0.000000000000000000 ) ) ;
#41 =( CONVERSION_BASED_UNIT ( 'INCH', #251 ) LENGTH_UNIT ( ) NAMED_UNIT ( #304 ) );
#42 =( NAMED_UNIT ( * ) PLANE_ANGLE_UNIT ( ) SI_UNIT ( $, .RADIAN. ) );
#43 = AXIS2_PLACEMENT_3D ( 'NONE', #219, #118, #290 ) ;
#44 = SURFACE_STYLE_USAGE ( .BOTH. , #276 ) ;
#45 = EDGE_LOOP ( 'NONE', ( #253, #282 ) ) ;
#46 = VERTEX_POINT ( 'NONE', #50 ) ;
#47 = AXIS2_PLACEMENT_3D ( 'NONE', #96, #270, #32 ) ;
#48 = ADVANCED_FACE ( 'NONE', ( #242 ), #33, .F. ) ;
#49 = DIRECTION ( 'NONE',  ( -6.123233995736763571E-17, 1.000000000000000000, -0.000000000000000000 ) ) ;
#50 = CARTESIAN_POINT ( 'NONE',  ( 2.296212748401287726E-17, 0.000000000000000000, 0.1875000000000000278 ) ) ;
#51 = CYLINDRICAL_SURFACE ( 'NONE', #64, 0.1875000000000000278 ) ;
#52 = CARTESIAN_POINT ( 'NONE',  ( 0.000000000000000000, 0.000000000000000000, 0.000000000000000000 ) ) ;
#53 = DIRECTION ( 'NONE',  ( 1.000000000000000000, 6.123233995736763571E-17, 0.000000000000000000 ) ) ;
#54 = AXIS2_PLACEMENT_3D ( 'NONE', #143, #137, #263 ) ;
#55 = CARTESIAN_POINT ( 'NONE',  ( 0.000000000000000000, 2.000000000000000000, 0.000000000000000000 ) ) ;
#56 = ORIENTED_EDGE ( 'NONE', *, *, #58, .F. ) ;
#57 = LINE ( 'NONE', #255, #237 ) ;
#58 = EDGE_CURVE ( 'NONE', #165, #46, #171, .T. ) ;
#59 = PRESENTATION_LAYER_ASSIGNMENT (  '', '', ( #107 ) ) ;
#60 = DIRECTION ( 'NONE',  ( 0.000000000000000000, 0.000000000000000000, 1.000000000000000000 ) ) ;
#61 = FILL_AREA_STYLE ('',( #14 ) ) ;
#62 = ORIENTED_EDGE ( 'NONE', *, *, #166, .F. ) ;
#63 = FILL_AREA_STYLE_COLOUR ( '', #288 ) ;
#64 = AXIS2_PLACEMENT_3D ( 'NONE', #187, #250, #15 ) ;
#65 = FILL_AREA_STYLE_COLOUR ( '', #136 ) ;
#66 = ORIENTED_EDGE ( 'NONE', *, *, #125, .F. ) ;
#67 = PRODUCT_DEFINITION_SHAPE ( 'NONE', 'NONE',  #31 ) ;
#68 =( GEOMETRIC_REPRESENTATION_CONTEXT ( 3 ) GLOBAL_UNCERTAINTY_ASSIGNED_CONTEXT ( ( #264 ) ) GLOBAL_UNIT_ASSIGNED_CONTEXT ( ( #28, #211, #92 ) ) REPRESENTATION_CONTEXT ( 'NONE', 'WORKASPACE' ) );
#69 = STYLED_ITEM ( 'NONE', ( #252 ), #273 ) ;
#70 = EDGE_CURVE ( 'NONE', #165, #190, #25, .T. ) ;
#71 = DIRECTION ( 'NONE',  ( 0.000000000000000000, 0.000000000000000000, -1.000000000000000000 ) ) ;
#72 = DIRECTION ( 'NONE',  ( 0.000000000000000000, 0.000000000000000000, -1.000000000000000000 ) ) ;
#73 = ADVANCED_BREP_SHAPE_REPRESENTATION ( '82651', ( #153, #258, #164 ), #87 ) ;
#74 = AXIS2_PLACEMENT_3D ( 'NONE', #147, #34, #122 ) ;
#75 = DIRECTION ( 'NONE',  ( 0.000000000000000000, -0.000000000000000000, 1.000000000000000000 ) ) ;
#76 = SURFACE_STYLE_USAGE ( .BOTH. , #120 ) ;
#77 = CARTESIAN_POINT ( 'NONE',  ( 0.000000000000000000, 0.000000000000000000, 0.000000000000000000 ) ) ;
#78 = ADVANCED_FACE ( 'NONE', ( #200 ), #243, .F. ) ;
#79 = SURFACE_STYLE_FILL_AREA ( #61 ) ;
#80 = EDGE_CURVE ( 'NONE', #190, #165, #213, .T. ) ;
#81 =( LENGTH_UNIT ( ) NAMED_UNIT ( * ) SI_UNIT ( $, .METRE. ) );
#82 = DIRECTION ( 'NONE',  ( -0.000000000000000000, -1.000000000000000000, -0.000000000000000000 ) ) ;
#83 = FILL_AREA_STYLE ('',( #65 ) ) ;
#84 =( LENGTH_UNIT ( ) NAMED_UNIT ( * ) SI_UNIT ( $, .METRE. ) );
#85 = PLANE ( 'NONE',  #173 ) ;
#86 = ORIENTED_EDGE ( 'NONE', *, *, #194, .T. ) ;
#87 =( GEOMETRIC_REPRESENTATION_CONTEXT ( 3 ) GLOBAL_UNCERTAINTY_ASSIGNED_CONTEXT ( ( #29 ) ) GLOBAL_UNIT_ASSIGNED_CONTEXT ( ( #275, #102, #272 ) ) REPRESENTATION_CONTEXT ( 'NONE', 'WORKASPACE' ) );
#88 = PRESENTATION_LAYER_ASSIGNMENT (  '', '', ( #181 ) ) ;
#89 = EDGE_CURVE ( 'NONE', #46, #135, #95, .T. ) ;
#90 = EDGE_LOOP ( 'NONE', ( #257, #159 ) ) ;
#91 = UNCERTAINTY_MEASURE_WITH_UNIT (LENGTH_MEASURE( 1.000000000000000082E-05 ), #27, 'distance_accuracy_value', 'NONE');
#92 =( NAMED_UNIT ( * ) SI_UNIT ( $, .STERADIAN. ) SOLID_ANGLE_UNIT ( ) );
#93 = AXIS2_PLACEMENT_3D ( 'NONE', #195, #117, #72 ) ;
#94 =( CONVERSION_BASED_UNIT ( 'INCH', #7 ) LENGTH_UNIT ( ) NAMED_UNIT ( #103 ) );
#95 = CIRCLE ( 'NONE', #217, 0.1875000000000000278 ) ;
#96 = CARTESIAN_POINT ( 'NONE',  ( 0.000000000000000000, 2.000000000000000000, 0.000000000000000000 ) ) ;
#97 =( LENGTH_UNIT ( ) NAMED_UNIT ( * ) SI_UNIT ( $, .METRE. ) );
#98 = SURFACE_STYLE_FILL_AREA ( #269 ) ;
#99 = CARTESIAN_POINT ( 'NONE',  ( -1.224646799147352714E-16, 4.000000000000000000, 0.000000000000000000 ) ) ;
#100 = LENGTH_MEASURE_WITH_UNIT ( LENGTH_MEASURE( 0.02539999999999999897 ), #81 );
#101 = PRESENTATION_STYLE_ASSIGNMENT (( #76 ) ) ;
#102 =( NAMED_UNIT ( * ) PLANE_ANGLE_UNIT ( ) SI_UNIT ( $, .RADIAN. ) );
#103 = DIMENSIONAL_EXPONENTS ( 1.000000000000000000, 0.000000000000000000, 0.000000000000000000, 0.000000000000000000, 0.000000000000000000, 0.000000000000000000, 0.000000000000000000 ) ;
#104 = CARTESIAN_POINT ( 'NONE',  ( -1.224646799147352714E-16, 4.000000000000000000, 0.000000000000000000 ) ) ;
#105 = PRESENTATION_LAYER_ASSIGNMENT (  '', '', ( #244 ) ) ;
#106 =( NAMED_UNIT ( * ) PLANE_ANGLE_UNIT ( ) SI_UNIT ( $, .RADIAN. ) );
#107 = STYLED_ITEM ( 'NONE', ( #182 ), #153 ) ;
#108 = ORIENTED_EDGE ( 'NONE', *, *, #58, .T. ) ;
#109 = CARTESIAN_POINT ( 'NONE',  ( 1.516480271171051896E-32, 2.000000000000000000, 0.000000000000000000 ) ) ;
#110 = FACE_OUTER_BOUND ( 'NONE', #90, .T. ) ;
#111 = DIRECTION ( 'NONE',  ( -6.123233995736763571E-17, 1.000000000000000000, -0.000000000000000000 ) ) ;
#112 = FILL_AREA_STYLE_COLOUR ( '', #178 ) ;
#113 = SURFACE_SIDE_STYLE ('',( #191 ) ) ;
#114 = AXIS2_PLACEMENT_3D ( 'NONE', #199, #221, #75 ) ;
#115 =( LENGTH_UNIT ( ) NAMED_UNIT ( * ) SI_UNIT ( $, .METRE. ) );
#116 = ORIENTED_EDGE ( 'NONE', *, *, #125, .T. ) ;
#117 = DIRECTION ( 'NONE',  ( -0.000000000000000000, -1.000000000000000000, -0.000000000000000000 ) ) ;
#118 = DIRECTION ( 'NONE',  ( -6.123233995736763571E-17, 1.000000000000000000, 0.000000000000000000 ) ) ;
#119 = SURFACE_SIDE_STYLE ('',( #98 ) ) ;
#120 = SURFACE_SIDE_STYLE ('',( #215 ) ) ;
#121 = AXIS2_PLACEMENT_3D ( 'NONE', #13, #198, #53 ) ;
#122 = DIRECTION ( 'NONE',  ( -1.000000000000000000, 0.000000000000000000, 0.000000000000000000 ) ) ;
#123 = PRESENTATION_STYLE_ASSIGNMENT (( #291 ) ) ;
#124 = DIRECTION ( 'NONE',  ( -0.000000000000000000, -1.000000000000000000, -0.000000000000000000 ) ) ;
#125 = EDGE_CURVE ( 'NONE', #308, #155, #300, .T. ) ;
#126 = FILL_AREA_STYLE ('',( #37 ) ) ;
#127 = FACE_OUTER_BOUND ( 'NONE', #265, .T. ) ;
#128 =( GEOMETRIC_REPRESENTATION_CONTEXT ( 3 ) GLOBAL_UNCERTAINTY_ASSIGNED_CONTEXT ( ( #139 ) ) GLOBAL_UNIT_ASSIGNED_CONTEXT ( ( #94, #196, #268 ) ) REPRESENTATION_CONTEXT ( 'NONE', 'WORKASPACE' ) );
#129 =( CONVERSION_BASED_UNIT ( 'INCH', #301 ) LENGTH_UNIT ( ) NAMED_UNIT ( #214 ) );
#130 = ORIENTED_EDGE ( 'NONE', *, *, #186, .F. ) ;
#131 = FILL_AREA_STYLE ('',( #112 ) ) ;
#132 = VERTEX_POINT ( 'NONE', #297 ) ;
#133 = SURFACE_SIDE_STYLE ('',( #208 ) ) ;
#134 = VECTOR ( 'NONE', #111, 39.37007874015748143 ) ;
#135 = VERTEX_POINT ( 'NONE', #185 ) ;
#136 = COLOUR_RGB ( '',1.000000000000000000, 0.000000000000000000, 0.000000000000000000 ) ;
#137 = DIRECTION ( 'NONE',  ( -0.000000000000000000, -1.000000000000000000, -0.000000000000000000 ) ) ;
#138 =( GEOMETRIC_REPRESENTATION_CONTEXT ( 3 ) GLOBAL_UNCERTAINTY_ASSIGNED_CONTEXT ( ( #287 ) ) GLOBAL_UNIT_ASSIGNED_CONTEXT ( ( #41, #203, #177 ) ) REPRESENTATION_CONTEXT ( 'NONE', 'WORKASPACE' ) );
#139 = UNCERTAINTY_MEASURE_WITH_UNIT (LENGTH_MEASURE( 1.000000000000000082E-05 ), #94, 'distance_accuracy_value', 'NONE');
#140 = FILL_AREA_STYLE_COLOUR ( '', #277 ) ;
#141 = ADVANCED_FACE ( 'NONE', ( #170 ), #51, .T. ) ;
#142 = CYLINDRICAL_SURFACE ( 'NONE', #266, 0.1875000000000000833 ) ;
#143 = CARTESIAN_POINT ( 'NONE',  ( 0.000000000000000000, 0.000000000000000000, 0.000000000000000000 ) ) ;
#144 = DIRECTION ( 'NONE',  ( 0.000000000000000000, 0.000000000000000000, -1.000000000000000000 ) ) ;
#145 =( GEOMETRIC_REPRESENTATION_CONTEXT ( 3 ) GLOBAL_UNCERTAINTY_ASSIGNED_CONTEXT ( ( #91 ) ) GLOBAL_UNIT_ASSIGNED_CONTEXT ( ( #27, #42, #302 ) ) REPRESENTATION_CONTEXT ( 'NONE', 'WORKASPACE' ) );
#146 = FACE_OUTER_BOUND ( 'NONE', #45, .T. ) ;
#147 = CARTESIAN_POINT ( 'NONE',  ( 1.516480271171051896E-32, 2.000000000000000000, 0.000000000000000000 ) ) ;
#148 = APPLICATION_PROTOCOL_DEFINITION ( 'draft international standard', 'automotive_design', 1998, #228 ) ;
#149 = CARTESIAN_POINT ( 'NONE',  ( -0.1875000000000000278, 2.000000000000000000, 0.000000000000000000 ) ) ;
#150 = DIRECTION ( 'NONE',  ( -6.123233995736763571E-17, 1.000000000000000000, -0.000000000000000000 ) ) ;
#151 = PRODUCT_CONTEXT ( 'NONE', #228, 'mechanical' ) ;
#152 = CARTESIAN_POINT ( 'NONE',  ( 0.000000000000000000, 0.000000000000000000, -0.1875000000000000278 ) ) ;
#153 = MANIFOLD_SOLID_BREP ( 'Revolve - Cutting Edge', #26 ) ;
#154 =( NAMED_UNIT ( * ) SI_UNIT ( $, .STERADIAN. ) SOLID_ANGLE_UNIT ( ) );
#155 = VERTEX_POINT ( 'NONE', #19 ) ;
#156 = PRESENTATION_LAYER_ASSIGNMENT (  '', '', ( #69 ) ) ;
#157 = DIRECTION ( 'NONE',  ( -6.123233995736763571E-17, 1.000000000000000000, -0.000000000000000000 ) ) ;
#158 = CYLINDRICAL_SURFACE ( 'NONE', #54, 0.1875000000000000278 ) ;
#159 = ORIENTED_EDGE ( 'NONE', *, *, #89, .T. ) ;
#160 = ORIENTED_EDGE ( 'NONE', *, *, #22, .T. ) ;
#161 = AXIS2_PLACEMENT_3D ( 'NONE', #246, #293, #169 ) ;
#162 = LENGTH_MEASURE_WITH_UNIT ( LENGTH_MEASURE( 0.02539999999999999897 ), #309 );
#163 =( GEOMETRIC_REPRESENTATION_CONTEXT ( 3 ) GLOBAL_UNCERTAINTY_ASSIGNED_CONTEXT ( ( #267 ) ) GLOBAL_UNIT_ASSIGNED_CONTEXT ( ( #129, #106, #154 ) ) REPRESENTATION_CONTEXT ( 'NONE', 'WORKASPACE' ) );
#164 = AXIS2_PLACEMENT_3D ( 'NONE', #77, #60, #224 ) ;
#165 = VERTEX_POINT ( 'NONE', #230 ) ;
#166 = EDGE_CURVE ( 'NONE', #155, #308, #18, .T. ) ;
#167 = COLOUR_RGB ( '',0.7921568627450980005, 0.8196078431372548767, 0.9333333333333333481 ) ;
#168 = PRODUCT_RELATED_PRODUCT_CATEGORY ( 'part', '', ( #183 ) ) ;
#169 = DIRECTION ( 'NONE',  ( -1.000000000000000000, 0.000000000000000000, 0.000000000000000000 ) ) ;
#170 = FACE_OUTER_BOUND ( 'NONE', #274, .T. ) ;
#171 = LINE ( 'NONE', #218, #197 ) ;
#172 = MECHANICAL_DESIGN_GEOMETRIC_PRESENTATION_REPRESENTATION (  '', ( #229 ), #138 ) ;
#173 = AXIS2_PLACEMENT_3D ( 'NONE', #188, #280, #71 ) ;
#174 = ORIENTED_EDGE ( 'NONE', *, *, #80, .T. ) ;
#175 = SURFACE_SIDE_STYLE ('',( #79 ) ) ;
#176 = DIRECTION ( 'NONE',  ( -1.000000000000000000, 0.000000000000000000, 0.000000000000000000 ) ) ;
#177 =( NAMED_UNIT ( * ) SI_UNIT ( $, .STERADIAN. ) SOLID_ANGLE_UNIT ( ) );
#178 = COLOUR_RGB ( '',1.000000000000000000, 0.000000000000000000, 0.000000000000000000 ) ;
#179 = PRODUCT_DEFINITION_FORMATION_WITH_SPECIFIED_SOURCE ( 'ANY', '', #183, .NOT_KNOWN. ) ;
#180 = SHAPE_DEFINITION_REPRESENTATION ( #67, #73 ) ;
#181 = STYLED_ITEM ( 'NONE', ( #283 ), #6 ) ;
#182 = PRESENTATION_STYLE_ASSIGNMENT (( #44 ) ) ;
#183 = PRODUCT ( '82651', '82651', '', ( #151 ) ) ;
#184 = ORIENTED_EDGE ( 'NONE', *, *, #89, .F. ) ;
#185 = CARTESIAN_POINT ( 'NONE',  ( 0.000000000000000000, 0.000000000000000000, -0.1875000000000000278 ) ) ;
#186 = EDGE_CURVE ( 'NONE', #132, #12, #281, .T. ) ;
#187 = CARTESIAN_POINT ( 'NONE',  ( 0.000000000000000000, 0.000000000000000000, 0.000000000000000000 ) ) ;
#188 = CARTESIAN_POINT ( 'NONE',  ( 0.000000000000000000, 0.000000000000000000, 0.000000000000000000 ) ) ;
#189 = AXIS2_PLACEMENT_3D ( 'NONE', #104, #220, #176 ) ;
#190 = VERTEX_POINT ( 'NONE', #223 ) ;
#191 = SURFACE_STYLE_FILL_AREA ( #131 ) ;
#192 = EDGE_LOOP ( 'NONE', ( #66, #62 ) ) ;
#193 = CIRCLE ( 'NONE', #93, 0.1875000000000000278 ) ;
#194 = EDGE_CURVE ( 'NONE', #155, #132, #57, .T. ) ;
#195 = CARTESIAN_POINT ( 'NONE',  ( 0.000000000000000000, 0.000000000000000000, 0.000000000000000000 ) ) ;
#196 =( NAMED_UNIT ( * ) PLANE_ANGLE_UNIT ( ) SI_UNIT ( $, .RADIAN. ) );
#197 = VECTOR ( 'NONE', #216, 39.37007874015748143 ) ;
#198 = DIRECTION ( 'NONE',  ( 6.123233995736763571E-17, -1.000000000000000000, 0.000000000000000000 ) ) ;
#199 = CARTESIAN_POINT ( 'NONE',  ( 0.000000000000000000, 2.000000000000000000, 0.000000000000000000 ) ) ;
#200 = FACE_OUTER_BOUND ( 'NONE', #306, .T. ) ;
#201 = ORIENTED_EDGE ( 'NONE', *, *, #194, .F. ) ;
#202 = CYLINDRICAL_SURFACE ( 'NONE', #189, 0.1875000000000000833 ) ;
#203 =( NAMED_UNIT ( * ) PLANE_ANGLE_UNIT ( ) SI_UNIT ( $, .RADIAN. ) );
#204 =( NAMED_UNIT ( * ) PLANE_ANGLE_UNIT ( ) SI_UNIT ( $, .RADIAN. ) );
#205 = SURFACE_STYLE_FILL_AREA ( #16 ) ;
#206 = COLOUR_RGB ( '',1.000000000000000000, 0.000000000000000000, 0.000000000000000000 ) ;
#207 = PRESENTATION_LAYER_ASSIGNMENT (  '', '', ( #9 ) ) ;
#208 = SURFACE_STYLE_FILL_AREA ( #83 ) ;
#209 = DIRECTION ( 'NONE',  ( -1.000000000000000000, 0.000000000000000000, 0.000000000000000000 ) ) ;
#210 = EDGE_LOOP ( 'NONE', ( #56, #234, #260, #184 ) ) ;
#211 =( NAMED_UNIT ( * ) PLANE_ANGLE_UNIT ( ) SI_UNIT ( $, .RADIAN. ) );
#212 = UNCERTAINTY_MEASURE_WITH_UNIT (LENGTH_MEASURE( 1.000000000000000082E-05 ), #245, 'distance_accuracy_value', 'NONE');
#213 = CIRCLE ( 'NONE', #222, 0.1875000000000000278 ) ;
#214 = DIMENSIONAL_EXPONENTS ( 1.000000000000000000, 0.000000000000000000, 0.000000000000000000, 0.000000000000000000, 0.000000000000000000, 0.000000000000000000, 0.000000000000000000 ) ;
#215 = SURFACE_STYLE_FILL_AREA ( #126 ) ;
#216 = DIRECTION ( 'NONE',  ( -0.000000000000000000, -1.000000000000000000, -0.000000000000000000 ) ) ;
#217 = AXIS2_PLACEMENT_3D ( 'NONE', #52, #124, #144 ) ;
#218 = CARTESIAN_POINT ( 'NONE',  ( 2.296212748401287726E-17, 0.000000000000000000, 0.1875000000000000278 ) ) ;
#219 = CARTESIAN_POINT ( 'NONE',  ( 3.515061990613726630E-34, 2.000000000000000000, 0.000000000000000000 ) ) ;
#220 = DIRECTION ( 'NONE',  ( -6.123233995736763571E-17, 1.000000000000000000, -0.000000000000000000 ) ) ;
#221 = DIRECTION ( 'NONE',  ( 0.000000000000000000, 1.000000000000000000, 0.000000000000000000 ) ) ;
#222 = AXIS2_PLACEMENT_3D ( 'NONE', #55, #271, #36 ) ;
#223 = CARTESIAN_POINT ( 'NONE',  ( 0.000000000000000000, 2.000000000000000000, -0.1875000000000000278 ) ) ;
#224 = DIRECTION ( 'NONE',  ( 1.000000000000000000, 0.000000000000000000, 0.000000000000000000 ) ) ;
#225 = PRESENTATION_STYLE_ASSIGNMENT (( #249 ) ) ;
#226 = ORIENTED_EDGE ( 'NONE', *, *, #22, .F. ) ;
#227 = MECHANICAL_DESIGN_GEOMETRIC_PRESENTATION_REPRESENTATION (  '', ( #9 ), #261 ) ;
#228 = APPLICATION_CONTEXT ( 'automotive_design' ) ;
#229 = STYLED_ITEM ( 'NONE', ( #123 ), #141 ) ;
#230 = CARTESIAN_POINT ( 'NONE',  ( 2.296212748401287726E-17, 2.000000000000000000, 0.1875000000000000278 ) ) ;
#231 = LENGTH_MEASURE_WITH_UNIT ( LENGTH_MEASURE( 0.02539999999999999897 ), #115 );
#232 = LINE ( 'NONE', #152, #35 ) ;
#233 = SURFACE_STYLE_USAGE ( .BOTH. , #113 ) ;
#234 = ORIENTED_EDGE ( 'NONE', *, *, #70, .T. ) ;
#235 = SURFACE_STYLE_USAGE ( .BOTH. , #133 ) ;
#236 = EDGE_CURVE ( 'NONE', #190, #135, #232, .T. ) ;
#237 = VECTOR ( 'NONE', #150, 39.37007874015748143 ) ;
#238 = ORIENTED_EDGE ( 'NONE', *, *, #186, .T. ) ;
#239 = DIMENSIONAL_EXPONENTS ( 1.000000000000000000, 0.000000000000000000, 0.000000000000000000, 0.000000000000000000, 0.000000000000000000, 0.000000000000000000, 0.000000000000000000 ) ;
#240 = DIMENSIONAL_EXPONENTS ( 1.000000000000000000, 0.000000000000000000, 0.000000000000000000, 0.000000000000000000, 0.000000000000000000, 0.000000000000000000, 0.000000000000000000 ) ;
#241 = DIRECTION ( 'NONE',  ( -1.000000000000000000, 0.000000000000000000, 0.000000000000000000 ) ) ;
#242 = FACE_OUTER_BOUND ( 'NONE', #192, .T. ) ;
#243 = PLANE ( 'NONE',  #121 ) ;
#244 = STYLED_ITEM ( 'NONE', ( #101 ), #30 ) ;
#245 =( CONVERSION_BASED_UNIT ( 'INCH', #3 ) LENGTH_UNIT ( ) NAMED_UNIT ( #240 ) );
#246 = CARTESIAN_POINT ( 'NONE',  ( -1.224646799147352714E-16, 4.000000000000000000, 0.000000000000000000 ) ) ;
#247 = EDGE_CURVE ( 'NONE', #308, #12, #23, .T. ) ;
#248 = DIRECTION ( 'NONE',  ( -1.000000000000000000, 0.000000000000000000, 0.000000000000000000 ) ) ;
#249 = SURFACE_STYLE_USAGE ( .BOTH. , #175 ) ;
#250 = DIRECTION ( 'NONE',  ( -0.000000000000000000, -1.000000000000000000, -0.000000000000000000 ) ) ;
#251 = LENGTH_MEASURE_WITH_UNIT ( LENGTH_MEASURE( 0.02539999999999999897 ), #84 );
#252 = PRESENTATION_STYLE_ASSIGNMENT (( #233 ) ) ;
#253 = ORIENTED_EDGE ( 'NONE', *, *, #80, .F. ) ;
#254 = MECHANICAL_DESIGN_GEOMETRIC_PRESENTATION_REPRESENTATION (  '', ( #107 ), #163 ) ;
#255 = CARTESIAN_POINT ( 'NONE',  ( 0.1874999999999999445, 4.000000000000000000, 2.296212748401288342E-17 ) ) ;
#256 = EDGE_LOOP ( 'NONE', ( #116, #86, #226, #24 ) ) ;
#257 = ORIENTED_EDGE ( 'NONE', *, *, #289, .T. ) ;
#258 = MANIFOLD_SOLID_BREP ( 'Revolve - Tool Body (Straight Shanked)', #10 ) ;
#259 = FACE_OUTER_BOUND ( 'NONE', #210, .T. ) ;
#260 = ORIENTED_EDGE ( 'NONE', *, *, #236, .T. ) ;
#261 =( GEOMETRIC_REPRESENTATION_CONTEXT ( 3 ) GLOBAL_UNCERTAINTY_ASSIGNED_CONTEXT ( ( #212 ) ) GLOBAL_UNIT_ASSIGNED_CONTEXT ( ( #245, #204, #284 ) ) REPRESENTATION_CONTEXT ( 'NONE', 'WORKASPACE' ) );
#262 = PRODUCT_DEFINITION_CONTEXT ( 'detailed design', #20, 'design' ) ;
#263 = DIRECTION ( 'NONE',  ( 0.000000000000000000, 0.000000000000000000, -1.000000000000000000 ) ) ;
#264 = UNCERTAINTY_MEASURE_WITH_UNIT (LENGTH_MEASURE( 1.000000000000000082E-05 ), #28, 'distance_accuracy_value', 'NONE');
#265 = EDGE_LOOP ( 'NONE', ( #201, #303, #21, #130 ) ) ;
#266 = AXIS2_PLACEMENT_3D ( 'NONE', #99, #49, #241 ) ;
#267 = UNCERTAINTY_MEASURE_WITH_UNIT (LENGTH_MEASURE( 1.000000000000000082E-05 ), #129, 'distance_accuracy_value', 'NONE');
#268 =( NAMED_UNIT ( * ) SI_UNIT ( $, .STERADIAN. ) SOLID_ANGLE_UNIT ( ) );
#269 = FILL_AREA_STYLE ('',( #140 ) ) ;
#270 = DIRECTION ( 'NONE',  ( -0.000000000000000000, -1.000000000000000000, -0.000000000000000000 ) ) ;
#271 = DIRECTION ( 'NONE',  ( -0.000000000000000000, -1.000000000000000000, -0.000000000000000000 ) ) ;
#272 =( NAMED_UNIT ( * ) SI_UNIT ( $, .STERADIAN. ) SOLID_ANGLE_UNIT ( ) );
#273 = ADVANCED_FACE ( 'NONE', ( #259 ), #158, .T. ) ;
#274 = EDGE_LOOP ( 'NONE', ( #174, #108, #279, #1 ) ) ;
#275 =( CONVERSION_BASED_UNIT ( 'INCH', #100 ) LENGTH_UNIT ( ) NAMED_UNIT ( #239 ) );
#276 = SURFACE_SIDE_STYLE ('',( #205 ) ) ;
#277 = COLOUR_RGB ( '',1.000000000000000000, 0.000000000000000000, 0.000000000000000000 ) ;
#278 = CARTESIAN_POINT ( 'NONE',  ( -1.224646799147352714E-16, 4.000000000000000000, 0.000000000000000000 ) ) ;
#279 = ORIENTED_EDGE ( 'NONE', *, *, #289, .F. ) ;
#280 = DIRECTION ( 'NONE',  ( 0.000000000000000000, -1.000000000000000000, -0.000000000000000000 ) ) ;
#281 = CIRCLE ( 'NONE', #38, 0.1875000000000001388 ) ;
#282 = ORIENTED_EDGE ( 'NONE', *, *, #70, .F. ) ;
#283 = PRESENTATION_STYLE_ASSIGNMENT (( #235 ) ) ;
#284 =( NAMED_UNIT ( * ) SI_UNIT ( $, .STERADIAN. ) SOLID_ANGLE_UNIT ( ) );
#285 = MECHANICAL_DESIGN_GEOMETRIC_PRESENTATION_REPRESENTATION (  '', ( #244 ), #128 ) ;
#286 = MECHANICAL_DESIGN_GEOMETRIC_PRESENTATION_REPRESENTATION (  '', ( #69 ), #145 ) ;
#287 = UNCERTAINTY_MEASURE_WITH_UNIT (LENGTH_MEASURE( 1.000000000000000082E-05 ), #41, 'distance_accuracy_value', 'NONE');
#288 = COLOUR_RGB ( '',0.7921568627450980005, 0.8196078431372548767, 0.9333333333333333481 ) ;
#289 = EDGE_CURVE ( 'NONE', #135, #46, #193, .T. ) ;
#290 = DIRECTION ( 'NONE',  ( -1.000000000000000000, -6.123233995736763571E-17, 0.000000000000000000 ) ) ;
#291 = SURFACE_STYLE_USAGE ( .BOTH. , #119 ) ;
#292 = FACE_OUTER_BOUND ( 'NONE', #256, .T. ) ;
#293 = DIRECTION ( 'NONE',  ( -6.123233995736763571E-17, 1.000000000000000000, -0.000000000000000000 ) ) ;
#294 = AXIS2_PLACEMENT_3D ( 'NONE', #109, #298, #209 ) ;
#295 = CIRCLE ( 'NONE', #161, 0.1875000000000001388 ) ;
#296 = DIMENSIONAL_EXPONENTS ( 1.000000000000000000, 0.000000000000000000, 0.000000000000000000, 0.000000000000000000, 0.000000000000000000, 0.000000000000000000, 0.000000000000000000 ) ;
#297 = CARTESIAN_POINT ( 'NONE',  ( 0.1875000000000000278, 4.000000000000000000, 2.296212748401288650E-17 ) ) ;
#298 = DIRECTION ( 'NONE',  ( -6.123233995736763571E-17, 1.000000000000000000, -0.000000000000000000 ) ) ;
#299 = APPLICATION_PROTOCOL_DEFINITION ( 'draft international standard', 'automotive_design', 1998, #20 ) ;
#300 = CIRCLE ( 'NONE', #74, 0.1875000000000000278 ) ;
#301 = LENGTH_MEASURE_WITH_UNIT ( LENGTH_MEASURE( 0.02539999999999999897 ), #305 );
#302 =( NAMED_UNIT ( * ) SI_UNIT ( $, .STERADIAN. ) SOLID_ANGLE_UNIT ( ) );
#303 = ORIENTED_EDGE ( 'NONE', *, *, #166, .T. ) ;
#304 = DIMENSIONAL_EXPONENTS ( 1.000000000000000000, 0.000000000000000000, 0.000000000000000000, 0.000000000000000000, 0.000000000000000000, 0.000000000000000000, 0.000000000000000000 ) ;
#305 =( LENGTH_UNIT ( ) NAMED_UNIT ( * ) SI_UNIT ( $, .METRE. ) );
#306 = EDGE_LOOP ( 'NONE', ( #160, #238 ) ) ;
#307 = ADVANCED_FACE ( 'NONE', ( #127 ), #202, .T. ) ;
#308 = VERTEX_POINT ( 'NONE', #149 ) ;
#309 =( LENGTH_UNIT ( ) NAMED_UNIT ( * ) SI_UNIT ( $, .METRE. ) );
ENDSEC;
END-ISO-10303-21;
