ISO-10303-21;
HEADER;
FILE_DESCRIPTION (( 'STEP AP214' ),
    '1' );
FILE_NAME ('56017.STEP',
    '2023-06-30T22:04:52',
    ( '' ),
    ( '' ),
    'SwSTEP 2.0',
    'SolidWorks 2023',
    '' );
FILE_SCHEMA (( 'AUTOMOTIVE_DESIGN' ));
ENDSEC;

DATA;
#1 = PLANE ( 'NONE',  #43 ) ;
#2 = MECHANICAL_DESIGN_GEOMETRIC_PRESENTATION_REPRESENTATION (  '', ( #170 ), #113 ) ;
#3 = PLANE ( 'NONE',  #302 ) ;
#4 = PRESENTATION_STYLE_ASSIGNMENT (( #59 ) ) ;
#5 = CIRCLE ( 'NONE', #216, 0.06249999999999939632 ) ;
#6 = CIRCLE ( 'NONE', #136, 0.06250000000000001388 ) ;
#7 = SURFACE_SIDE_STYLE ('',( #351 ) ) ;
#8 = FACE_OUTER_BOUND ( 'NONE', #212, .T. ) ;
#9 = PRESENTATION_STYLE_ASSIGNMENT (( #261 ) ) ;
#10 = ORIENTED_EDGE ( 'NONE', *, *, #103, .T. ) ;
#11 = DIRECTION ( 'NONE',  ( 0.000000000000000000, 0.000000000000000000, -1.000000000000000000 ) ) ;
#12 = EDGE_LOOP ( 'NONE', ( #289, #10, #325, #265, #285 ) ) ;
#13 = UNCERTAINTY_MEASURE_WITH_UNIT (LENGTH_MEASURE( 1.000000000000000082E-05 ), #367, 'distance_accuracy_value', 'NONE');
#14 = CIRCLE ( 'NONE', #118, 0.06250000000000001388 ) ;
#15 = AXIS2_PLACEMENT_3D ( 'NONE', #183, #92, #69 ) ;
#16 = ORIENTED_EDGE ( 'NONE', *, *, #336, .T. ) ;
#17 = UNCERTAINTY_MEASURE_WITH_UNIT (LENGTH_MEASURE( 1.000000000000000082E-05 ), #226, 'distance_accuracy_value', 'NONE');
#18 = DIRECTION ( 'NONE',  ( -0.000000000000000000, -1.000000000000000000, -0.000000000000000000 ) ) ;
#19 = FILL_AREA_STYLE ('',( #266 ) ) ;
#20 = COLOUR_RGB ( '',1.000000000000000000, 0.000000000000000000, 0.000000000000000000 ) ;
#21 =( NAMED_UNIT ( * ) SI_UNIT ( $, .STERADIAN. ) SOLID_ANGLE_UNIT ( ) );
#22 = PRODUCT_RELATED_PRODUCT_CATEGORY ( 'part', '', ( #271 ) ) ;
#23 =( CONVERSION_BASED_UNIT ( 'INCH', #77 ) LENGTH_UNIT ( ) NAMED_UNIT ( #46 ) );
#24 = APPLICATION_PROTOCOL_DEFINITION ( 'draft international standard', 'automotive_design', 1998, #50 ) ;
#25 = DIRECTION ( 'NONE',  ( -1.130364233005791746E-16, 1.000000000000000000, -0.000000000000000000 ) ) ;
#26 = ADVANCED_FACE ( 'NONE', ( #262 ), #323, .T. ) ;
#27 = CARTESIAN_POINT ( 'NONE',  ( -0.06249999999999884120, 1.499999999999999778, 0.000000000000000000 ) ) ;
#28 = AXIS2_PLACEMENT_3D ( 'NONE', #293, #84, #257 ) ;
#29 = FILL_AREA_STYLE_COLOUR ( '', #195 ) ;
#30 = PRESENTATION_STYLE_ASSIGNMENT (( #283 ) ) ;
#31 = EDGE_LOOP ( 'NONE', ( #318, #234 ) ) ;
#32 = VERTEX_POINT ( 'NONE', #219 ) ;
#33 = CIRCLE ( 'NONE', #178, 0.06250000000000001388 ) ;
#34 = CARTESIAN_POINT ( 'NONE',  ( 0.000000000000000000, 0.06250000000000001388, -0.06250000000000001388 ) ) ;
#35 = CIRCLE ( 'NONE', #200, 0.06250000000000001388 ) ;
#36 = FILL_AREA_STYLE ('',( #125 ) ) ;
#37 = ORIENTED_EDGE ( 'NONE', *, *, #208, .F. ) ;
#38 = CARTESIAN_POINT ( 'NONE',  ( 0.000000000000000000, 0.06250000000000001388, 0.000000000000000000 ) ) ;
#39 = ORIENTED_EDGE ( 'NONE', *, *, #331, .T. ) ;
#40 =( CONVERSION_BASED_UNIT ( 'INCH', #185 ) LENGTH_UNIT ( ) NAMED_UNIT ( #270 ) );
#41 = ORIENTED_EDGE ( 'NONE', *, *, #244, .F. ) ;
#42 = COLOUR_RGB ( '',1.000000000000000000, 0.000000000000000000, 0.000000000000000000 ) ;
#43 = AXIS2_PLACEMENT_3D ( 'NONE', #52, #276, #278 ) ;
#44 =( NAMED_UNIT ( * ) PLANE_ANGLE_UNIT ( ) SI_UNIT ( $, .RADIAN. ) );
#45 = CARTESIAN_POINT ( 'NONE',  ( 0.000000000000000000, 0.2499999999999998057, 0.000000000000000000 ) ) ;
#46 = DIMENSIONAL_EXPONENTS ( 1.000000000000000000, 0.000000000000000000, 0.000000000000000000, 0.000000000000000000, 0.000000000000000000, 0.000000000000000000, 0.000000000000000000 ) ;
#47 = AXIS2_PLACEMENT_3D ( 'NONE', #221, #70, #76 ) ;
#48 = EDGE_CURVE ( 'NONE', #327, #203, #33, .T. ) ;
#49 =( NAMED_UNIT ( * ) PLANE_ANGLE_UNIT ( ) SI_UNIT ( $, .RADIAN. ) );
#50 = APPLICATION_CONTEXT ( 'automotive_design' ) ;
#51 = EDGE_CURVE ( 'NONE', #317, #357, #56, .T. ) ;
#52 = CARTESIAN_POINT ( 'NONE',  ( 6.923865887420329176E-16, 0.2499999999999998057, 0.000000000000000000 ) ) ;
#53 = PRODUCT_DEFINITION_FORMATION_WITH_SPECIFIED_SOURCE ( 'ANY', '', #271, .NOT_KNOWN. ) ;
#54 = PRESENTATION_STYLE_ASSIGNMENT (( #341 ) ) ;
#55 = DIRECTION ( 'NONE',  ( -0.000000000000000000, -1.000000000000000000, -0.000000000000000000 ) ) ;
#56 = CIRCLE ( 'NONE', #320, 0.06249999999999995143 ) ;
#57 = STYLED_ITEM ( 'NONE', ( #127 ), #352 ) ;
#58 = DIRECTION ( 'NONE',  ( -1.000000000000000000, 0.000000000000000000, 0.000000000000000000 ) ) ;
#59 = SURFACE_STYLE_USAGE ( .BOTH. , #164 ) ;
#60 = EDGE_LOOP ( 'NONE', ( #158, #291, #85, #230, #63 ) ) ;
#61 = VERTEX_POINT ( 'NONE', #108 ) ;
#62 = MECHANICAL_DESIGN_GEOMETRIC_PRESENTATION_REPRESENTATION (  '', ( #138 ), #155 ) ;
#63 = ORIENTED_EDGE ( 'NONE', *, *, #154, .F. ) ;
#64 = DIRECTION ( 'NONE',  ( 0.000000000000000000, 0.000000000000000000, -1.000000000000000000 ) ) ;
#65 =( NAMED_UNIT ( * ) SI_UNIT ( $, .STERADIAN. ) SOLID_ANGLE_UNIT ( ) );
#66 = ORIENTED_EDGE ( 'NONE', *, *, #331, .F. ) ;
#67 = EDGE_LOOP ( 'NONE', ( #37, #126 ) ) ;
#68 = SURFACE_SIDE_STYLE ('',( #263 ) ) ;
#69 = DIRECTION ( 'NONE',  ( -1.000000000000000000, 0.000000000000000000, 0.000000000000000000 ) ) ;
#70 = DIRECTION ( 'NONE',  ( 1.224646799147353207E-16, -0.000000000000000000, 1.000000000000000000 ) ) ;
#71 = DIRECTION ( 'NONE',  ( 1.000000000000000000, 0.000000000000000000, 0.000000000000000000 ) ) ;
#72 = EDGE_CURVE ( 'NONE', #349, #294, #279, .T. ) ;
#73 = DIMENSIONAL_EXPONENTS ( 1.000000000000000000, 0.000000000000000000, 0.000000000000000000, 0.000000000000000000, 0.000000000000000000, 0.000000000000000000, 0.000000000000000000 ) ;
#74 = AXIS2_PLACEMENT_3D ( 'NONE', #147, #194, #250 ) ;
#75 = DIRECTION ( 'NONE',  ( 0.000000000000000000, 0.000000000000000000, 1.000000000000000000 ) ) ;
#76 = DIRECTION ( 'NONE',  ( 1.000000000000000000, 0.000000000000000000, -1.224646799147353207E-16 ) ) ;
#77 = LENGTH_MEASURE_WITH_UNIT ( LENGTH_MEASURE( 0.02539999999999999897 ), #312 );
#78 = DIRECTION ( 'NONE',  ( 1.130364233005791746E-16, -1.000000000000000000, 0.000000000000000000 ) ) ;
#79 = AXIS2_PLACEMENT_3D ( 'NONE', #252, #175, #80 ) ;
#80 = DIRECTION ( 'NONE',  ( 0.000000000000000000, -0.000000000000000000, 1.000000000000000000 ) ) ;
#81 = CYLINDRICAL_SURFACE ( 'NONE', #100, 0.06249999999999932693 ) ;
#82 = CARTESIAN_POINT ( 'NONE',  ( 0.000000000000000000, 0.06250000000000001388, 0.000000000000000000 ) ) ;
#83 = STYLED_ITEM ( 'NONE', ( #4 ), #268 ) ;
#84 = DIRECTION ( 'NONE',  ( 0.000000000000000000, 0.000000000000000000, 1.000000000000000000 ) ) ;
#85 = ORIENTED_EDGE ( 'NONE', *, *, #264, .T. ) ;
#86 =( NAMED_UNIT ( * ) SI_UNIT ( $, .STERADIAN. ) SOLID_ANGLE_UNIT ( ) );
#87 =( LENGTH_UNIT ( ) NAMED_UNIT ( * ) SI_UNIT ( $, .METRE. ) );
#88 = SURFACE_STYLE_FILL_AREA ( #133 ) ;
#89 = FACE_OUTER_BOUND ( 'NONE', #67, .T. ) ;
#90 = ORIENTED_EDGE ( 'NONE', *, *, #141, .F. ) ;
#91 = CLOSED_SHELL ( 'NONE', ( #361, #352, #300, #26, #268 ) ) ;
#92 = DIRECTION ( 'NONE',  ( -1.130364233005791746E-16, 1.000000000000000000, -0.000000000000000000 ) ) ;
#93 = AXIS2_PLACEMENT_3D ( 'NONE', #307, #25, #116 ) ;
#94 = ORIENTED_EDGE ( 'NONE', *, *, #115, .F. ) ;
#95 =( CONVERSION_BASED_UNIT ( 'INCH', #159 ) LENGTH_UNIT ( ) NAMED_UNIT ( #274 ) );
#96 = FILL_AREA_STYLE ('',( #247 ) ) ;
#97 = EDGE_LOOP ( 'NONE', ( #129, #347, #94, #16 ) ) ;
#98 = SURFACE_STYLE_USAGE ( .BOTH. , #68 ) ;
#99 = CARTESIAN_POINT ( 'NONE',  ( 0.000000000000000000, 0.06250000000000001388, 0.000000000000000000 ) ) ;
#100 = AXIS2_PLACEMENT_3D ( 'NONE', #282, #273, #310 ) ;
#101 = STYLED_ITEM ( 'NONE', ( #54 ), #186 ) ;
#102 =( GEOMETRIC_REPRESENTATION_CONTEXT ( 3 ) GLOBAL_UNCERTAINTY_ASSIGNED_CONTEXT ( ( #366 ) ) GLOBAL_UNIT_ASSIGNED_CONTEXT ( ( #95, #44, #213 ) ) REPRESENTATION_CONTEXT ( 'NONE', 'WORKASPACE' ) );
#103 = EDGE_CURVE ( 'NONE', #317, #119, #167, .T. ) ;
#104 = UNCERTAINTY_MEASURE_WITH_UNIT (LENGTH_MEASURE( 1.000000000000000082E-05 ), #160, 'distance_accuracy_value', 'NONE');
#105 =( NAMED_UNIT ( * ) PLANE_ANGLE_UNIT ( ) SI_UNIT ( $, .RADIAN. ) );
#106 = DIRECTION ( 'NONE',  ( 0.000000000000000000, 0.000000000000000000, -1.000000000000000000 ) ) ;
#107 = MECHANICAL_DESIGN_GEOMETRIC_PRESENTATION_REPRESENTATION (  '', ( #328 ), #193 ) ;
#108 = CARTESIAN_POINT ( 'NONE',  ( 0.06249999999999993755, 0.2499999999999998057, 7.654042494670878967E-18 ) ) ;
#109 =( CONVERSION_BASED_UNIT ( 'INCH', #290 ) LENGTH_UNIT ( ) NAMED_UNIT ( #304 ) );
#110 = PRODUCT_CONTEXT ( 'NONE', #50, 'mechanical' ) ;
#111 = CARTESIAN_POINT ( 'NONE',  ( 0.000000000000000000, 0.06250000000000001388, 0.000000000000000000 ) ) ;
#112 = DIRECTION ( 'NONE',  ( -0.000000000000000000, -1.000000000000000000, -0.000000000000000000 ) ) ;
#113 =( GEOMETRIC_REPRESENTATION_CONTEXT ( 3 ) GLOBAL_UNCERTAINTY_ASSIGNED_CONTEXT ( ( #132 ) ) GLOBAL_UNIT_ASSIGNED_CONTEXT ( ( #109, #49, #86 ) ) REPRESENTATION_CONTEXT ( 'NONE', 'WORKASPACE' ) );
#114 = LENGTH_MEASURE_WITH_UNIT ( LENGTH_MEASURE( 0.02539999999999999897 ), #248 );
#115 = EDGE_CURVE ( 'NONE', #203, #294, #14, .T. ) ;
#116 = DIRECTION ( 'NONE',  ( -1.000000000000000000, 0.000000000000000000, 0.000000000000000000 ) ) ;
#117 = FACE_OUTER_BOUND ( 'NONE', #156, .T. ) ;
#118 = AXIS2_PLACEMENT_3D ( 'NONE', #189, #174, #201 ) ;
#119 = VERTEX_POINT ( 'NONE', #223 ) ;
#120 = VECTOR ( 'NONE', #55, 39.37007874015748143 ) ;
#121 = ADVANCED_FACE ( 'NONE', ( #337 ), #3, .F. ) ;
#122 = CARTESIAN_POINT ( 'NONE',  ( 0.06249999999999988204, 1.499999999999999778, 7.654042494670874345E-18 ) ) ;
#123 = SURFACE_STYLE_FILL_AREA ( #239 ) ;
#124 = FILL_AREA_STYLE_COLOUR ( '', #275 ) ;
#125 = FILL_AREA_STYLE_COLOUR ( '', #146 ) ;
#126 = ORIENTED_EDGE ( 'NONE', *, *, #51, .F. ) ;
#127 = PRESENTATION_STYLE_ASSIGNMENT (( #98 ) ) ;
#128 = CARTESIAN_POINT ( 'NONE',  ( 5.510910596163089556E-16, 1.499999999999999778, 0.000000000000000000 ) ) ;
#129 = ORIENTED_EDGE ( 'NONE', *, *, #154, .T. ) ;
#130 = PRESENTATION_LAYER_ASSIGNMENT (  '', '', ( #101 ) ) ;
#131 = FILL_AREA_STYLE_COLOUR ( '', #42 ) ;
#132 = UNCERTAINTY_MEASURE_WITH_UNIT (LENGTH_MEASURE( 1.000000000000000082E-05 ), #109, 'distance_accuracy_value', 'NONE');
#133 = FILL_AREA_STYLE ('',( #324 ) ) ;
#134 = DIMENSIONAL_EXPONENTS ( 1.000000000000000000, 0.000000000000000000, 0.000000000000000000, 0.000000000000000000, 0.000000000000000000, 0.000000000000000000, 0.000000000000000000 ) ;
#135 = CARTESIAN_POINT ( 'NONE',  ( 7.654042494670956004E-18, 0.000000000000000000, 0.06249999999999997918 ) ) ;
#136 = AXIS2_PLACEMENT_3D ( 'NONE', #111, #177, #11 ) ;
#137 = DIRECTION ( 'NONE',  ( 0.000000000000000000, 0.000000000000000000, -1.000000000000000000 ) ) ;
#138 = STYLED_ITEM ( 'NONE', ( #296 ), #26 ) ;
#139 = PRESENTATION_LAYER_ASSIGNMENT (  '', '', ( #57 ) ) ;
#140 = AXIS2_PLACEMENT_3D ( 'NONE', #269, #75, #71 ) ;
#141 = EDGE_CURVE ( 'NONE', #32, #256, #5, .T. ) ;
#142 = LENGTH_MEASURE_WITH_UNIT ( LENGTH_MEASURE( 0.02539999999999999897 ), #332 );
#143 = LINE ( 'NONE', #246, #120 ) ;
#144 = FACE_OUTER_BOUND ( 'NONE', #346, .T. ) ;
#145 = ADVANCED_FACE ( 'NONE', ( #228 ), #81, .T. ) ;
#146 = COLOUR_RGB ( '',1.000000000000000000, 0.000000000000000000, 0.000000000000000000 ) ;
#147 = CARTESIAN_POINT ( 'NONE',  ( 0.000000000000000000, 0.2499999999999998057, 0.000000000000000000 ) ) ;
#148 = PRESENTATION_LAYER_ASSIGNMENT (  '', '', ( #83 ) ) ;
#149 = MECHANICAL_DESIGN_GEOMETRIC_PRESENTATION_REPRESENTATION (  '', ( #369 ), #102 ) ;
#150 = CARTESIAN_POINT ( 'NONE',  ( 5.510910596163089556E-16, 1.499999999999999778, 0.000000000000000000 ) ) ;
#151 =( NAMED_UNIT ( * ) PLANE_ANGLE_UNIT ( ) SI_UNIT ( $, .RADIAN. ) );
#152 =( NAMED_UNIT ( * ) PLANE_ANGLE_UNIT ( ) SI_UNIT ( $, .RADIAN. ) );
#153 = SPHERICAL_SURFACE ( 'NONE', #28, 0.06250000000000001388 ) ;
#154 = EDGE_CURVE ( 'NONE', #119, #349, #308, .T. ) ;
#155 =( GEOMETRIC_REPRESENTATION_CONTEXT ( 3 ) GLOBAL_UNCERTAINTY_ASSIGNED_CONTEXT ( ( #198 ) ) GLOBAL_UNIT_ASSIGNED_CONTEXT ( ( #329, #365, #21 ) ) REPRESENTATION_CONTEXT ( 'NONE', 'WORKASPACE' ) );
#156 = EDGE_LOOP ( 'NONE', ( #238, #214 ) ) ;
#157 =( NAMED_UNIT ( * ) SI_UNIT ( $, .STERADIAN. ) SOLID_ANGLE_UNIT ( ) );
#158 = ORIENTED_EDGE ( 'NONE', *, *, #103, .F. ) ;
#159 = LENGTH_MEASURE_WITH_UNIT ( LENGTH_MEASURE( 0.02539999999999999897 ), #297 );
#160 =( CONVERSION_BASED_UNIT ( 'INCH', #322 ) LENGTH_UNIT ( ) NAMED_UNIT ( #134 ) );
#161 = VERTEX_POINT ( 'NONE', #172 ) ;
#162 = UNCERTAINTY_MEASURE_WITH_UNIT (LENGTH_MEASURE( 1.000000000000000082E-05 ), #40, 'distance_accuracy_value', 'NONE');
#163 = PRODUCT_DEFINITION ( 'UNKNOWN', '', #53, #210 ) ;
#164 = SURFACE_SIDE_STYLE ('',( #231 ) ) ;
#165 = ORIENTED_EDGE ( 'NONE', *, *, #115, .T. ) ;
#166 =( GEOMETRIC_REPRESENTATION_CONTEXT ( 3 ) GLOBAL_UNCERTAINTY_ASSIGNED_CONTEXT ( ( #162 ) ) GLOBAL_UNIT_ASSIGNED_CONTEXT ( ( #40, #348, #358 ) ) REPRESENTATION_CONTEXT ( 'NONE', 'WORKASPACE' ) );
#167 = LINE ( 'NONE', #135, #169 ) ;
#168 = DIRECTION ( 'NONE',  ( -1.130364233005791746E-16, 1.000000000000000000, -0.000000000000000000 ) ) ;
#169 = VECTOR ( 'NONE', #363, 39.37007874015748143 ) ;
#170 = STYLED_ITEM ( 'NONE', ( #9 ), #300 ) ;
#171 = PRODUCT_DEFINITION_SHAPE ( 'NONE', 'NONE',  #163 ) ;
#172 = CARTESIAN_POINT ( 'NONE',  ( -0.06249999999999855671, 0.2499999999999998057, 0.000000000000000000 ) ) ;
#173 = CIRCLE ( 'NONE', #15, 0.06249999999999925060 ) ;
#174 = DIRECTION ( 'NONE',  ( 0.000000000000000000, 0.000000000000000000, -1.000000000000000000 ) ) ;
#175 = DIRECTION ( 'NONE',  ( 0.000000000000000000, 1.000000000000000000, 0.000000000000000000 ) ) ;
#176 = SURFACE_STYLE_USAGE ( .BOTH. , #187 ) ;
#177 = DIRECTION ( 'NONE',  ( -0.000000000000000000, -1.000000000000000000, -0.000000000000000000 ) ) ;
#178 = AXIS2_PLACEMENT_3D ( 'NONE', #99, #18, #137 ) ;
#179 = ORIENTED_EDGE ( 'NONE', *, *, #284, .F. ) ;
#180 = AXIS2_PLACEMENT_3D ( 'NONE', #215, #188, #355 ) ;
#181 = FACE_OUTER_BOUND ( 'NONE', #97, .T. ) ;
#182 = ORIENTED_EDGE ( 'NONE', *, *, #244, .T. ) ;
#183 = CARTESIAN_POINT ( 'NONE',  ( 6.923865887420329176E-16, 0.2499999999999998057, 0.000000000000000000 ) ) ;
#184 = ORIENTED_EDGE ( 'NONE', *, *, #272, .T. ) ;
#185 = LENGTH_MEASURE_WITH_UNIT ( LENGTH_MEASURE( 0.02539999999999999897 ), #326 );
#186 = MANIFOLD_SOLID_BREP ( 'Revolve - Tool Body (Straight Shanked)', #286 ) ;
#187 = SURFACE_SIDE_STYLE ('',( #123 ) ) ;
#188 = DIRECTION ( 'NONE',  ( -0.000000000000000000, -1.000000000000000000, -0.000000000000000000 ) ) ;
#189 = CARTESIAN_POINT ( 'NONE',  ( -7.654042494670957545E-18, 0.06250000000000001388, 0.000000000000000000 ) ) ;
#190 =( NAMED_UNIT ( * ) SI_UNIT ( $, .STERADIAN. ) SOLID_ANGLE_UNIT ( ) );
#191 = APPLICATION_PROTOCOL_DEFINITION ( 'draft international standard', 'automotive_design', 1998, #258 ) ;
#192 = AXIS2_PLACEMENT_3D ( 'NONE', #82, #112, #197 ) ;
#193 =( GEOMETRIC_REPRESENTATION_CONTEXT ( 3 ) GLOBAL_UNCERTAINTY_ASSIGNED_CONTEXT ( ( #17 ) ) GLOBAL_UNIT_ASSIGNED_CONTEXT ( ( #226, #152, #157 ) ) REPRESENTATION_CONTEXT ( 'NONE', 'WORKASPACE' ) );
#194 = DIRECTION ( 'NONE',  ( -0.000000000000000000, -1.000000000000000000, -0.000000000000000000 ) ) ;
#195 = COLOUR_RGB ( '',0.7921568627450980005, 0.8196078431372548767, 0.9333333333333333481 ) ;
#196 = CIRCLE ( 'NONE', #74, 0.06249999999999995143 ) ;
#197 = DIRECTION ( 'NONE',  ( 0.000000000000000000, 0.000000000000000000, -1.000000000000000000 ) ) ;
#198 = UNCERTAINTY_MEASURE_WITH_UNIT (LENGTH_MEASURE( 1.000000000000000082E-05 ), #329, 'distance_accuracy_value', 'NONE');
#199 = SURFACE_STYLE_FILL_AREA ( #344 ) ;
#200 = AXIS2_PLACEMENT_3D ( 'NONE', #38, #330, #64 ) ;
#201 = DIRECTION ( 'NONE',  ( -1.000000000000000000, 0.000000000000000000, 0.000000000000000000 ) ) ;
#202 = DIRECTION ( 'NONE',  ( -1.000000000000000000, 0.000000000000000000, 0.000000000000000000 ) ) ;
#203 = VERTEX_POINT ( 'NONE', #222 ) ;
#204 = FILL_AREA_STYLE ('',( #124 ) ) ;
#205 = ORIENTED_EDGE ( 'NONE', *, *, #220, .T. ) ;
#206 = SURFACE_SIDE_STYLE ('',( #88 ) ) ;
#207 =( NAMED_UNIT ( * ) PLANE_ANGLE_UNIT ( ) SI_UNIT ( $, .RADIAN. ) );
#208 = EDGE_CURVE ( 'NONE', #357, #317, #196, .T. ) ;
#209 = ORIENTED_EDGE ( 'NONE', *, *, #72, .F. ) ;
#210 = PRODUCT_DEFINITION_CONTEXT ( 'detailed design', #258, 'design' ) ;
#211 = CARTESIAN_POINT ( 'NONE',  ( 0.000000000000000000, 0.2499999999999998057, -0.06249999999999995143 ) ) ;
#212 = EDGE_LOOP ( 'NONE', ( #66, #205, #182, #90 ) ) ;
#213 =( NAMED_UNIT ( * ) SI_UNIT ( $, .STERADIAN. ) SOLID_ANGLE_UNIT ( ) );
#214 = ORIENTED_EDGE ( 'NONE', *, *, #220, .F. ) ;
#215 = CARTESIAN_POINT ( 'NONE',  ( 0.000000000000000000, 0.000000000000000000, 0.000000000000000000 ) ) ;
#216 = AXIS2_PLACEMENT_3D ( 'NONE', #225, #343, #58 ) ;
#217 = PRESENTATION_LAYER_ASSIGNMENT (  '', '', ( #170 ) ) ;
#218 = CARTESIAN_POINT ( 'NONE',  ( -7.654042494670957545E-18, 0.06250000000000001388, 0.000000000000000000 ) ) ;
#219 = CARTESIAN_POINT ( 'NONE',  ( 0.06249999999999993755, 1.499999999999999778, 7.654042494670878967E-18 ) ) ;
#220 = EDGE_CURVE ( 'NONE', #61, #161, #335, .T. ) ;
#221 = CARTESIAN_POINT ( 'NONE',  ( -7.654042494670957545E-18, 0.06250000000000001388, 0.000000000000000000 ) ) ;
#222 = CARTESIAN_POINT ( 'NONE',  ( 0.06250000000000001388, 0.06250000000000001388, 0.000000000000000000 ) ) ;
#223 = CARTESIAN_POINT ( 'NONE',  ( 7.654042494670959086E-18, 0.06250000000000001388, 0.06250000000000001388 ) ) ;
#224 = AXIS2_PLACEMENT_3D ( 'NONE', #359, #298, #106 ) ;
#225 = CARTESIAN_POINT ( 'NONE',  ( 5.510910596163089556E-16, 1.499999999999999778, 0.000000000000000000 ) ) ;
#226 =( CONVERSION_BASED_UNIT ( 'INCH', #114 ) LENGTH_UNIT ( ) NAMED_UNIT ( #73 ) );
#227 = LINE ( 'NONE', #314, #362 ) ;
#228 = FACE_OUTER_BOUND ( 'NONE', #259, .T. ) ;
#229 = DIRECTION ( 'NONE',  ( -1.000000000000000000, 0.000000000000000000, 0.000000000000000000 ) ) ;
#230 = ORIENTED_EDGE ( 'NONE', *, *, #272, .F. ) ;
#231 = SURFACE_STYLE_FILL_AREA ( #96 ) ;
#232 =( LENGTH_UNIT ( ) NAMED_UNIT ( * ) SI_UNIT ( $, .METRE. ) );
#233 = ADVANCED_FACE ( 'NONE', ( #117 ), #1, .F. ) ;
#234 = ORIENTED_EDGE ( 'NONE', *, *, #141, .T. ) ;
#235 = SURFACE_STYLE_USAGE ( .BOTH. , #206 ) ;
#236 = PLANE ( 'NONE',  #79 ) ;
#237 = AXIS2_PLACEMENT_3D ( 'NONE', #150, #251, #229 ) ;
#238 = ORIENTED_EDGE ( 'NONE', *, *, #340, .F. ) ;
#239 = FILL_AREA_STYLE ('',( #131 ) ) ;
#240 = COLOUR_RGB ( '',1.000000000000000000, 0.000000000000000000, 0.000000000000000000 ) ;
#241 = DIRECTION ( 'NONE',  ( -0.000000000000000000, -1.000000000000000000, -0.000000000000000000 ) ) ;
#242 = MECHANICAL_DESIGN_GEOMETRIC_PRESENTATION_REPRESENTATION (  '', ( #101 ), #281 ) ;
#243 =( NAMED_UNIT ( * ) SI_UNIT ( $, .STERADIAN. ) SOLID_ANGLE_UNIT ( ) );
#244 = EDGE_CURVE ( 'NONE', #161, #256, #227, .T. ) ;
#245 = DIRECTION ( 'NONE',  ( 1.000000000000000000, 0.000000000000000000, 0.000000000000000000 ) ) ;
#246 = CARTESIAN_POINT ( 'NONE',  ( 0.000000000000000000, 0.000000000000000000, -0.06249999999999997918 ) ) ;
#247 = FILL_AREA_STYLE_COLOUR ( '', #309 ) ;
#248 =( LENGTH_UNIT ( ) NAMED_UNIT ( * ) SI_UNIT ( $, .METRE. ) );
#249 = PRESENTATION_LAYER_ASSIGNMENT (  '', '', ( #328 ) ) ;
#250 = DIRECTION ( 'NONE',  ( 0.000000000000000000, 0.000000000000000000, -1.000000000000000000 ) ) ;
#251 = DIRECTION ( 'NONE',  ( -1.130364233005791746E-16, 1.000000000000000000, -0.000000000000000000 ) ) ;
#252 = CARTESIAN_POINT ( 'NONE',  ( 0.000000000000000000, 0.2499999999999998057, 0.000000000000000000 ) ) ;
#253 = MECHANICAL_DESIGN_GEOMETRIC_PRESENTATION_REPRESENTATION (  '', ( #83 ), #267 ) ;
#254 = DIRECTION ( 'NONE',  ( -1.130364233005791746E-16, 1.000000000000000000, -0.000000000000000000 ) ) ;
#255 = ORIENTED_EDGE ( 'NONE', *, *, #48, .T. ) ;
#256 = VERTEX_POINT ( 'NONE', #27 ) ;
#257 = DIRECTION ( 'NONE',  ( 1.000000000000000000, 0.000000000000000000, 0.000000000000000000 ) ) ;
#258 = APPLICATION_CONTEXT ( 'automotive_design' ) ;
#259 = EDGE_LOOP ( 'NONE', ( #354, #39, #179, #41 ) ) ;
#260 = FACE_OUTER_BOUND ( 'NONE', #12, .T. ) ;
#261 = SURFACE_STYLE_USAGE ( .BOTH. , #7 ) ;
#262 = FACE_OUTER_BOUND ( 'NONE', #60, .T. ) ;
#263 = SURFACE_STYLE_FILL_AREA ( #19 ) ;
#264 = EDGE_CURVE ( 'NONE', #357, #327, #143, .T. ) ;
#265 = ORIENTED_EDGE ( 'NONE', *, *, #48, .F. ) ;
#266 = FILL_AREA_STYLE_COLOUR ( '', #240 ) ;
#267 =( GEOMETRIC_REPRESENTATION_CONTEXT ( 3 ) GLOBAL_UNCERTAINTY_ASSIGNED_CONTEXT ( ( #104 ) ) GLOBAL_UNIT_ASSIGNED_CONTEXT ( ( #160, #207, #65 ) ) REPRESENTATION_CONTEXT ( 'NONE', 'WORKASPACE' ) );
#268 = ADVANCED_FACE ( 'NONE', ( #144 ), #153, .T. ) ;
#269 = CARTESIAN_POINT ( 'NONE',  ( 0.000000000000000000, 0.000000000000000000, 0.000000000000000000 ) ) ;
#270 = DIMENSIONAL_EXPONENTS ( 1.000000000000000000, 0.000000000000000000, 0.000000000000000000, 0.000000000000000000, 0.000000000000000000, 0.000000000000000000, 0.000000000000000000 ) ;
#271 = PRODUCT ( '56017', '56017', '', ( #110 ) ) ;
#272 = EDGE_CURVE ( 'NONE', #349, #327, #6, .T. ) ;
#273 = DIRECTION ( 'NONE',  ( -1.130364233005791746E-16, 1.000000000000000000, -0.000000000000000000 ) ) ;
#274 = DIMENSIONAL_EXPONENTS ( 1.000000000000000000, 0.000000000000000000, 0.000000000000000000, 0.000000000000000000, 0.000000000000000000, 0.000000000000000000, 0.000000000000000000 ) ;
#275 = COLOUR_RGB ( '',0.7921568627450980005, 0.8196078431372548767, 0.9333333333333333481 ) ;
#276 = DIRECTION ( 'NONE',  ( -1.130364233005791746E-16, 1.000000000000000000, 0.000000000000000000 ) ) ;
#277 = DIRECTION ( 'NONE',  ( -1.130364233005791746E-16, 1.000000000000000000, -0.000000000000000000 ) ) ;
#278 = DIRECTION ( 'NONE',  ( -1.000000000000000000, -1.130364233005791746E-16, 0.000000000000000000 ) ) ;
#279 = CIRCLE ( 'NONE', #47, 0.06250000000000001388 ) ;
#280 = CYLINDRICAL_SURFACE ( 'NONE', #237, 0.06249999999999932693 ) ;
#281 =( GEOMETRIC_REPRESENTATION_CONTEXT ( 3 ) GLOBAL_UNCERTAINTY_ASSIGNED_CONTEXT ( ( #333 ) ) GLOBAL_UNIT_ASSIGNED_CONTEXT ( ( #23, #151, #243 ) ) REPRESENTATION_CONTEXT ( 'NONE', 'WORKASPACE' ) );
#282 = CARTESIAN_POINT ( 'NONE',  ( 5.510910596163089556E-16, 1.499999999999999778, 0.000000000000000000 ) ) ;
#283 = SURFACE_STYLE_USAGE ( .BOTH. , #339 ) ;
#284 = EDGE_CURVE ( 'NONE', #256, #32, #295, .T. ) ;
#285 = ORIENTED_EDGE ( 'NONE', *, *, #264, .F. ) ;
#286 = CLOSED_SHELL ( 'NONE', ( #145, #233, #313, #121 ) ) ;
#287 = VECTOR ( 'NONE', #168, 39.37007874015748143 ) ;
#288 = CARTESIAN_POINT ( 'NONE',  ( -3.827021247335478002E-18, 0.000000000000000000, 0.000000000000000000 ) ) ;
#289 = ORIENTED_EDGE ( 'NONE', *, *, #208, .T. ) ;
#290 = LENGTH_MEASURE_WITH_UNIT ( LENGTH_MEASURE( 0.02539999999999999897 ), #356 );
#291 = ORIENTED_EDGE ( 'NONE', *, *, #51, .T. ) ;
#292 = CARTESIAN_POINT ( 'NONE',  ( -0.06250000000000001388, 0.06250000000000001388, 7.654042494670959086E-18 ) ) ;
#293 = CARTESIAN_POINT ( 'NONE',  ( -7.654042494670957545E-18, 0.06250000000000001388, 0.000000000000000000 ) ) ;
#294 = VERTEX_POINT ( 'NONE', #288 ) ;
#295 = CIRCLE ( 'NONE', #321, 0.06249999999999939632 ) ;
#296 = PRESENTATION_STYLE_ASSIGNMENT (( #176 ) ) ;
#297 =( LENGTH_UNIT ( ) NAMED_UNIT ( * ) SI_UNIT ( $, .METRE. ) );
#298 = DIRECTION ( 'NONE',  ( -0.000000000000000000, -1.000000000000000000, -0.000000000000000000 ) ) ;
#299 = CYLINDRICAL_SURFACE ( 'NONE', #180, 0.06249999999999997918 ) ;
#300 = ADVANCED_FACE ( 'NONE', ( #89 ), #236, .T. ) ;
#301 = PRESENTATION_LAYER_ASSIGNMENT (  '', '', ( #138 ) ) ;
#302 = AXIS2_PLACEMENT_3D ( 'NONE', #373, #78, #371 ) ;
#303 = SHAPE_DEFINITION_REPRESENTATION ( #171, #311 ) ;
#304 = DIMENSIONAL_EXPONENTS ( 1.000000000000000000, 0.000000000000000000, 0.000000000000000000, 0.000000000000000000, 0.000000000000000000, 0.000000000000000000, 0.000000000000000000 ) ;
#305 = MANIFOLD_SOLID_BREP ( 'Revolve - Cutting Edge', #91 ) ;
#306 = DIMENSIONAL_EXPONENTS ( 1.000000000000000000, 0.000000000000000000, 0.000000000000000000, 0.000000000000000000, 0.000000000000000000, 0.000000000000000000, 0.000000000000000000 ) ;
#307 = CARTESIAN_POINT ( 'NONE',  ( 6.923865887420329176E-16, 0.2499999999999998057, 0.000000000000000000 ) ) ;
#308 = CIRCLE ( 'NONE', #192, 0.06250000000000001388 ) ;
#309 = COLOUR_RGB ( '',1.000000000000000000, 0.000000000000000000, 0.000000000000000000 ) ;
#310 = DIRECTION ( 'NONE',  ( -1.000000000000000000, 0.000000000000000000, 0.000000000000000000 ) ) ;
#311 = ADVANCED_BREP_SHAPE_REPRESENTATION ( '56017', ( #305, #186, #140 ), #370 ) ;
#312 =( LENGTH_UNIT ( ) NAMED_UNIT ( * ) SI_UNIT ( $, .METRE. ) );
#313 = ADVANCED_FACE ( 'NONE', ( #8 ), #280, .T. ) ;
#314 = CARTESIAN_POINT ( 'NONE',  ( -0.06249999999999877182, 1.499999999999999778, 0.000000000000000000 ) ) ;
#315 = SURFACE_SIDE_STYLE ('',( #199 ) ) ;
#316 = LINE ( 'NONE', #122, #287 ) ;
#317 = VERTEX_POINT ( 'NONE', #345 ) ;
#318 = ORIENTED_EDGE ( 'NONE', *, *, #284, .T. ) ;
#319 = PRESENTATION_STYLE_ASSIGNMENT (( #235 ) ) ;
#320 = AXIS2_PLACEMENT_3D ( 'NONE', #45, #241, #368 ) ;
#321 = AXIS2_PLACEMENT_3D ( 'NONE', #128, #254, #202 ) ;
#322 = LENGTH_MEASURE_WITH_UNIT ( LENGTH_MEASURE( 0.02539999999999999897 ), #87 );
#323 = CYLINDRICAL_SURFACE ( 'NONE', #224, 0.06249999999999997918 ) ;
#324 = FILL_AREA_STYLE_COLOUR ( '', #20 ) ;
#325 = ORIENTED_EDGE ( 'NONE', *, *, #336, .F. ) ;
#326 =( LENGTH_UNIT ( ) NAMED_UNIT ( * ) SI_UNIT ( $, .METRE. ) );
#327 = VERTEX_POINT ( 'NONE', #34 ) ;
#328 = STYLED_ITEM ( 'NONE', ( #30 ), #305 ) ;
#329 =( CONVERSION_BASED_UNIT ( 'INCH', #334 ) LENGTH_UNIT ( ) NAMED_UNIT ( #372 ) );
#330 = DIRECTION ( 'NONE',  ( -0.000000000000000000, -1.000000000000000000, -0.000000000000000000 ) ) ;
#331 = EDGE_CURVE ( 'NONE', #61, #32, #316, .T. ) ;
#332 =( LENGTH_UNIT ( ) NAMED_UNIT ( * ) SI_UNIT ( $, .METRE. ) );
#333 = UNCERTAINTY_MEASURE_WITH_UNIT (LENGTH_MEASURE( 1.000000000000000082E-05 ), #23, 'distance_accuracy_value', 'NONE');
#334 = LENGTH_MEASURE_WITH_UNIT ( LENGTH_MEASURE( 0.02539999999999999897 ), #232 );
#335 = CIRCLE ( 'NONE', #93, 0.06249999999999925060 ) ;
#336 = EDGE_CURVE ( 'NONE', #203, #119, #35, .T. ) ;
#337 = FACE_OUTER_BOUND ( 'NONE', #31, .T. ) ;
#338 = MECHANICAL_DESIGN_GEOMETRIC_PRESENTATION_REPRESENTATION (  '', ( #57 ), #166 ) ;
#339 = SURFACE_SIDE_STYLE ('',( #342 ) ) ;
#340 = EDGE_CURVE ( 'NONE', #161, #61, #173, .T. ) ;
#341 = SURFACE_STYLE_USAGE ( .BOTH. , #315 ) ;
#342 = SURFACE_STYLE_FILL_AREA ( #204 ) ;
#343 = DIRECTION ( 'NONE',  ( -1.130364233005791746E-16, 1.000000000000000000, -0.000000000000000000 ) ) ;
#344 = FILL_AREA_STYLE ('',( #29 ) ) ;
#345 = CARTESIAN_POINT ( 'NONE',  ( 7.654042494670954463E-18, 0.2499999999999998057, 0.06249999999999995143 ) ) ;
#346 = EDGE_LOOP ( 'NONE', ( #209, #184, #255, #165 ) ) ;
#347 = ORIENTED_EDGE ( 'NONE', *, *, #72, .T. ) ;
#348 =( NAMED_UNIT ( * ) PLANE_ANGLE_UNIT ( ) SI_UNIT ( $, .RADIAN. ) );
#349 = VERTEX_POINT ( 'NONE', #292 ) ;
#350 = PRESENTATION_LAYER_ASSIGNMENT (  '', '', ( #369 ) ) ;
#351 = SURFACE_STYLE_FILL_AREA ( #36 ) ;
#352 = ADVANCED_FACE ( 'NONE', ( #260 ), #299, .T. ) ;
#353 = AXIS2_PLACEMENT_3D ( 'NONE', #218, #364, #245 ) ;
#354 = ORIENTED_EDGE ( 'NONE', *, *, #340, .T. ) ;
#355 = DIRECTION ( 'NONE',  ( 0.000000000000000000, 0.000000000000000000, -1.000000000000000000 ) ) ;
#356 =( LENGTH_UNIT ( ) NAMED_UNIT ( * ) SI_UNIT ( $, .METRE. ) );
#357 = VERTEX_POINT ( 'NONE', #211 ) ;
#358 =( NAMED_UNIT ( * ) SI_UNIT ( $, .STERADIAN. ) SOLID_ANGLE_UNIT ( ) );
#359 = CARTESIAN_POINT ( 'NONE',  ( 0.000000000000000000, 0.000000000000000000, 0.000000000000000000 ) ) ;
#360 = SPHERICAL_SURFACE ( 'NONE', #353, 0.06250000000000001388 ) ;
#361 = ADVANCED_FACE ( 'NONE', ( #181 ), #360, .T. ) ;
#362 = VECTOR ( 'NONE', #277, 39.37007874015748143 ) ;
#363 = DIRECTION ( 'NONE',  ( -0.000000000000000000, -1.000000000000000000, -0.000000000000000000 ) ) ;
#364 = DIRECTION ( 'NONE',  ( 0.000000000000000000, 0.000000000000000000, 1.000000000000000000 ) ) ;
#365 =( NAMED_UNIT ( * ) PLANE_ANGLE_UNIT ( ) SI_UNIT ( $, .RADIAN. ) );
#366 = UNCERTAINTY_MEASURE_WITH_UNIT (LENGTH_MEASURE( 1.000000000000000082E-05 ), #95, 'distance_accuracy_value', 'NONE');
#367 =( CONVERSION_BASED_UNIT ( 'INCH', #142 ) LENGTH_UNIT ( ) NAMED_UNIT ( #306 ) );
#368 = DIRECTION ( 'NONE',  ( 0.000000000000000000, 0.000000000000000000, -1.000000000000000000 ) ) ;
#369 = STYLED_ITEM ( 'NONE', ( #319 ), #361 ) ;
#370 =( GEOMETRIC_REPRESENTATION_CONTEXT ( 3 ) GLOBAL_UNCERTAINTY_ASSIGNED_CONTEXT ( ( #13 ) ) GLOBAL_UNIT_ASSIGNED_CONTEXT ( ( #367, #105, #190 ) ) REPRESENTATION_CONTEXT ( 'NONE', 'WORKASPACE' ) );
#371 = DIRECTION ( 'NONE',  ( 1.000000000000000000, 1.130364233005791746E-16, 0.000000000000000000 ) ) ;
#372 = DIMENSIONAL_EXPONENTS ( 1.000000000000000000, 0.000000000000000000, 0.000000000000000000, 0.000000000000000000, 0.000000000000000000, 0.000000000000000000, 0.000000000000000000 ) ;
#373 = CARTESIAN_POINT ( 'NONE',  ( 0.06249999999999995143, 1.499999999999999778, 0.000000000000000000 ) ) ;
ENDSEC;
END-ISO-10303-21;
