ISO-10303-21;
HEADER;
FILE_DESCRIPTION (( 'STEP AP214' ),
    '1' );
FILE_NAME ('Micro_DM-125-490.STEP',
    '2021-09-02T15:59:05',
    ( '' ),
    ( '' ),
    'SwSTEP 2.0',
    'SolidWorks 2020',
    '' );
FILE_SCHEMA (( 'AUTOMOTIVE_DESIGN' ));
ENDSEC;

DATA;
#1 = ORIENTED_EDGE ( 'NONE', *, *, #300, .F. ) ;
#2 = PRESENTATION_LAYER_ASSIGNMENT (  '', '', ( #167 ) ) ;
#3 = ORIENTED_EDGE ( 'NONE', *, *, #307, .F. ) ;
#4 = ORIENTED_EDGE ( 'NONE', *, *, #174, .T. ) ;
#5 = ORIENTED_EDGE ( 'NONE', *, *, #237, .F. ) ;
#6 = AXIS2_PLACEMENT_3D ( 'NONE', #293, #17, #136 ) ;
#7 = UNCERTAINTY_MEASURE_WITH_UNIT (LENGTH_MEASURE( 1.000000000000000082E-05 ), #128, 'distance_accuracy_value', 'NONE');
#8 = CARTESIAN_POINT ( 'NONE',  ( 0.0000000000000000000, 0.0000000000000000000, 1.500000000000000222 ) ) ;
#9 = DIRECTION ( 'NONE',  ( -0.7071067811865456854, 0.0000000000000000000, -0.7071067811865493491 ) ) ;
#10 = UNCERTAINTY_MEASURE_WITH_UNIT (LENGTH_MEASURE( 1.000000000000000082E-05 ), #192, 'distance_accuracy_value', 'NONE');
#11 = PLANE ( 'NONE',  #325 ) ;
#12 = AXIS2_PLACEMENT_3D ( 'NONE', #311, #229, #111 ) ;
#13 = CARTESIAN_POINT ( 'NONE',  ( 0.0000000000000000000, 0.0000000000000000000, 1.707404996040164512E-17 ) ) ;
#14 = COLOUR_RGB ( '',0.7921568627450980005, 0.8196078431372548767, 0.9333333333333333481 ) ;
#15 = EDGE_CURVE ( 'NONE', #254, #85, #123, .T. ) ;
#16 = CARTESIAN_POINT ( 'NONE',  ( 0.0000000000000000000, 0.0000000000000000000, 0.0000000000000000000 ) ) ;
#17 = DIRECTION ( 'NONE',  ( -0.0000000000000000000, -0.0000000000000000000, -1.000000000000000000 ) ) ;
#18 = AXIS2_PLACEMENT_3D ( 'NONE', #115, #19, #295 ) ;
#19 = DIRECTION ( 'NONE',  ( 0.0000000000000000000, 0.0000000000000000000, -1.000000000000000000 ) ) ;
#20 = FACE_OUTER_BOUND ( 'NONE', #53, .T. ) ;
#21 = DIRECTION ( 'NONE',  ( -0.0000000000000000000, -0.0000000000000000000, -1.000000000000000000 ) ) ;
#22 = EDGE_CURVE ( 'NONE', #122, #79, #30, .T. ) ;
#23 = VECTOR ( 'NONE', #137, 39.37007874015748143 ) ;
#24 = EDGE_CURVE ( 'NONE', #308, #281, #198, .T. ) ;
#25 = FILL_AREA_STYLE ('',( #54 ) ) ;
#26 = DIRECTION ( 'NONE',  ( 0.0000000000000000000, 0.0000000000000000000, -1.000000000000000000 ) ) ;
#27 = ORIENTED_EDGE ( 'NONE', *, *, #326, .T. ) ;
#28 = PRESENTATION_STYLE_ASSIGNMENT (( #75 ) ) ;
#29 = ADVANCED_FACE ( 'NONE', ( #134 ), #11, .T. ) ;
#30 = CIRCLE ( 'NONE', #191, 0.06245000000000000551 ) ;
#31 = EDGE_LOOP ( 'NONE', ( #5, #126, #55, #173 ) ) ;
#32 = MECHANICAL_DESIGN_GEOMETRIC_PRESENTATION_REPRESENTATION (  '', ( #167 ), #204 ) ;
#33 =( NAMED_UNIT ( * ) SI_UNIT ( $, .STERADIAN. ) SOLID_ANGLE_UNIT ( ) );
#34 = ORIENTED_EDGE ( 'NONE', *, *, #174, .F. ) ;
#35 = ORIENTED_EDGE ( 'NONE', *, *, #15, .T. ) ;
#36 = EDGE_CURVE ( 'NONE', #254, #281, #201, .T. ) ;
#37 = DIRECTION ( 'NONE',  ( 1.000000000000000000, 0.0000000000000000000, -0.0000000000000000000 ) ) ;
#38 = EDGE_CURVE ( 'NONE', #171, #79, #91, .T. ) ;
#39 = CONICAL_SURFACE ( 'NONE', #148, 0.04750000000000064587, 0.7853981633974457255 ) ;
#40 = CARTESIAN_POINT ( 'NONE',  ( -0.04750000000000064587, 0.0000000000000000000, 1.500000000000000222 ) ) ;
#41 = CARTESIAN_POINT ( 'NONE',  ( 0.0000000000000000000, 0.0000000000000000000, 1.707404996040164512E-17 ) ) ;
#42 = CARTESIAN_POINT ( 'NONE',  ( 0.0000000000000000000, 0.0000000000000000000, 1.500000000000000222 ) ) ;
#43 = FACE_OUTER_BOUND ( 'NONE', #146, .T. ) ;
#44 = CARTESIAN_POINT ( 'NONE',  ( -0.06245000000000004020, 0.0000000000000000000, 0.0000000000000000000 ) ) ;
#45 = DIRECTION ( 'NONE',  ( 1.000000000000000000, 0.0000000000000000000, -0.0000000000000000000 ) ) ;
#46 = AXIS2_PLACEMENT_3D ( 'NONE', #189, #113, #119 ) ;
#47 = CARTESIAN_POINT ( 'NONE',  ( -0.06250000000000000000, 0.0000000000000000000, 0.5000000000000000000 ) ) ;
#48 = DIMENSIONAL_EXPONENTS ( 1.000000000000000000, 0.0000000000000000000, 0.0000000000000000000, 0.0000000000000000000, 0.0000000000000000000, 0.0000000000000000000, 0.0000000000000000000 ) ;
#49 = DIRECTION ( 'NONE',  ( 0.0000000000000000000, 0.0000000000000000000, 1.000000000000000000 ) ) ;
#50 = DIRECTION ( 'NONE',  ( -0.0000000000000000000, -0.0000000000000000000, -1.000000000000000000 ) ) ;
#51 = CIRCLE ( 'NONE', #163, 0.06245000000000007490 ) ;
#52 = ORIENTED_EDGE ( 'NONE', *, *, #84, .F. ) ;
#53 = EDGE_LOOP ( 'NONE', ( #80, #27, #116, #102 ) ) ;
#54 = FILL_AREA_STYLE_COLOUR ( '', #14 ) ;
#55 = ORIENTED_EDGE ( 'NONE', *, *, #38, .T. ) ;
#56 = ORIENTED_EDGE ( 'NONE', *, *, #38, .F. ) ;
#57 = EDGE_CURVE ( 'NONE', #171, #195, #225, .T. ) ;
#58 = EDGE_LOOP ( 'NONE', ( #252, #323 ) ) ;
#59 = ADVANCED_FACE ( 'NONE', ( #288 ), #180, .T. ) ;
#60 = CARTESIAN_POINT ( 'NONE',  ( 0.007499999999999999722, 0.0000000000000000000, 1.707404996040164512E-17 ) ) ;
#61 = LINE ( 'NONE', #40, #93 ) ;
#62 = CIRCLE ( 'NONE', #6, 0.06245000000000000551 ) ;
#63 = PRESENTATION_LAYER_ASSIGNMENT (  '', '', ( #150 ) ) ;
#64 = DIRECTION ( 'NONE',  ( -0.0000000000000000000, -0.0000000000000000000, -1.000000000000000000 ) ) ;
#65 = DIRECTION ( 'NONE',  ( -0.0000000000000000000, -0.0000000000000000000, -1.000000000000000000 ) ) ;
#66 = DIRECTION ( 'NONE',  ( -0.0000000000000000000, -0.0000000000000000000, -1.000000000000000000 ) ) ;
#67 = AXIS2_PLACEMENT_3D ( 'NONE', #13, #88, #152 ) ;
#68 = DIRECTION ( 'NONE',  ( 0.0000000000000000000, 0.0000000000000000000, 1.000000000000000000 ) ) ;
#69 = DIRECTION ( 'NONE',  ( -1.000000000000000000, 0.0000000000000000000, 0.0000000000000000000 ) ) ;
#70 = CARTESIAN_POINT ( 'NONE',  ( 0.0000000000000000000, 0.0000000000000000000, 0.5000000000000000000 ) ) ;
#71 = CONICAL_SURFACE ( 'NONE', #234, 0.007499999999999999722, 0.7853981633974506105 ) ;
#72 = CARTESIAN_POINT ( 'NONE',  ( 0.06245000000000007490, 0.0000000000000000000, 0.5000000000000000000 ) ) ;
#73 = CARTESIAN_POINT ( 'NONE',  ( -0.007499999999999999722, 9.184850993605147975E-19, 1.707404996040164512E-17 ) ) ;
#74 = DIRECTION ( 'NONE',  ( 0.0000000000000000000, 0.0000000000000000000, 1.000000000000000000 ) ) ;
#75 = SURFACE_STYLE_USAGE ( .BOTH. , #196 ) ;
#76 = AXIS2_PLACEMENT_3D ( 'NONE', #41, #132, #258 ) ;
#77 = EDGE_LOOP ( 'NONE', ( #244, #4, #304, #3 ) ) ;
#78 =( GEOMETRIC_REPRESENTATION_CONTEXT ( 3 ) GLOBAL_UNCERTAINTY_ASSIGNED_CONTEXT ( ( #10 ) ) GLOBAL_UNIT_ASSIGNED_CONTEXT ( ( #192, #145, #328 ) ) REPRESENTATION_CONTEXT ( 'NONE', 'WORKASPACE' ) );
#79 = VERTEX_POINT ( 'NONE', #260 ) ;
#80 = ORIENTED_EDGE ( 'NONE', *, *, #300, .T. ) ;
#81 =( LENGTH_UNIT ( ) NAMED_UNIT ( * ) SI_UNIT ( $, .METRE. ) );
#82 = ORIENTED_EDGE ( 'NONE', *, *, #263, .F. ) ;
#83 = AXIS2_PLACEMENT_3D ( 'NONE', #8, #176, #133 ) ;
#84 = EDGE_CURVE ( 'NONE', #195, #171, #303, .T. ) ;
#85 = VERTEX_POINT ( 'NONE', #110 ) ;
#86 = SHAPE_DEFINITION_REPRESENTATION ( #230, #246 ) ;
#87 = FACE_OUTER_BOUND ( 'NONE', #120, .T. ) ;
#88 = DIRECTION ( 'NONE',  ( -0.0000000000000000000, -0.0000000000000000000, -1.000000000000000000 ) ) ;
#89 = PRODUCT_RELATED_PRODUCT_CATEGORY ( 'part', '', ( #238 ) ) ;
#90 = CARTESIAN_POINT ( 'NONE',  ( 0.0000000000000000000, 0.0000000000000000000, 0.5000000000000000000 ) ) ;
#91 = LINE ( 'NONE', #60, #255 ) ;
#92 = CARTESIAN_POINT ( 'NONE',  ( -0.06250000000000000000, 0.0000000000000000000, 1.485000000000000764 ) ) ;
#93 = VECTOR ( 'NONE', #9, 39.37007874015748143 ) ;
#94 = CARTESIAN_POINT ( 'NONE',  ( 0.06250000000000000000, 7.654042494670956004E-18, 1.500000000000000222 ) ) ;
#95 = DIRECTION ( 'NONE',  ( -0.0000000000000000000, -0.0000000000000000000, -1.000000000000000000 ) ) ;
#96 = LINE ( 'NONE', #94, #291 ) ;
#97 = CIRCLE ( 'NONE', #46, 0.04750000000000064587 ) ;
#98 = SURFACE_SIDE_STYLE ('',( #112 ) ) ;
#99 = DIRECTION ( 'NONE',  ( 1.000000000000000000, 0.0000000000000000000, 0.0000000000000000000 ) ) ;
#100 = CONICAL_SURFACE ( 'NONE', #12, 0.04750000000000064587, 0.7853981633974457255 ) ;
#101 = EDGE_LOOP ( 'NONE', ( #52, #285, #219, #56 ) ) ;
#102 = ORIENTED_EDGE ( 'NONE', *, *, #231, .F. ) ;
#103 =( NAMED_UNIT ( * ) PLANE_ANGLE_UNIT ( ) SI_UNIT ( $, .RADIAN. ) );
#104 = ORIENTED_EDGE ( 'NONE', *, *, #57, .T. ) ;
#105 = VERTEX_POINT ( 'NONE', #233 ) ;
#106 = AXIS2_PLACEMENT_3D ( 'NONE', #315, #66, #154 ) ;
#107 = FACE_OUTER_BOUND ( 'NONE', #278, .T. ) ;
#108 = CARTESIAN_POINT ( 'NONE',  ( -0.06250000000000000000, 0.0000000000000000000, 1.500000000000000222 ) ) ;
#109 = DIRECTION ( 'NONE',  ( -1.000000000000000000, 0.0000000000000000000, 0.0000000000000000000 ) ) ;
#110 = CARTESIAN_POINT ( 'NONE',  ( 0.06250000000000000000, 7.654042494670956004E-18, 1.485000000000000764 ) ) ;
#111 = DIRECTION ( 'NONE',  ( -1.000000000000000000, 0.0000000000000000000, 0.0000000000000000000 ) ) ;
#112 = SURFACE_STYLE_FILL_AREA ( #187 ) ;
#113 = DIRECTION ( 'NONE',  ( 0.0000000000000000000, 0.0000000000000000000, 1.000000000000000000 ) ) ;
#114 = ADVANCED_FACE ( 'NONE', ( #107 ), #39, .T. ) ;
#115 = CARTESIAN_POINT ( 'NONE',  ( 0.0000000000000000000, 0.0000000000000000000, 1.485000000000000764 ) ) ;
#116 = ORIENTED_EDGE ( 'NONE', *, *, #22, .F. ) ;
#117 = FACE_OUTER_BOUND ( 'NONE', #31, .T. ) ;
#118 = AXIS2_PLACEMENT_3D ( 'NONE', #324, #49, #45 ) ;
#119 = DIRECTION ( 'NONE',  ( 1.000000000000000000, 0.0000000000000000000, 0.0000000000000000000 ) ) ;
#120 = EDGE_LOOP ( 'NONE', ( #35, #217, #147, #144 ) ) ;
#121 =( NAMED_UNIT ( * ) SI_UNIT ( $, .STERADIAN. ) SOLID_ANGLE_UNIT ( ) );
#122 = VERTEX_POINT ( 'NONE', #182 ) ;
#123 = CIRCLE ( 'NONE', #313, 0.06250000000000000000 ) ;
#124 = LENGTH_MEASURE_WITH_UNIT ( LENGTH_MEASURE( 0.02539999999999999897 ), #81 );
#125 = AXIS2_PLACEMENT_3D ( 'NONE', #16, #64, #109 ) ;
#126 = ORIENTED_EDGE ( 'NONE', *, *, #57, .F. ) ;
#127 = ORIENTED_EDGE ( 'NONE', *, *, #161, .F. ) ;
#128 =( CONVERSION_BASED_UNIT ( 'INCH', #305 ) LENGTH_UNIT ( ) NAMED_UNIT ( #48 ) );
#129 = VERTEX_POINT ( 'NONE', #290 ) ;
#130 = CARTESIAN_POINT ( 'NONE',  ( 0.0000000000000000000, 0.0000000000000000000, 1.500000000000000222 ) ) ;
#131 = COLOUR_RGB ( '',0.7921568627450980005, 0.8196078431372548767, 0.9333333333333333481 ) ;
#132 = DIRECTION ( 'NONE',  ( -0.0000000000000000000, -0.0000000000000000000, -1.000000000000000000 ) ) ;
#133 = DIRECTION ( 'NONE',  ( -1.000000000000000000, 0.0000000000000000000, 0.0000000000000000000 ) ) ;
#134 = FACE_OUTER_BOUND ( 'NONE', #223, .T. ) ;
#135 = CARTESIAN_POINT ( 'NONE',  ( 0.007499999999999999722, 0.0000000000000000000, 1.707404996040164512E-17 ) ) ;
#136 = DIRECTION ( 'NONE',  ( -1.000000000000000000, 0.0000000000000000000, 0.0000000000000000000 ) ) ;
#137 = DIRECTION ( 'NONE',  ( -0.7071067811865491270, 8.659560562354952580E-17, 0.7071067811865459074 ) ) ;
#138 = FACE_BOUND ( 'NONE', #310, .T. ) ;
#139 = DIRECTION ( 'NONE',  ( -1.000000000000000000, 0.0000000000000000000, 0.0000000000000000000 ) ) ;
#140 = SURFACE_STYLE_USAGE ( .BOTH. , #98 ) ;
#141 = ADVANCED_FACE ( 'NONE', ( #205 ), #100, .T. ) ;
#142 = AXIS2_PLACEMENT_3D ( 'NONE', #72, #186, #292 ) ;
#143 =( LENGTH_UNIT ( ) NAMED_UNIT ( * ) SI_UNIT ( $, .METRE. ) );
#144 = ORIENTED_EDGE ( 'NONE', *, *, #36, .F. ) ;
#145 =( NAMED_UNIT ( * ) PLANE_ANGLE_UNIT ( ) SI_UNIT ( $, .RADIAN. ) );
#146 = EDGE_LOOP ( 'NONE', ( #283, #149, #197, #302 ) ) ;
#147 = ORIENTED_EDGE ( 'NONE', *, *, #232, .F. ) ;
#148 = AXIS2_PLACEMENT_3D ( 'NONE', #130, #207, #316 ) ;
#149 = ORIENTED_EDGE ( 'NONE', *, *, #266, .T. ) ;
#150 = STYLED_ITEM ( 'NONE', ( #28 ), #246 ) ;
#151 = ORIENTED_EDGE ( 'NONE', *, *, #301, .F. ) ;
#152 = DIRECTION ( 'NONE',  ( -1.000000000000000000, 0.0000000000000000000, 0.0000000000000000000 ) ) ;
#153 = ADVANCED_FACE ( 'NONE', ( #87 ), #155, .T. ) ;
#154 = DIRECTION ( 'NONE',  ( -1.000000000000000000, 0.0000000000000000000, 0.0000000000000000000 ) ) ;
#155 = CYLINDRICAL_SURFACE ( 'NONE', #106, 0.06250000000000000000 ) ;
#156 = DIRECTION ( 'NONE',  ( -1.000000000000000000, 0.0000000000000000000, 0.0000000000000000000 ) ) ;
#157 = DIRECTION ( 'NONE',  ( 0.7071067811865456854, 8.659560562354911904E-17, -0.7071067811865493491 ) ) ;
#158 = AXIS2_PLACEMENT_3D ( 'NONE', #70, #319, #139 ) ;
#159 = CYLINDRICAL_SURFACE ( 'NONE', #184, 0.06245000000000004020 ) ;
#160 = FACE_OUTER_BOUND ( 'NONE', #58, .T. ) ;
#161 = EDGE_CURVE ( 'NONE', #193, #85, #226, .T. ) ;
#162 = DIRECTION ( 'NONE',  ( -1.000000000000000000, 0.0000000000000000000, 0.0000000000000000000 ) ) ;
#163 = AXIS2_PLACEMENT_3D ( 'NONE', #90, #265, #289 ) ;
#164 = CARTESIAN_POINT ( 'NONE',  ( 0.06250000000000000000, 7.654042494670956004E-18, 0.5000000000000000000 ) ) ;
#165 = CARTESIAN_POINT ( 'NONE',  ( 0.0000000000000000000, 0.0000000000000000000, 0.0000000000000000000 ) ) ;
#166 = PRODUCT_CONTEXT ( 'NONE', #294, 'mechanical' ) ;
#167 = STYLED_ITEM ( 'NONE', ( #247 ), #327 ) ;
#168 = SURFACE_STYLE_FILL_AREA ( #25 ) ;
#169 = ORIENTED_EDGE ( 'NONE', *, *, #263, .T. ) ;
#170 = ORIENTED_EDGE ( 'NONE', *, *, #194, .T. ) ;
#171 = VERTEX_POINT ( 'NONE', #135 ) ;
#172 = AXIS2_PLACEMENT_3D ( 'NONE', #215, #50, #69 ) ;
#173 = ORIENTED_EDGE ( 'NONE', *, *, #307, .T. ) ;
#174 = EDGE_CURVE ( 'NONE', #129, #105, #51, .T. ) ;
#175 = DIRECTION ( 'NONE',  ( -0.0000000000000000000, -0.0000000000000000000, -1.000000000000000000 ) ) ;
#176 = DIRECTION ( 'NONE',  ( -0.0000000000000000000, -0.0000000000000000000, -1.000000000000000000 ) ) ;
#177 = AXIS2_PLACEMENT_3D ( 'NONE', #236, #175, #156 ) ;
#178 = FACE_OUTER_BOUND ( 'NONE', #199, .T. ) ;
#179 = PRODUCT_DEFINITION_FORMATION_WITH_SPECIFIED_SOURCE ( 'ANY', '', #238, .NOT_KNOWN. ) ;
#180 = CYLINDRICAL_SURFACE ( 'NONE', #125, 0.06245000000000004020 ) ;
#181 = ADVANCED_FACE ( 'NONE', ( #43 ), #208, .T. ) ;
#182 = CARTESIAN_POINT ( 'NONE',  ( -0.06245000000000001245, 7.647919260675222641E-18, 0.05494999999999978374 ) ) ;
#183 = DIRECTION ( 'NONE',  ( 0.0000000000000000000, 0.0000000000000000000, 1.000000000000000000 ) ) ;
#184 = AXIS2_PLACEMENT_3D ( 'NONE', #165, #21, #162 ) ;
#185 = CARTESIAN_POINT ( 'NONE',  ( -0.04750000000000064587, 0.0000000000000000000, 1.500000000000000222 ) ) ;
#186 = DIRECTION ( 'NONE',  ( -0.0000000000000000000, 0.0000000000000000000, -1.000000000000000000 ) ) ;
#187 = FILL_AREA_STYLE ('',( #275 ) ) ;
#188 = VECTOR ( 'NONE', #157, 39.37007874015748143 ) ;
#189 = CARTESIAN_POINT ( 'NONE',  ( 0.0000000000000000000, 0.0000000000000000000, 1.500000000000000222 ) ) ;
#190 = ORIENTED_EDGE ( 'NONE', *, *, #15, .F. ) ;
#191 = AXIS2_PLACEMENT_3D ( 'NONE', #262, #65, #317 ) ;
#192 =( CONVERSION_BASED_UNIT ( 'INCH', #250 ) LENGTH_UNIT ( ) NAMED_UNIT ( #251 ) );
#193 = VERTEX_POINT ( 'NONE', #287 ) ;
#194 = EDGE_CURVE ( 'NONE', #306, #254, #61, .T. ) ;
#195 = VERTEX_POINT ( 'NONE', #312 ) ;
#196 = SURFACE_SIDE_STYLE ('',( #168 ) ) ;
#197 = ORIENTED_EDGE ( 'NONE', *, *, #36, .T. ) ;
#198 = CIRCLE ( 'NONE', #177, 0.06250000000000000000 ) ;
#199 = EDGE_LOOP ( 'NONE', ( #104, #222 ) ) ;
#200 = APPLICATION_PROTOCOL_DEFINITION ( 'draft international standard', 'automotive_design', 1998, #241 ) ;
#201 = LINE ( 'NONE', #108, #264 ) ;
#202 = CARTESIAN_POINT ( 'NONE',  ( 0.04750000000000064587, 5.817072295950006528E-18, 1.500000000000000222 ) ) ;
#203 = UNCERTAINTY_MEASURE_WITH_UNIT (LENGTH_MEASURE( 1.000000000000000082E-05 ), #221, 'distance_accuracy_value', 'NONE');
#204 =( GEOMETRIC_REPRESENTATION_CONTEXT ( 3 ) GLOBAL_UNCERTAINTY_ASSIGNED_CONTEXT ( ( #7 ) ) GLOBAL_UNIT_ASSIGNED_CONTEXT ( ( #128, #103, #121 ) ) REPRESENTATION_CONTEXT ( 'NONE', 'WORKASPACE' ) );
#205 = FACE_OUTER_BOUND ( 'NONE', #257, .T. ) ;
#206 = ADVANCED_FACE ( 'NONE', ( #178 ), #274, .F. ) ;
#207 = DIRECTION ( 'NONE',  ( 0.0000000000000000000, 0.0000000000000000000, -1.000000000000000000 ) ) ;
#208 = CYLINDRICAL_SURFACE ( 'NONE', #83, 0.06250000000000000000 ) ;
#209 = CARTESIAN_POINT ( 'NONE',  ( 0.0000000000000000000, 0.0000000000000000000, 1.707404996040164512E-17 ) ) ;
#210 = AXIS2_PLACEMENT_3D ( 'NONE', #211, #183, #212 ) ;
#211 = CARTESIAN_POINT ( 'NONE',  ( 0.0000000000000000000, 0.0000000000000000000, 1.707404996040164512E-17 ) ) ;
#212 = DIRECTION ( 'NONE',  ( 1.000000000000000000, 0.0000000000000000000, 0.0000000000000000000 ) ) ;
#213 = DIRECTION ( 'NONE',  ( -0.0000000000000000000, -0.0000000000000000000, -1.000000000000000000 ) ) ;
#214 = VECTOR ( 'NONE', #243, 39.37007874015748143 ) ;
#215 = CARTESIAN_POINT ( 'NONE',  ( 0.0000000000000000000, 0.0000000000000000000, 0.5000000000000000000 ) ) ;
#216 = DIMENSIONAL_EXPONENTS ( 1.000000000000000000, 0.0000000000000000000, 0.0000000000000000000, 0.0000000000000000000, 0.0000000000000000000, 0.0000000000000000000, 0.0000000000000000000 ) ;
#217 = ORIENTED_EDGE ( 'NONE', *, *, #273, .T. ) ;
#218 = ADVANCED_FACE ( 'NONE', ( #117 ), #318, .T. ) ;
#219 = ORIENTED_EDGE ( 'NONE', *, *, #22, .T. ) ;
#220 = AXIS2_PLACEMENT_3D ( 'NONE', #297, #68, #245 ) ;
#221 =( CONVERSION_BASED_UNIT ( 'INCH', #124 ) LENGTH_UNIT ( ) NAMED_UNIT ( #216 ) );
#222 = ORIENTED_EDGE ( 'NONE', *, *, #84, .T. ) ;
#223 = EDGE_LOOP ( 'NONE', ( #169, #224 ) ) ;
#224 = ORIENTED_EDGE ( 'NONE', *, *, #301, .T. ) ;
#225 = CIRCLE ( 'NONE', #67, 0.007499999999999999722 ) ;
#226 = LINE ( 'NONE', #202, #188 ) ;
#227 = AXIS2_PLACEMENT_3D ( 'NONE', #299, #74, #248 ) ;
#228 = PRODUCT_DEFINITION_CONTEXT ( 'detailed design', #241, 'design' ) ;
#229 = DIRECTION ( 'NONE',  ( 0.0000000000000000000, 0.0000000000000000000, -1.000000000000000000 ) ) ;
#230 = PRODUCT_DEFINITION_SHAPE ( 'NONE', 'NONE',  #279 ) ;
#231 = EDGE_CURVE ( 'NONE', #105, #122, #269, .T. ) ;
#232 = EDGE_CURVE ( 'NONE', #281, #308, #309, .T. ) ;
#233 = CARTESIAN_POINT ( 'NONE',  ( -0.06245000000000007490, 0.0000000000000000000, 0.5000000000000000000 ) ) ;
#234 = AXIS2_PLACEMENT_3D ( 'NONE', #209, #240, #270 ) ;
#235 = DIRECTION ( 'NONE',  ( -0.0000000000000000000, -0.0000000000000000000, -1.000000000000000000 ) ) ;
#236 = CARTESIAN_POINT ( 'NONE',  ( 0.0000000000000000000, 0.0000000000000000000, 0.5000000000000000000 ) ) ;
#237 = EDGE_CURVE ( 'NONE', #195, #122, #321, .T. ) ;
#238 = PRODUCT ( 'Micro_DM-125-490', 'Micro_DM-125-490', '', ( #166 ) ) ;
#239 = LINE ( 'NONE', #268, #277 ) ;
#240 = DIRECTION ( 'NONE',  ( 0.0000000000000000000, 0.0000000000000000000, 1.000000000000000000 ) ) ;
#241 = APPLICATION_CONTEXT ( 'automotive_design' ) ;
#242 = MECHANICAL_DESIGN_GEOMETRIC_PRESENTATION_REPRESENTATION (  '', ( #150 ), #267 ) ;
#243 = DIRECTION ( 'NONE',  ( -0.0000000000000000000, -0.0000000000000000000, -1.000000000000000000 ) ) ;
#244 = ORIENTED_EDGE ( 'NONE', *, *, #326, .F. ) ;
#245 = DIRECTION ( 'NONE',  ( 1.000000000000000000, 0.0000000000000000000, 0.0000000000000000000 ) ) ;
#246 = ADVANCED_BREP_SHAPE_REPRESENTATION ( 'Micro_DM-125-490', ( #327, #227 ), #78 ) ;
#247 = PRESENTATION_STYLE_ASSIGNMENT (( #140 ) ) ;
#248 = DIRECTION ( 'NONE',  ( 1.000000000000000000, 0.0000000000000000000, 0.0000000000000000000 ) ) ;
#249 = CARTESIAN_POINT ( 'NONE',  ( 0.0000000000000000000, 0.0000000000000000000, 1.485000000000000764 ) ) ;
#250 = LENGTH_MEASURE_WITH_UNIT ( LENGTH_MEASURE( 0.02539999999999999897 ), #143 );
#251 = DIMENSIONAL_EXPONENTS ( 1.000000000000000000, 0.0000000000000000000, 0.0000000000000000000, 0.0000000000000000000, 0.0000000000000000000, 0.0000000000000000000, 0.0000000000000000000 ) ;
#252 = ORIENTED_EDGE ( 'NONE', *, *, #232, .T. ) ;
#253 = APPLICATION_PROTOCOL_DEFINITION ( 'draft international standard', 'automotive_design', 1998, #294 ) ;
#254 = VERTEX_POINT ( 'NONE', #92 ) ;
#255 = VECTOR ( 'NONE', #259, 39.37007874015748143 ) ;
#256 = ORIENTED_EDGE ( 'NONE', *, *, #161, .T. ) ;
#257 = EDGE_LOOP ( 'NONE', ( #151, #256, #190, #329 ) ) ;
#258 = DIRECTION ( 'NONE',  ( -1.000000000000000000, 0.0000000000000000000, 0.0000000000000000000 ) ) ;
#259 = DIRECTION ( 'NONE',  ( 0.7071067811865491270, 0.0000000000000000000, 0.7071067811865459074 ) ) ;
#260 = CARTESIAN_POINT ( 'NONE',  ( 0.06245000000000001245, 0.0000000000000000000, 0.05494999999999978374 ) ) ;
#261 = ADVANCED_FACE ( 'NONE', ( #322 ), #71, .T. ) ;
#262 = CARTESIAN_POINT ( 'NONE',  ( 0.0000000000000000000, 0.0000000000000000000, 0.05494999999999977680 ) ) ;
#263 = EDGE_CURVE ( 'NONE', #306, #193, #97, .T. ) ;
#264 = VECTOR ( 'NONE', #235, 39.37007874015748143 ) ;
#265 = DIRECTION ( 'NONE',  ( -0.0000000000000000000, -0.0000000000000000000, -1.000000000000000000 ) ) ;
#266 = EDGE_CURVE ( 'NONE', #85, #254, #314, .T. ) ;
#267 =( GEOMETRIC_REPRESENTATION_CONTEXT ( 3 ) GLOBAL_UNCERTAINTY_ASSIGNED_CONTEXT ( ( #203 ) ) GLOBAL_UNIT_ASSIGNED_CONTEXT ( ( #221, #282, #33 ) ) REPRESENTATION_CONTEXT ( 'NONE', 'WORKASPACE' ) );
#268 = CARTESIAN_POINT ( 'NONE',  ( 0.06245000000000004020, 7.647919260675225723E-18, 0.0000000000000000000 ) ) ;
#269 = LINE ( 'NONE', #44, #214 ) ;
#270 = DIRECTION ( 'NONE',  ( 1.000000000000000000, 0.0000000000000000000, 0.0000000000000000000 ) ) ;
#271 = CLOSED_SHELL ( 'NONE', ( #320, #261, #141, #153, #181, #29, #114, #296, #218, #59, #206 ) ) ;
#272 = CIRCLE ( 'NONE', #220, 0.04750000000000064587 ) ;
#273 = EDGE_CURVE ( 'NONE', #85, #308, #96, .T. ) ;
#274 = PLANE ( 'NONE',  #118 ) ;
#275 = FILL_AREA_STYLE_COLOUR ( '', #131 ) ;
#276 = ORIENTED_EDGE ( 'NONE', *, *, #266, .F. ) ;
#277 = VECTOR ( 'NONE', #213, 39.37007874015748143 ) ;
#278 = EDGE_LOOP ( 'NONE', ( #127, #82, #170, #276 ) ) ;
#279 = PRODUCT_DEFINITION ( 'UNKNOWN', '', #179, #228 ) ;
#280 =( LENGTH_UNIT ( ) NAMED_UNIT ( * ) SI_UNIT ( $, .METRE. ) );
#281 = VERTEX_POINT ( 'NONE', #47 ) ;
#282 =( NAMED_UNIT ( * ) PLANE_ANGLE_UNIT ( ) SI_UNIT ( $, .RADIAN. ) );
#283 = ORIENTED_EDGE ( 'NONE', *, *, #273, .F. ) ;
#284 = CIRCLE ( 'NONE', #158, 0.06245000000000007490 ) ;
#285 = ORIENTED_EDGE ( 'NONE', *, *, #237, .T. ) ;
#286 = DIRECTION ( 'NONE',  ( 0.0000000000000000000, 0.0000000000000000000, 1.000000000000000000 ) ) ;
#287 = CARTESIAN_POINT ( 'NONE',  ( 0.04750000000000064587, 6.735557395310482421E-18, 1.500000000000000222 ) ) ;
#288 = FACE_OUTER_BOUND ( 'NONE', #77, .T. ) ;
#289 = DIRECTION ( 'NONE',  ( -1.000000000000000000, 0.0000000000000000000, 0.0000000000000000000 ) ) ;
#290 = CARTESIAN_POINT ( 'NONE',  ( 0.06245000000000006796, 7.647919260675228804E-18, 0.5000000000000000000 ) ) ;
#291 = VECTOR ( 'NONE', #95, 39.37007874015748143 ) ;
#292 = DIRECTION ( 'NONE',  ( -1.000000000000000000, 0.0000000000000000000, 0.0000000000000000000 ) ) ;
#293 = CARTESIAN_POINT ( 'NONE',  ( 0.0000000000000000000, 0.0000000000000000000, 0.05494999999999977680 ) ) ;
#294 = APPLICATION_CONTEXT ( 'automotive_design' ) ;
#295 = DIRECTION ( 'NONE',  ( 1.000000000000000000, 0.0000000000000000000, 0.0000000000000000000 ) ) ;
#296 = ADVANCED_FACE ( 'NONE', ( #138, #160 ), #298, .T. ) ;
#297 = CARTESIAN_POINT ( 'NONE',  ( 0.0000000000000000000, 0.0000000000000000000, 1.500000000000000222 ) ) ;
#298 = PLANE ( 'NONE',  #142 ) ;
#299 = CARTESIAN_POINT ( 'NONE',  ( 0.0000000000000000000, 0.0000000000000000000, 0.0000000000000000000 ) ) ;
#300 = EDGE_CURVE ( 'NONE', #105, #129, #284, .T. ) ;
#301 = EDGE_CURVE ( 'NONE', #193, #306, #272, .T. ) ;
#302 = ORIENTED_EDGE ( 'NONE', *, *, #24, .F. ) ;
#303 = CIRCLE ( 'NONE', #76, 0.007499999999999999722 ) ;
#304 = ORIENTED_EDGE ( 'NONE', *, *, #231, .T. ) ;
#305 = LENGTH_MEASURE_WITH_UNIT ( LENGTH_MEASURE( 0.02539999999999999897 ), #280 );
#306 = VERTEX_POINT ( 'NONE', #185 ) ;
#307 = EDGE_CURVE ( 'NONE', #79, #122, #62, .T. ) ;
#308 = VERTEX_POINT ( 'NONE', #164 ) ;
#309 = CIRCLE ( 'NONE', #172, 0.06250000000000000000 ) ;
#310 = EDGE_LOOP ( 'NONE', ( #1, #34 ) ) ;
#311 = CARTESIAN_POINT ( 'NONE',  ( 0.0000000000000000000, 0.0000000000000000000, 1.500000000000000222 ) ) ;
#312 = CARTESIAN_POINT ( 'NONE',  ( -0.007499999999999999722, 4.283202180017868527E-18, 1.707404996040164512E-17 ) ) ;
#313 = AXIS2_PLACEMENT_3D ( 'NONE', #249, #26, #99 ) ;
#314 = CIRCLE ( 'NONE', #18, 0.06250000000000000000 ) ;
#315 = CARTESIAN_POINT ( 'NONE',  ( 0.0000000000000000000, 0.0000000000000000000, 1.500000000000000222 ) ) ;
#316 = DIRECTION ( 'NONE',  ( -1.000000000000000000, 0.0000000000000000000, 0.0000000000000000000 ) ) ;
#317 = DIRECTION ( 'NONE',  ( -1.000000000000000000, 0.0000000000000000000, 0.0000000000000000000 ) ) ;
#318 = CONICAL_SURFACE ( 'NONE', #210, 0.007499999999999999722, 0.7853981633974506105 ) ;
#319 = DIRECTION ( 'NONE',  ( -0.0000000000000000000, -0.0000000000000000000, -1.000000000000000000 ) ) ;
#320 = ADVANCED_FACE ( 'NONE', ( #20 ), #159, .T. ) ;
#321 = LINE ( 'NONE', #73, #23 ) ;
#322 = FACE_OUTER_BOUND ( 'NONE', #101, .T. ) ;
#323 = ORIENTED_EDGE ( 'NONE', *, *, #24, .T. ) ;
#324 = CARTESIAN_POINT ( 'NONE',  ( 0.0000000000000000000, 0.0000000000000000000, 0.0000000000000000000 ) ) ;
#325 = AXIS2_PLACEMENT_3D ( 'NONE', #42, #286, #37 ) ;
#326 = EDGE_CURVE ( 'NONE', #129, #79, #239, .T. ) ;
#327 = MANIFOLD_SOLID_BREP ( 'Cut-Revolve4', #271 ) ;
#328 =( NAMED_UNIT ( * ) SI_UNIT ( $, .STERADIAN. ) SOLID_ANGLE_UNIT ( ) );
#329 = ORIENTED_EDGE ( 'NONE', *, *, #194, .F. ) ;
ENDSEC;
END-ISO-10303-21;
