ISO-10303-21;
HEADER;
FILE_DESCRIPTION (( 'STEP AP214' ),
    '1' );
FILE_NAME ('Micro_BMR-012-2.STEP',
    '2021-09-03T13:41:10',
    ( '' ),
    ( '' ),
    'SwSTEP 2.0',
    'SolidWorks 2020',
    '' );
FILE_SCHEMA (( 'AUTOMOTIVE_DESIGN' ));
ENDSEC;

DATA;
#1 = ORIENTED_EDGE ( 'NONE', *, *, #149, .F. ) ;
#2 = ORIENTED_EDGE ( 'NONE', *, *, #149, .T. ) ;
#3 = DIRECTION ( 'NONE',  ( 1.000000000000000000, 0.0000000000000000000, 0.0000000000000000000 ) ) ;
#4 = CIRCLE ( 'NONE', #189, 0.005994000000000000196 ) ;
#5 = AXIS2_PLACEMENT_3D ( 'NONE', #217, #195, #251 ) ;
#6 = DIRECTION ( 'NONE',  ( -0.0000000000000000000, -0.0000000000000000000, -1.000000000000000000 ) ) ;
#7 = CARTESIAN_POINT ( 'NONE',  ( 7.340532914089237189E-19, 0.0000000000000000000, 0.005994000000000000196 ) ) ;
#8 =( CONVERSION_BASED_UNIT ( 'INCH', #271 ) LENGTH_UNIT ( ) NAMED_UNIT ( #237 ) );
#9 = ADVANCED_FACE ( 'NONE', ( #302 ), #14, .T. ) ;
#10 = DIRECTION ( 'NONE',  ( 0.0000000000000000000, 0.0000000000000000000, -1.000000000000000000 ) ) ;
#11 = PRODUCT_CONTEXT ( 'NONE', #105, 'mechanical' ) ;
#12 = DIRECTION ( 'NONE',  ( 1.000000000000000000, 0.0000000000000000000, 0.0000000000000000000 ) ) ;
#13 = EDGE_CURVE ( 'NONE', #227, #129, #95, .T. ) ;
#14 = CONICAL_SURFACE ( 'NONE', #158, 0.005993999999999999329, 0.1745329251994338637 ) ;
#15 = EDGE_LOOP ( 'NONE', ( #151, #230, #97, #23 ) ) ;
#16 = FACE_OUTER_BOUND ( 'NONE', #226, .T. ) ;
#17 = CARTESIAN_POINT ( 'NONE',  ( 0.0000000000000000000, 0.0000000000000000000, 1.500000000000000222 ) ) ;
#18 = ORIENTED_EDGE ( 'NONE', *, *, #50, .T. ) ;
#19 = SHAPE_DEFINITION_REPRESENTATION ( #163, #267 ) ;
#20 = EDGE_CURVE ( 'NONE', #25, #228, #113, .T. ) ;
#21 = EDGE_LOOP ( 'NONE', ( #225, #200, #175, #73 ) ) ;
#22 = DIRECTION ( 'NONE',  ( 1.224646799147353454E-16, 0.0000000000000000000, 1.000000000000000000 ) ) ;
#23 = ORIENTED_EDGE ( 'NONE', *, *, #70, .F. ) ;
#24 = ORIENTED_EDGE ( 'NONE', *, *, #70, .T. ) ;
#25 = VERTEX_POINT ( 'NONE', #139 ) ;
#26 = ORIENTED_EDGE ( 'NONE', *, *, #81, .T. ) ;
#27 = DIRECTION ( 'NONE',  ( -0.1736481776669311639, 2.126576849575783008E-17, 0.9848077530122080203 ) ) ;
#28 = LINE ( 'NONE', #287, #300 ) ;
#29 = UNCERTAINTY_MEASURE_WITH_UNIT (LENGTH_MEASURE( 1.000000000000000082E-05 ), #68, 'distance_accuracy_value', 'NONE');
#30 = DIRECTION ( 'NONE',  ( 0.0000000000000000000, 0.0000000000000000000, -1.000000000000000000 ) ) ;
#31 = AXIS2_PLACEMENT_3D ( 'NONE', #91, #250, #148 ) ;
#32 = CARTESIAN_POINT ( 'NONE',  ( 0.0000000000000000000, 0.0000000000000000000, 1.500000000000000222 ) ) ;
#33 = DIRECTION ( 'NONE',  ( -1.000000000000000000, 0.0000000000000000000, 0.0000000000000000000 ) ) ;
#34 = CARTESIAN_POINT ( 'NONE',  ( -0.06249999999999997918, 0.0000000000000000000, 0.3564614504993167121 ) ) ;
#35 = DIRECTION ( 'NONE',  ( 0.0000000000000000000, 1.000000000000000000, 0.0000000000000000000 ) ) ;
#36 = DIRECTION ( 'NONE',  ( 0.0000000000000000000, 0.0000000000000000000, -1.000000000000000000 ) ) ;
#37 = AXIS2_PLACEMENT_3D ( 'NONE', #246, #42, #12 ) ;
#38 = DIRECTION ( 'NONE',  ( 1.000000000000000000, 0.0000000000000000000, 0.0000000000000000000 ) ) ;
#39 = DIRECTION ( 'NONE',  ( 1.000000000000000000, 0.0000000000000000000, 0.0000000000000000000 ) ) ;
#40 = DIRECTION ( 'NONE',  ( 1.000000000000000000, 0.0000000000000000000, -0.0000000000000000000 ) ) ;
#41 = CARTESIAN_POINT ( 'NONE',  ( 0.0000000000000000000, 0.0000000000000000000, 1.500000000000000222 ) ) ;
#42 = DIRECTION ( 'NONE',  ( -1.224646799147353454E-16, -0.0000000000000000000, -1.000000000000000000 ) ) ;
#43 = CARTESIAN_POINT ( 'NONE',  ( 0.005994000000000001931, 7.340532914089237189E-19, -7.340532914089238152E-19 ) ) ;
#44 = AXIS2_PLACEMENT_3D ( 'NONE', #112, #261, #290 ) ;
#45 = CARTESIAN_POINT ( 'NONE',  ( 1.101079937113385482E-18, 0.0000000000000000000, 0.0000000000000000000 ) ) ;
#46 = PRESENTATION_STYLE_ASSIGNMENT (( #292 ) ) ;
#47 = ORIENTED_EDGE ( 'NONE', *, *, #141, .F. ) ;
#48 = DIRECTION ( 'NONE',  ( 1.000000000000000000, 0.0000000000000000000, 0.0000000000000000000 ) ) ;
#49 = VECTOR ( 'NONE', #27, 39.37007874015747433 ) ;
#50 = EDGE_CURVE ( 'NONE', #124, #98, #4, .T. ) ;
#51 = ORIENTED_EDGE ( 'NONE', *, *, #141, .T. ) ;
#52 = ORIENTED_EDGE ( 'NONE', *, *, #81, .F. ) ;
#53 = EDGE_LOOP ( 'NONE', ( #132, #131, #24, #1 ) ) ;
#54 = EDGE_CURVE ( 'NONE', #178, #201, #263, .T. ) ;
#55 = DIRECTION ( 'NONE',  ( 0.0000000000000000000, 0.0000000000000000000, 1.000000000000000000 ) ) ;
#56 = FACE_OUTER_BOUND ( 'NONE', #231, .T. ) ;
#57 = DIRECTION ( 'NONE',  ( -1.000000000000000000, 0.0000000000000000000, 1.224646799147353207E-16 ) ) ;
#58 = DIRECTION ( 'NONE',  ( 0.0000000000000000000, 0.0000000000000000000, -1.000000000000000000 ) ) ;
#59 = APPLICATION_CONTEXT ( 'automotive_design' ) ;
#60 = AXIS2_PLACEMENT_3D ( 'NONE', #80, #140, #138 ) ;
#61 = DIRECTION ( 'NONE',  ( 0.7071067811865462405, 8.659560562354916834E-17, -0.7071067811865486830 ) ) ;
#62 = CYLINDRICAL_SURFACE ( 'NONE', #102, 0.005994000000000001931 ) ;
#63 = VECTOR ( 'NONE', #74, 39.37007874015748143 ) ;
#64 =( GEOMETRIC_REPRESENTATION_CONTEXT ( 3 ) GLOBAL_UNCERTAINTY_ASSIGNED_CONTEXT ( ( #307 ) ) GLOBAL_UNIT_ASSIGNED_CONTEXT ( ( #317, #117, #67 ) ) REPRESENTATION_CONTEXT ( 'NONE', 'WORKASPACE' ) );
#65 = EDGE_CURVE ( 'NONE', #228, #201, #233, .T. ) ;
#66 =( NAMED_UNIT ( * ) PLANE_ANGLE_UNIT ( ) SI_UNIT ( $, .RADIAN. ) );
#67 =( NAMED_UNIT ( * ) SI_UNIT ( $, .STERADIAN. ) SOLID_ANGLE_UNIT ( ) );
#68 =( CONVERSION_BASED_UNIT ( 'INCH', #88 ) LENGTH_UNIT ( ) NAMED_UNIT ( #192 ) );
#69 = PRESENTATION_LAYER_ASSIGNMENT (  '', '', ( #89 ) ) ;
#70 = EDGE_CURVE ( 'NONE', #153, #249, #159, .T. ) ;
#71 = CIRCLE ( 'NONE', #154, 0.06250000000000002776 ) ;
#72 = ORIENTED_EDGE ( 'NONE', *, *, #232, .T. ) ;
#73 = ORIENTED_EDGE ( 'NONE', *, *, #244, .F. ) ;
#74 = DIRECTION ( 'NONE',  ( -0.0000000000000000000, -0.0000000000000000000, -1.000000000000000000 ) ) ;
#75 = AXIS2_PLACEMENT_3D ( 'NONE', #7, #35, #38 ) ;
#76 = STYLED_ITEM ( 'NONE', ( #46 ), #267 ) ;
#77 = DIRECTION ( 'NONE',  ( 1.224646799147353454E-16, 0.0000000000000000000, 1.000000000000000000 ) ) ;
#78 = CARTESIAN_POINT ( 'NONE',  ( -0.04750000000000064587, 0.0000000000000000000, 1.500000000000000222 ) ) ;
#79 = DIRECTION ( 'NONE',  ( 1.000000000000000000, 0.0000000000000000000, 0.0000000000000000000 ) ) ;
#80 = CARTESIAN_POINT ( 'NONE',  ( 4.408728476930471799E-18, 0.0000000000000000000, 0.03599999999999999728 ) ) ;
#81 = EDGE_CURVE ( 'NONE', #25, #249, #304, .T. ) ;
#82 = DIRECTION ( 'NONE',  ( -1.000000000000000000, 0.0000000000000000000, 0.0000000000000000000 ) ) ;
#83 = CONICAL_SURFACE ( 'NONE', #257, 0.04750000000000064587, 0.7853981633974466137 ) ;
#84 = FACE_OUTER_BOUND ( 'NONE', #127, .T. ) ;
#85 = DIRECTION ( 'NONE',  ( -1.000000000000000000, 0.0000000000000000000, 1.780327198073244060E-16 ) ) ;
#86 = CARTESIAN_POINT ( 'NONE',  ( -0.04750000000000064587, 0.0000000000000000000, 1.500000000000000222 ) ) ;
#87 = DIRECTION ( 'NONE',  ( 1.224646799147353454E-16, 0.0000000000000000000, 1.000000000000000000 ) ) ;
#88 = LENGTH_MEASURE_WITH_UNIT ( LENGTH_MEASURE( 0.02539999999999999897 ), #94 );
#89 = STYLED_ITEM ( 'NONE', ( #295 ), #128 ) ;
#90 = CIRCLE ( 'NONE', #298, 0.005994000000000001931 ) ;
#91 = CARTESIAN_POINT ( 'NONE',  ( 0.0000000000000000000, 0.0000000000000000000, 1.500000000000000222 ) ) ;
#92 = APPLICATION_PROTOCOL_DEFINITION ( 'draft international standard', 'automotive_design', 1998, #59 ) ;
#93 = SURFACE_STYLE_USAGE ( .BOTH. , #243 ) ;
#94 =( LENGTH_UNIT ( ) NAMED_UNIT ( * ) SI_UNIT ( $, .METRE. ) );
#95 = CIRCLE ( 'NONE', #262, 0.04750000000000064587 ) ;
#96 = ORIENTED_EDGE ( 'NONE', *, *, #198, .F. ) ;
#97 = ORIENTED_EDGE ( 'NONE', *, *, #99, .F. ) ;
#98 = VERTEX_POINT ( 'NONE', #206 ) ;
#99 = EDGE_CURVE ( 'NONE', #249, #201, #119, .T. ) ;
#100 = ORIENTED_EDGE ( 'NONE', *, *, #114, .F. ) ;
#101 = ORIENTED_EDGE ( 'NONE', *, *, #183, .F. ) ;
#102 = AXIS2_PLACEMENT_3D ( 'NONE', #191, #207, #57 ) ;
#103 = ADVANCED_FACE ( 'NONE', ( #56 ), #176, .T. ) ;
#104 = ORIENTED_EDGE ( 'NONE', *, *, #279, .F. ) ;
#105 = APPLICATION_CONTEXT ( 'automotive_design' ) ;
#106 = CARTESIAN_POINT ( 'NONE',  ( 0.005994000000000003665, 0.0000000000000000000, 0.03599999999999999728 ) ) ;
#107 = AXIS2_PLACEMENT_3D ( 'NONE', #260, #184, #79 ) ;
#108 = CARTESIAN_POINT ( 'NONE',  ( 4.408728476930471799E-18, 0.0000000000000000000, 0.03599999999999999728 ) ) ;
#109 = DIRECTION ( 'NONE',  ( 1.000000000000000000, 0.0000000000000000000, 0.0000000000000000000 ) ) ;
#110 = EDGE_CURVE ( 'NONE', #178, #153, #71, .T. ) ;
#111 = UNCERTAINTY_MEASURE_WITH_UNIT (LENGTH_MEASURE( 1.000000000000000082E-05 ), #8, 'distance_accuracy_value', 'NONE');
#112 = CARTESIAN_POINT ( 'NONE',  ( 0.0000000000000000000, 0.0000000000000000000, 0.0000000000000000000 ) ) ;
#113 = CIRCLE ( 'NONE', #144, 0.005993999999999999329 ) ;
#114 = EDGE_CURVE ( 'NONE', #153, #178, #211, .T. ) ;
#115 = SURFACE_STYLE_FILL_AREA ( #152 ) ;
#116 = CARTESIAN_POINT ( 'NONE',  ( 0.06250000000000002776, 7.654042494670959086E-18, 1.485000000000000764 ) ) ;
#117 =( NAMED_UNIT ( * ) PLANE_ANGLE_UNIT ( ) SI_UNIT ( $, .RADIAN. ) );
#118 = DIRECTION ( 'NONE',  ( 1.000000000000000000, 0.0000000000000000000, 0.0000000000000000000 ) ) ;
#119 = CIRCLE ( 'NONE', #107, 0.06250000000000002776 ) ;
#120 = FILL_AREA_STYLE_COLOUR ( '', #234 ) ;
#121 = EDGE_LOOP ( 'NONE', ( #47, #256, #100, #203 ) ) ;
#122 = VECTOR ( 'NONE', #239, 39.37007874015748854 ) ;
#123 =( GEOMETRIC_REPRESENTATION_CONTEXT ( 3 ) GLOBAL_UNCERTAINTY_ASSIGNED_CONTEXT ( ( #111 ) ) GLOBAL_UNIT_ASSIGNED_CONTEXT ( ( #8, #188, #166 ) ) REPRESENTATION_CONTEXT ( 'NONE', 'WORKASPACE' ) );
#124 = VERTEX_POINT ( 'NONE', #45 ) ;
#125 = AXIS2_PLACEMENT_3D ( 'NONE', #165, #264, #33 ) ;
#126 = EDGE_LOOP ( 'NONE', ( #204, #224, #299, #325 ) ) ;
#127 = EDGE_LOOP ( 'NONE', ( #101, #218, #156, #177 ) ) ;
#128 = MANIFOLD_SOLID_BREP ( 'Fillet1', #143 ) ;
#129 = VERTEX_POINT ( 'NONE', #197 ) ;
#130 = ORIENTED_EDGE ( 'NONE', *, *, #20, .F. ) ;
#131 = ORIENTED_EDGE ( 'NONE', *, *, #110, .T. ) ;
#132 = ORIENTED_EDGE ( 'NONE', *, *, #54, .F. ) ;
#133 = CIRCLE ( 'NONE', #60, 0.005993999999999999329 ) ;
#134 = ORIENTED_EDGE ( 'NONE', *, *, #13, .T. ) ;
#135 = CARTESIAN_POINT ( 'NONE',  ( 4.408728476930471799E-18, 0.0000000000000000000, 0.03599999999999999728 ) ) ;
#136 = DIMENSIONAL_EXPONENTS ( 1.000000000000000000, 0.0000000000000000000, 0.0000000000000000000, 0.0000000000000000000, 0.0000000000000000000, 0.0000000000000000000, 0.0000000000000000000 ) ;
#137 = CARTESIAN_POINT ( 'NONE',  ( 7.340532914089237189E-19, 0.0000000000000000000, 0.005994000000000000196 ) ) ;
#138 = DIRECTION ( 'NONE',  ( -1.000000000000000000, 0.0000000000000000000, 0.0000000000000000000 ) ) ;
#139 = CARTESIAN_POINT ( 'NONE',  ( -0.005993999999999994992, 4.194047893039942847E-18, 0.03599999999999999728 ) ) ;
#140 = DIRECTION ( 'NONE',  ( -1.224646799147353454E-16, -0.0000000000000000000, -1.000000000000000000 ) ) ;
#141 = EDGE_CURVE ( 'NONE', #129, #227, #241, .T. ) ;
#142 = CARTESIAN_POINT ( 'NONE',  ( 7.340532914089237189E-19, 0.0000000000000000000, 0.005994000000000000196 ) ) ;
#143 = CLOSED_SHELL ( 'NONE', ( #258, #314, #103, #285, #167, #323, #174, #220, #9, #269, #289 ) ) ;
#144 = AXIS2_PLACEMENT_3D ( 'NONE', #108, #235, #160 ) ;
#145 = DIRECTION ( 'NONE',  ( 0.0000000000000000000, -1.000000000000000000, 0.0000000000000000000 ) ) ;
#146 = SURFACE_STYLE_FILL_AREA ( #320 ) ;
#147 = DIRECTION ( 'NONE',  ( 1.000000000000000000, 0.0000000000000000000, 0.0000000000000000000 ) ) ;
#148 = DIRECTION ( 'NONE',  ( -1.000000000000000000, 0.0000000000000000000, 0.0000000000000000000 ) ) ;
#149 = EDGE_CURVE ( 'NONE', #201, #249, #297, .T. ) ;
#150 = MECHANICAL_DESIGN_GEOMETRIC_PRESENTATION_REPRESENTATION (  '', ( #89 ), #181 ) ;
#151 = ORIENTED_EDGE ( 'NONE', *, *, #114, .T. ) ;
#152 = FILL_AREA_STYLE ('',( #219 ) ) ;
#153 = VERTEX_POINT ( 'NONE', #215 ) ;
#154 = AXIS2_PLACEMENT_3D ( 'NONE', #284, #58, #118 ) ;
#155 = MECHANICAL_DESIGN_GEOMETRIC_PRESENTATION_REPRESENTATION (  '', ( #76 ), #64 ) ;
#156 = ORIENTED_EDGE ( 'NONE', *, *, #244, .T. ) ;
#157 = ORIENTED_EDGE ( 'NONE', *, *, #65, .F. ) ;
#158 = AXIS2_PLACEMENT_3D ( 'NONE', #276, #22, #48 ) ;
#159 = LINE ( 'NONE', #308, #193 ) ;
#160 = DIRECTION ( 'NONE',  ( -1.000000000000000000, 0.0000000000000000000, 0.0000000000000000000 ) ) ;
#161 = PRODUCT_DEFINITION ( 'UNKNOWN', '', #223, #274 ) ;
#162 = CARTESIAN_POINT ( 'NONE',  ( 0.0000000000000000000, 0.0000000000000000000, 1.500000000000000222 ) ) ;
#163 = PRODUCT_DEFINITION_SHAPE ( 'NONE', 'NONE',  #161 ) ;
#164 = DIRECTION ( 'NONE',  ( -1.000000000000000000, 1.224646799147353207E-16, 0.0000000000000000000 ) ) ;
#165 = CARTESIAN_POINT ( 'NONE',  ( 0.0000000000000000000, 0.0000000000000000000, 1.500000000000000222 ) ) ;
#166 =( NAMED_UNIT ( * ) SI_UNIT ( $, .STERADIAN. ) SOLID_ANGLE_UNIT ( ) );
#167 = ADVANCED_FACE ( 'NONE', ( #170 ), #173, .T. ) ;
#168 = DIRECTION ( 'NONE',  ( -1.000000000000000000, 0.0000000000000000000, 0.0000000000000000000 ) ) ;
#169 = CARTESIAN_POINT ( 'NONE',  ( -0.005994000000000001931, 0.0000000000000000000, 7.340532914089238152E-19 ) ) ;
#170 = FACE_OUTER_BOUND ( 'NONE', #15, .T. ) ;
#171 = CARTESIAN_POINT ( 'NONE',  ( 0.005994000000000003665, 0.0000000000000000000, 0.03599999999999999728 ) ) ;
#172 =( LENGTH_UNIT ( ) NAMED_UNIT ( * ) SI_UNIT ( $, .METRE. ) );
#173 = CYLINDRICAL_SURFACE ( 'NONE', #31, 0.06250000000000002776 ) ;
#174 = ADVANCED_FACE ( 'NONE', ( #16 ), #194, .T. ) ;
#175 = ORIENTED_EDGE ( 'NONE', *, *, #319, .T. ) ;
#176 = CONICAL_SURFACE ( 'NONE', #291, 0.005993999999999999329, 0.1745329251994338637 ) ;
#177 = ORIENTED_EDGE ( 'NONE', *, *, #198, .T. ) ;
#178 = VERTEX_POINT ( 'NONE', #116 ) ;
#179 = ORIENTED_EDGE ( 'NONE', *, *, #50, .F. ) ;
#180 = ORIENTED_EDGE ( 'NONE', *, *, #65, .T. ) ;
#181 =( GEOMETRIC_REPRESENTATION_CONTEXT ( 3 ) GLOBAL_UNCERTAINTY_ASSIGNED_CONTEXT ( ( #29 ) ) GLOBAL_UNIT_ASSIGNED_CONTEXT ( ( #68, #66, #318 ) ) REPRESENTATION_CONTEXT ( 'NONE', 'WORKASPACE' ) );
#182 = CARTESIAN_POINT ( 'NONE',  ( 0.06250000000000006939, 7.654042494670963708E-18, 0.3564614504993167121 ) ) ;
#183 = EDGE_CURVE ( 'NONE', #228, #199, #321, .T. ) ;
#184 = DIRECTION ( 'NONE',  ( -1.224646799147353454E-16, -0.0000000000000000000, -1.000000000000000000 ) ) ;
#185 = CARTESIAN_POINT ( 'NONE',  ( 7.340532914089237189E-19, 0.0000000000000000000, 0.005994000000000000196 ) ) ;
#186 = DIRECTION ( 'NONE',  ( 1.000000000000000000, 0.0000000000000000000, 0.0000000000000000000 ) ) ;
#187 = FACE_OUTER_BOUND ( 'NONE', #278, .T. ) ;
#188 =( NAMED_UNIT ( * ) PLANE_ANGLE_UNIT ( ) SI_UNIT ( $, .RADIAN. ) );
#189 = AXIS2_PLACEMENT_3D ( 'NONE', #137, #281, #164 ) ;
#190 = FACE_OUTER_BOUND ( 'NONE', #126, .T. ) ;
#191 = CARTESIAN_POINT ( 'NONE',  ( 0.0000000000000000000, 0.0000000000000000000, 0.0000000000000000000 ) ) ;
#192 = DIMENSIONAL_EXPONENTS ( 1.000000000000000000, 0.0000000000000000000, 0.0000000000000000000, 0.0000000000000000000, 0.0000000000000000000, 0.0000000000000000000, 0.0000000000000000000 ) ;
#193 = VECTOR ( 'NONE', #6, 39.37007874015748143 ) ;
#194 = PLANE ( 'NONE',  #316 ) ;
#195 = DIRECTION ( 'NONE',  ( 0.0000000000000000000, 0.0000000000000000000, 1.000000000000000000 ) ) ;
#196 = CARTESIAN_POINT ( 'NONE',  ( 0.0000000000000000000, 0.0000000000000000000, 1.485000000000000764 ) ) ;
#197 = CARTESIAN_POINT ( 'NONE',  ( 0.04750000000000064587, 6.735557395310483192E-18, 1.500000000000000222 ) ) ;
#198 = EDGE_CURVE ( 'NONE', #98, #199, #222, .T. ) ;
#199 = VERTEX_POINT ( 'NONE', #268 ) ;
#200 = ORIENTED_EDGE ( 'NONE', *, *, #183, .T. ) ;
#201 = VERTEX_POINT ( 'NONE', #182 ) ;
#202 = VECTOR ( 'NONE', #242, 39.37007874015748143 ) ;
#203 = ORIENTED_EDGE ( 'NONE', *, *, #265, .F. ) ;
#204 = ORIENTED_EDGE ( 'NONE', *, *, #214, .F. ) ;
#205 = PRODUCT_RELATED_PRODUCT_CATEGORY ( 'part', '', ( #306 ) ) ;
#206 = CARTESIAN_POINT ( 'NONE',  ( -0.005994000000000000196, 0.0000000000000000000, 0.005994000000000001931 ) ) ;
#207 = DIRECTION ( 'NONE',  ( -1.224646799147353454E-16, -0.0000000000000000000, -1.000000000000000000 ) ) ;
#208 = DIRECTION ( 'NONE',  ( 0.1736481776669313581, 0.0000000000000000000, 0.9848077530122077983 ) ) ;
#209 = CYLINDRICAL_SURFACE ( 'NONE', #44, 0.005994000000000001931 ) ;
#210 = CARTESIAN_POINT ( 'NONE',  ( 7.340532914089237189E-19, 0.0000000000000000000, 0.005994000000000000196 ) ) ;
#211 = CIRCLE ( 'NONE', #322, 0.06250000000000002776 ) ;
#212 = CARTESIAN_POINT ( 'NONE',  ( 7.340532914089237189E-19, 0.0000000000000000000, 0.005994000000000000196 ) ) ;
#213 = FACE_OUTER_BOUND ( 'NONE', #21, .T. ) ;
#214 = EDGE_CURVE ( 'NONE', #129, #178, #28, .T. ) ;
#215 = CARTESIAN_POINT ( 'NONE',  ( -0.06250000000000002776, 0.0000000000000000000, 1.485000000000000764 ) ) ;
#216 = CIRCLE ( 'NONE', #311, 0.005994000000000000196 ) ;
#217 = CARTESIAN_POINT ( 'NONE',  ( 0.0000000000000000000, 0.0000000000000000000, 0.0000000000000000000 ) ) ;
#218 = ORIENTED_EDGE ( 'NONE', *, *, #279, .T. ) ;
#219 = FILL_AREA_STYLE_COLOUR ( '', #280 ) ;
#220 = ADVANCED_FACE ( 'NONE', ( #190 ), #221, .T. ) ;
#221 = CONICAL_SURFACE ( 'NONE', #270, 0.04750000000000064587, 0.7853981633974466137 ) ;
#222 = CIRCLE ( 'NONE', #248, 0.005994000000000001931 ) ;
#223 = PRODUCT_DEFINITION_FORMATION_WITH_SPECIFIED_SOURCE ( 'ANY', '', #306, .NOT_KNOWN. ) ;
#224 = ORIENTED_EDGE ( 'NONE', *, *, #13, .F. ) ;
#225 = ORIENTED_EDGE ( 'NONE', *, *, #20, .T. ) ;
#226 = EDGE_LOOP ( 'NONE', ( #134, #51 ) ) ;
#227 = VERTEX_POINT ( 'NONE', #86 ) ;
#228 = VERTEX_POINT ( 'NONE', #171 ) ;
#229 = AXIS2_PLACEMENT_3D ( 'NONE', #185, #283, #109 ) ;
#230 = ORIENTED_EDGE ( 'NONE', *, *, #54, .T. ) ;
#231 = EDGE_LOOP ( 'NONE', ( #130, #26, #252, #157 ) ) ;
#232 = EDGE_CURVE ( 'NONE', #124, #199, #216, .T. ) ;
#233 = LINE ( 'NONE', #106, #255 ) ;
#234 = COLOUR_RGB ( '',0.7921568627450980005, 0.8196078431372548767, 0.9333333333333333481 ) ;
#235 = DIRECTION ( 'NONE',  ( -1.224646799147353454E-16, -0.0000000000000000000, -1.000000000000000000 ) ) ;
#236 = SPHERICAL_SURFACE ( 'NONE', #75, 0.005994000000000000196 ) ;
#237 = DIMENSIONAL_EXPONENTS ( 1.000000000000000000, 0.0000000000000000000, 0.0000000000000000000, 0.0000000000000000000, 0.0000000000000000000, 0.0000000000000000000, 0.0000000000000000000 ) ;
#238 =( LENGTH_UNIT ( ) NAMED_UNIT ( * ) SI_UNIT ( $, .METRE. ) );
#239 = DIRECTION ( 'NONE',  ( -0.7071067811865462405, 0.0000000000000000000, -0.7071067811865486830 ) ) ;
#240 = FACE_OUTER_BOUND ( 'NONE', #53, .T. ) ;
#241 = CIRCLE ( 'NONE', #277, 0.04750000000000064587 ) ;
#242 = DIRECTION ( 'NONE',  ( -1.224646799147353454E-16, -0.0000000000000000000, -1.000000000000000000 ) ) ;
#243 = SURFACE_SIDE_STYLE ('',( #146 ) ) ;
#244 = EDGE_CURVE ( 'NONE', #25, #98, #266, .T. ) ;
#245 = SURFACE_SIDE_STYLE ('',( #115 ) ) ;
#246 = CARTESIAN_POINT ( 'NONE',  ( 4.365393743734110901E-17, 0.0000000000000000000, 0.3564614504993167121 ) ) ;
#247 = DIRECTION ( 'NONE',  ( 0.0000000000000000000, 0.0000000000000000000, 1.000000000000000000 ) ) ;
#248 = AXIS2_PLACEMENT_3D ( 'NONE', #212, #313, #85 ) ;
#249 = VERTEX_POINT ( 'NONE', #34 ) ;
#250 = DIRECTION ( 'NONE',  ( -0.0000000000000000000, -0.0000000000000000000, -1.000000000000000000 ) ) ;
#251 = DIRECTION ( 'NONE',  ( 1.000000000000000000, 0.0000000000000000000, 0.0000000000000000000 ) ) ;
#252 = ORIENTED_EDGE ( 'NONE', *, *, #99, .T. ) ;
#253 = ORIENTED_EDGE ( 'NONE', *, *, #232, .F. ) ;
#254 = EDGE_LOOP ( 'NONE', ( #253, #18, #324 ) ) ;
#255 = VECTOR ( 'NONE', #208, 39.37007874015748143 ) ;
#256 = ORIENTED_EDGE ( 'NONE', *, *, #214, .T. ) ;
#257 = AXIS2_PLACEMENT_3D ( 'NONE', #162, #10, #82 ) ;
#258 = ADVANCED_FACE ( 'NONE', ( #312 ), #236, .T. ) ;
#259 = CARTESIAN_POINT ( 'NONE',  ( -0.005993999999999994992, 7.340532914089234300E-19, 0.03599999999999999728 ) ) ;
#260 = CARTESIAN_POINT ( 'NONE',  ( 4.365393743734110901E-17, 0.0000000000000000000, 0.3564614504993167121 ) ) ;
#261 = DIRECTION ( 'NONE',  ( -1.224646799147353454E-16, -0.0000000000000000000, -1.000000000000000000 ) ) ;
#262 = AXIS2_PLACEMENT_3D ( 'NONE', #32, #55, #3 ) ;
#263 = LINE ( 'NONE', #282, #63 ) ;
#264 = DIRECTION ( 'NONE',  ( -0.0000000000000000000, -0.0000000000000000000, -1.000000000000000000 ) ) ;
#265 = EDGE_CURVE ( 'NONE', #227, #153, #310, .T. ) ;
#266 = LINE ( 'NONE', #169, #202 ) ;
#267 = ADVANCED_BREP_SHAPE_REPRESENTATION ( 'Micro_BMR-012-2', ( #128, #5 ), #123 ) ;
#268 = CARTESIAN_POINT ( 'NONE',  ( 0.005994000000000002798, 7.340532914089237189E-19, 0.005993999999999999329 ) ) ;
#269 = ADVANCED_FACE ( 'NONE', ( #84 ), #62, .T. ) ;
#270 = AXIS2_PLACEMENT_3D ( 'NONE', #17, #36, #168 ) ;
#271 = LENGTH_MEASURE_WITH_UNIT ( LENGTH_MEASURE( 0.02539999999999999897 ), #238 );
#272 = DIRECTION ( 'NONE',  ( 0.0000000000000000000, 0.0000000000000000000, -1.000000000000000000 ) ) ;
#273 = DIRECTION ( 'NONE',  ( 0.0000000000000000000, 0.0000000000000000000, 1.000000000000000000 ) ) ;
#274 = PRODUCT_DEFINITION_CONTEXT ( 'detailed design', #59, 'design' ) ;
#275 = VECTOR ( 'NONE', #315, 39.37007874015748143 ) ;
#276 = CARTESIAN_POINT ( 'NONE',  ( 4.408728476930471799E-18, 0.0000000000000000000, 0.03599999999999999728 ) ) ;
#277 = AXIS2_PLACEMENT_3D ( 'NONE', #41, #273, #147 ) ;
#278 = EDGE_LOOP ( 'NONE', ( #179, #72, #96 ) ) ;
#279 = EDGE_CURVE ( 'NONE', #228, #25, #133, .T. ) ;
#280 = COLOUR_RGB ( '',0.7921568627450980005, 0.8196078431372548767, 0.9333333333333333481 ) ;
#281 = DIRECTION ( 'NONE',  ( 1.224646799147353207E-16, 1.000000000000000000, -0.0000000000000000000 ) ) ;
#282 = CARTESIAN_POINT ( 'NONE',  ( 0.06250000000000002776, 7.654042494670959086E-18, 1.500000000000000222 ) ) ;
#283 = DIRECTION ( 'NONE',  ( 0.0000000000000000000, 1.000000000000000000, 0.0000000000000000000 ) ) ;
#284 = CARTESIAN_POINT ( 'NONE',  ( 0.0000000000000000000, 0.0000000000000000000, 1.485000000000000764 ) ) ;
#285 = ADVANCED_FACE ( 'NONE', ( #305 ), #83, .T. ) ;
#286 = CYLINDRICAL_SURFACE ( 'NONE', #125, 0.06250000000000002776 ) ;
#287 = CARTESIAN_POINT ( 'NONE',  ( 0.04750000000000064587, 5.817072295950006528E-18, 1.500000000000000222 ) ) ;
#288 = SPHERICAL_SURFACE ( 'NONE', #229, 0.005994000000000000196 ) ;
#289 = ADVANCED_FACE ( 'NONE', ( #187 ), #288, .T. ) ;
#290 = DIRECTION ( 'NONE',  ( -1.000000000000000000, 0.0000000000000000000, 1.224646799147353207E-16 ) ) ;
#291 = AXIS2_PLACEMENT_3D ( 'NONE', #135, #77, #186 ) ;
#292 = SURFACE_STYLE_USAGE ( .BOTH. , #245 ) ;
#293 = APPLICATION_PROTOCOL_DEFINITION ( 'draft international standard', 'automotive_design', 1998, #105 ) ;
#294 = CARTESIAN_POINT ( 'NONE',  ( 0.0000000000000000000, 0.0000000000000000000, 1.500000000000000222 ) ) ;
#295 = PRESENTATION_STYLE_ASSIGNMENT (( #93 ) ) ;
#296 = LENGTH_MEASURE_WITH_UNIT ( LENGTH_MEASURE( 0.02539999999999999897 ), #172 );
#297 = CIRCLE ( 'NONE', #37, 0.06250000000000002776 ) ;
#298 = AXIS2_PLACEMENT_3D ( 'NONE', #142, #87, #309 ) ;
#299 = ORIENTED_EDGE ( 'NONE', *, *, #265, .T. ) ;
#300 = VECTOR ( 'NONE', #61, 39.37007874015748854 ) ;
#301 = EDGE_LOOP ( 'NONE', ( #52, #104, #180, #2 ) ) ;
#302 = FACE_OUTER_BOUND ( 'NONE', #301, .T. ) ;
#303 = PRESENTATION_LAYER_ASSIGNMENT (  '', '', ( #76 ) ) ;
#304 = LINE ( 'NONE', #259, #49 ) ;
#305 = FACE_OUTER_BOUND ( 'NONE', #121, .T. ) ;
#306 = PRODUCT ( 'Micro_BMR-012-2', 'Micro_BMR-012-2', '', ( #11 ) ) ;
#307 = UNCERTAINTY_MEASURE_WITH_UNIT (LENGTH_MEASURE( 1.000000000000000082E-05 ), #317, 'distance_accuracy_value', 'NONE');
#308 = CARTESIAN_POINT ( 'NONE',  ( -0.06250000000000002776, 0.0000000000000000000, 1.500000000000000222 ) ) ;
#309 = DIRECTION ( 'NONE',  ( -1.000000000000000000, 0.0000000000000000000, 1.780327198073244060E-16 ) ) ;
#310 = LINE ( 'NONE', #78, #122 ) ;
#311 = AXIS2_PLACEMENT_3D ( 'NONE', #210, #145, #30 ) ;
#312 = FACE_OUTER_BOUND ( 'NONE', #254, .T. ) ;
#313 = DIRECTION ( 'NONE',  ( 1.224646799147353454E-16, 0.0000000000000000000, 1.000000000000000000 ) ) ;
#314 = ADVANCED_FACE ( 'NONE', ( #213 ), #209, .T. ) ;
#315 = DIRECTION ( 'NONE',  ( -1.224646799147353454E-16, -0.0000000000000000000, -1.000000000000000000 ) ) ;
#316 = AXIS2_PLACEMENT_3D ( 'NONE', #294, #247, #40 ) ;
#317 =( CONVERSION_BASED_UNIT ( 'INCH', #296 ) LENGTH_UNIT ( ) NAMED_UNIT ( #136 ) );
#318 =( NAMED_UNIT ( * ) SI_UNIT ( $, .STERADIAN. ) SOLID_ANGLE_UNIT ( ) );
#319 = EDGE_CURVE ( 'NONE', #199, #98, #90, .T. ) ;
#320 = FILL_AREA_STYLE ('',( #120 ) ) ;
#321 = LINE ( 'NONE', #43, #275 ) ;
#322 = AXIS2_PLACEMENT_3D ( 'NONE', #196, #272, #39 ) ;
#323 = ADVANCED_FACE ( 'NONE', ( #240 ), #286, .T. ) ;
#324 = ORIENTED_EDGE ( 'NONE', *, *, #319, .F. ) ;
#325 = ORIENTED_EDGE ( 'NONE', *, *, #110, .F. ) ;
ENDSEC;
END-ISO-10303-21;
