ISO-10303-21;
HEADER;
FILE_DESCRIPTION (( 'STEP AP214' ),
    '1' );
FILE_NAME ('Micro_SHRM-200-4X.STEP',
    '2021-09-02T09:25:59',
    ( '' ),
    ( '' ),
    'SwSTEP 2.0',
    'SolidWorks 2020',
    '' );
FILE_SCHEMA (( 'AUTOMOTIVE_DESIGN' ));
ENDSEC;

DATA;
#1 = ORIENTED_EDGE ( 'NONE', *, *, #159, .T. ) ;
#2 = ORIENTED_EDGE ( 'NONE', *, *, #100, .F. ) ;
#3 = AXIS2_PLACEMENT_3D ( 'NONE', #258, #231, #210 ) ;
#4 = LINE ( 'NONE', #186, #95 ) ;
#5 = COLOUR_RGB ( '',0.7921568627450980005, 0.8196078431372548767, 0.9333333333333333481 ) ;
#6 = DIRECTION ( 'NONE',  ( -1.224646799147353207E-16, -0.0000000000000000000, -1.000000000000000000 ) ) ;
#7 = PRODUCT ( 'Micro_SHRM-200-4X', 'Micro_SHRM-200-4X', '', ( #79 ) ) ;
#8 = EDGE_CURVE ( 'NONE', #268, #86, #88, .T. ) ;
#9 = DIRECTION ( 'NONE',  ( -1.224646799147353207E-16, -0.0000000000000000000, -1.000000000000000000 ) ) ;
#10 =( CONVERSION_BASED_UNIT ( 'INCH', #235 ) LENGTH_UNIT ( ) NAMED_UNIT ( #146 ) );
#11 = DIRECTION ( 'NONE',  ( -1.000000000000000000, 0.0000000000000000000, 1.224646799147353207E-16 ) ) ;
#12 = CIRCLE ( 'NONE', #196, 0.3787010000000002319 ) ;
#13 = CYLINDRICAL_SURFACE ( 'NONE', #102, 0.3937009999999999676 ) ;
#14 =( NAMED_UNIT ( * ) PLANE_ANGLE_UNIT ( ) SI_UNIT ( $, .RADIAN. ) );
#15 = EDGE_CURVE ( 'NONE', #201, #37, #121, .T. ) ;
#16 = DIRECTION ( 'NONE',  ( 1.000000000000000000, 0.0000000000000000000, 0.0000000000000000000 ) ) ;
#17 = CARTESIAN_POINT ( 'NONE',  ( -0.3933072989999999991, 0.0000000000000000000, 9.633250496032820680E-17 ) ) ;
#18 = CARTESIAN_POINT ( 'NONE',  ( 2.169650400296604887E-16, 0.0000000000000000000, 1.771654000000000062 ) ) ;
#19 = ORIENTED_EDGE ( 'NONE', *, *, #233, .T. ) ;
#20 = SURFACE_STYLE_FILL_AREA ( #250 ) ;
#21 = EDGE_CURVE ( 'NONE', #277, #86, #160, .T. ) ;
#22 = VECTOR ( 'NONE', #187, 39.37007874015748143 ) ;
#23 = VERTEX_POINT ( 'NONE', #163 ) ;
#24 = ORIENTED_EDGE ( 'NONE', *, *, #63, .T. ) ;
#25 = ORIENTED_EDGE ( 'NONE', *, *, #44, .T. ) ;
#26 = EDGE_CURVE ( 'NONE', #86, #270, #141, .T. ) ;
#27 = CARTESIAN_POINT ( 'NONE',  ( 0.3933072989999999991, 4.816625248016410340E-17, -7.582401355855259480E-33 ) ) ;
#28 = CYLINDRICAL_SURFACE ( 'NONE', #272, 0.3937009999999999676 ) ;
#29 = EDGE_CURVE ( 'NONE', #268, #201, #4, .T. ) ;
#30 = FACE_OUTER_BOUND ( 'NONE', #293, .T. ) ;
#31 = CARTESIAN_POINT ( 'NONE',  ( 0.3937009999999999676, 4.821446694711121291E-17, 4.079488000000000447 ) ) ;
#32 = DIRECTION ( 'NONE',  ( -1.000000000000000000, 0.0000000000000000000, 1.224646799147353207E-16 ) ) ;
#33 = STYLED_ITEM ( 'NONE', ( #198 ), #252 ) ;
#34 = CARTESIAN_POINT ( 'NONE',  ( 0.0000000000000000000, 0.0000000000000000000, 0.0000000000000000000 ) ) ;
#35 = ORIENTED_EDGE ( 'NONE', *, *, #26, .T. ) ;
#36 = DIRECTION ( 'NONE',  ( 0.0000000000000000000, 0.0000000000000000000, -1.000000000000000000 ) ) ;
#37 = VERTEX_POINT ( 'NONE', #27 ) ;
#38 = CARTESIAN_POINT ( 'NONE',  ( -0.3933072989999997215, 4.819035971363765199E-17, 1.771654000000000062 ) ) ;
#39 = AXIS2_PLACEMENT_3D ( 'NONE', #209, #54, #238 ) ;
#40 = ORIENTED_EDGE ( 'NONE', *, *, #127, .T. ) ;
#41 = ORIENTED_EDGE ( 'NONE', *, *, #21, .F. ) ;
#42 = VERTEX_POINT ( 'NONE', #31 ) ;
#43 = PRODUCT_DEFINITION ( 'UNKNOWN', '', #143, #230 ) ;
#44 = EDGE_CURVE ( 'NONE', #114, #173, #12, .T. ) ;
#45 = DIRECTION ( 'NONE',  ( -0.0000000000000000000, -0.0000000000000000000, -1.000000000000000000 ) ) ;
#46 = PRODUCT_DEFINITION_SHAPE ( 'NONE', 'NONE',  #43 ) ;
#47 = EDGE_CURVE ( 'NONE', #173, #42, #94, .T. ) ;
#48 = DIRECTION ( 'NONE',  ( -1.224646799147353207E-16, -0.0000000000000000000, -1.000000000000000000 ) ) ;
#49 = CONICAL_SURFACE ( 'NONE', #153, 0.3787010000000002319, 0.7853981633974506105 ) ;
#50 = DIRECTION ( 'NONE',  ( 1.224646799147353207E-16, 0.0000000000000000000, 1.000000000000000000 ) ) ;
#51 = PRESENTATION_LAYER_ASSIGNMENT (  '', '', ( #33 ) ) ;
#52 = ADVANCED_BREP_SHAPE_REPRESENTATION ( 'Micro_SHRM-200-4X', ( #252, #169 ), #132 ) ;
#53 = CARTESIAN_POINT ( 'NONE',  ( -0.3937009999999998011, 0.0000000000000000000, 1.773886789323665614 ) ) ;
#54 = DIRECTION ( 'NONE',  ( 0.0000000000000000000, 0.0000000000000000000, 1.000000000000000000 ) ) ;
#55 = CIRCLE ( 'NONE', #64, 0.3933072989999999991 ) ;
#56 = DIMENSIONAL_EXPONENTS ( 1.000000000000000000, 0.0000000000000000000, 0.0000000000000000000, 0.0000000000000000000, 0.0000000000000000000, 0.0000000000000000000, 0.0000000000000000000 ) ;
#57 = APPLICATION_CONTEXT ( 'automotive_design' ) ;
#58 = ADVANCED_FACE ( 'NONE', ( #188 ), #49, .T. ) ;
#59 = DIRECTION ( 'NONE',  ( -1.000000000000000000, 0.0000000000000000000, 0.0000000000000000000 ) ) ;
#60 = DIRECTION ( 'NONE',  ( -1.000000000000000000, 0.0000000000000000000, 0.0000000000000000000 ) ) ;
#61 = AXIS2_PLACEMENT_3D ( 'NONE', #18, #103, #291 ) ;
#62 = ORIENTED_EDGE ( 'NONE', *, *, #100, .T. ) ;
#63 = EDGE_CURVE ( 'NONE', #268, #23, #183, .T. ) ;
#64 = AXIS2_PLACEMENT_3D ( 'NONE', #118, #123, #11 ) ;
#65 = FILL_AREA_STYLE ('',( #108 ) ) ;
#66 = ORIENTED_EDGE ( 'NONE', *, *, #47, .T. ) ;
#67 = DIRECTION ( 'NONE',  ( -0.1736481776669311916, 2.126576849575783316E-17, 0.9848077530122080203 ) ) ;
#68 = LENGTH_MEASURE_WITH_UNIT ( LENGTH_MEASURE( 0.02539999999999999897 ), #243 );
#69 = EDGE_LOOP ( 'NONE', ( #275, #134, #19, #115 ) ) ;
#70 = CIRCLE ( 'NONE', #3, 0.3787010000000002319 ) ;
#71 = DIRECTION ( 'NONE',  ( -1.000000000000000000, 0.0000000000000000000, 0.0000000000000000000 ) ) ;
#72 = DIRECTION ( 'NONE',  ( 0.0000000000000000000, 0.0000000000000000000, -1.000000000000000000 ) ) ;
#73 = APPLICATION_CONTEXT ( 'automotive_design' ) ;
#74 = LINE ( 'NONE', #77, #206 ) ;
#75 = VECTOR ( 'NONE', #45, 39.37007874015748143 ) ;
#76 = DIRECTION ( 'NONE',  ( -0.7071067811865491270, 0.0000000000000000000, -0.7071067811865459074 ) ) ;
#77 = CARTESIAN_POINT ( 'NONE',  ( -0.3787010000000002319, 0.0000000000000000000, 4.094488000000000127 ) ) ;
#78 = FACE_OUTER_BOUND ( 'NONE', #82, .T. ) ;
#79 = PRODUCT_CONTEXT ( 'NONE', #57, 'mechanical' ) ;
#80 = ADVANCED_FACE ( 'NONE', ( #158 ), #28, .T. ) ;
#81 = SURFACE_SIDE_STYLE ('',( #20 ) ) ;
#82 = EDGE_LOOP ( 'NONE', ( #199, #129, #1, #179 ) ) ;
#83 = DIRECTION ( 'NONE',  ( 0.1736481776669313859, 0.0000000000000000000, 0.9848077530122077983 ) ) ;
#84 = CIRCLE ( 'NONE', #61, 0.3933072989999999436 ) ;
#85 =( NAMED_UNIT ( * ) PLANE_ANGLE_UNIT ( ) SI_UNIT ( $, .RADIAN. ) );
#86 = VERTEX_POINT ( 'NONE', #53 ) ;
#87 = CIRCLE ( 'NONE', #261, 0.3937009999999999676 ) ;
#88 = LINE ( 'NONE', #276, #98 ) ;
#89 = DIRECTION ( 'NONE',  ( 1.000000000000000000, 0.0000000000000000000, -0.0000000000000000000 ) ) ;
#90 = CONICAL_SURFACE ( 'NONE', #262, 0.3787010000000002319, 0.7853981633974506105 ) ;
#91 = CARTESIAN_POINT ( 'NONE',  ( 2.169650400296604887E-16, 0.0000000000000000000, 1.771654000000000062 ) ) ;
#92 = UNCERTAINTY_MEASURE_WITH_UNIT (LENGTH_MEASURE( 1.000000000000000082E-05 ), #242, 'distance_accuracy_value', 'NONE');
#93 = CARTESIAN_POINT ( 'NONE',  ( -0.3937009999999999676, 0.0000000000000000000, 4.094488000000000127 ) ) ;
#94 = LINE ( 'NONE', #279, #22 ) ;
#95 = VECTOR ( 'NONE', #236, 39.37007874015748143 ) ;
#96 = CARTESIAN_POINT ( 'NONE',  ( 0.0000000000000000000, 0.0000000000000000000, 4.079488000000000447 ) ) ;
#97 = DIRECTION ( 'NONE',  ( 1.224646799147353207E-16, 0.0000000000000000000, 1.000000000000000000 ) ) ;
#98 = VECTOR ( 'NONE', #67, 39.37007874015747433 ) ;
#99 = DIRECTION ( 'NONE',  ( -1.224646799147353207E-16, -0.0000000000000000000, -1.000000000000000000 ) ) ;
#100 = EDGE_CURVE ( 'NONE', #173, #114, #70, .T. ) ;
#101 = CARTESIAN_POINT ( 'NONE',  ( 0.0000000000000000000, 0.0000000000000000000, 4.094488000000000127 ) ) ;
#102 = AXIS2_PLACEMENT_3D ( 'NONE', #292, #288, #60 ) ;
#103 = DIRECTION ( 'NONE',  ( -1.224646799147353207E-16, -0.0000000000000000000, -1.000000000000000000 ) ) ;
#104 = ORIENTED_EDGE ( 'NONE', *, *, #15, .T. ) ;
#105 =( NAMED_UNIT ( * ) SI_UNIT ( $, .STERADIAN. ) SOLID_ANGLE_UNIT ( ) );
#106 = EDGE_CURVE ( 'NONE', #37, #201, #55, .T. ) ;
#107 =( GEOMETRIC_REPRESENTATION_CONTEXT ( 3 ) GLOBAL_UNCERTAINTY_ASSIGNED_CONTEXT ( ( #92 ) ) GLOBAL_UNIT_ASSIGNED_CONTEXT ( ( #242, #14, #105 ) ) REPRESENTATION_CONTEXT ( 'NONE', 'WORKASPACE' ) );
#108 = FILL_AREA_STYLE_COLOUR ( '', #5 ) ;
#109 = EDGE_LOOP ( 'NONE', ( #245, #40, #204, #154 ) ) ;
#110 = SURFACE_STYLE_FILL_AREA ( #65 ) ;
#111 = ORIENTED_EDGE ( 'NONE', *, *, #15, .F. ) ;
#112 = AXIS2_PLACEMENT_3D ( 'NONE', #91, #48, #71 ) ;
#113 = MECHANICAL_DESIGN_GEOMETRIC_PRESENTATION_REPRESENTATION (  '', ( #33 ), #107 ) ;
#114 = VERTEX_POINT ( 'NONE', #135 ) ;
#115 = ORIENTED_EDGE ( 'NONE', *, *, #192, .T. ) ;
#116 = DIRECTION ( 'NONE',  ( -1.000000000000000000, 0.0000000000000000000, 0.0000000000000000000 ) ) ;
#117 = CIRCLE ( 'NONE', #189, 0.3937009999999999676 ) ;
#118 = CARTESIAN_POINT ( 'NONE',  ( 5.898664692675622805E-33, 0.0000000000000000000, 4.816625248016410340E-17 ) ) ;
#119 = PLANE ( 'NONE',  #39 ) ;
#120 = CARTESIAN_POINT ( 'NONE',  ( 0.0000000000000000000, 0.0000000000000000000, 4.094488000000000127 ) ) ;
#121 = CIRCLE ( 'NONE', #278, 0.3933072989999999991 ) ;
#122 = VECTOR ( 'NONE', #294, 39.37007874015748143 ) ;
#123 = DIRECTION ( 'NONE',  ( -1.224646799147353207E-16, -0.0000000000000000000, -1.000000000000000000 ) ) ;
#124 = MECHANICAL_DESIGN_GEOMETRIC_PRESENTATION_REPRESENTATION (  '', ( #184 ), #207 ) ;
#125 = FACE_OUTER_BOUND ( 'NONE', #69, .T. ) ;
#126 = ORIENTED_EDGE ( 'NONE', *, *, #133, .T. ) ;
#127 = EDGE_CURVE ( 'NONE', #42, #277, #214, .T. ) ;
#128 = CARTESIAN_POINT ( 'NONE',  ( -0.3937009999999999676, 0.0000000000000000000, 4.079488000000000447 ) ) ;
#129 = ORIENTED_EDGE ( 'NONE', *, *, #44, .F. ) ;
#130 = EDGE_LOOP ( 'NONE', ( #104, #248 ) ) ;
#131 = ORIENTED_EDGE ( 'NONE', *, *, #29, .T. ) ;
#132 =( GEOMETRIC_REPRESENTATION_CONTEXT ( 3 ) GLOBAL_UNCERTAINTY_ASSIGNED_CONTEXT ( ( #178 ) ) GLOBAL_UNIT_ASSIGNED_CONTEXT ( ( #297, #85, #221 ) ) REPRESENTATION_CONTEXT ( 'NONE', 'WORKASPACE' ) );
#133 = EDGE_CURVE ( 'NONE', #23, #37, #139, .T. ) ;
#134 = ORIENTED_EDGE ( 'NONE', *, *, #229, .F. ) ;
#135 = CARTESIAN_POINT ( 'NONE',  ( -0.3787010000000002319, 0.0000000000000000000, 4.094488000000000127 ) ) ;
#136 = DIRECTION ( 'NONE',  ( -0.0000000000000000000, -0.0000000000000000000, -1.000000000000000000 ) ) ;
#137 = DIRECTION ( 'NONE',  ( 1.000000000000000000, 0.0000000000000000000, 0.0000000000000000000 ) ) ;
#138 = ADVANCED_FACE ( 'NONE', ( #211 ), #283, .F. ) ;
#139 = LINE ( 'NONE', #228, #220 ) ;
#140 = CARTESIAN_POINT ( 'NONE',  ( 2.169650400296604887E-16, 0.0000000000000000000, 1.771654000000000062 ) ) ;
#141 = CIRCLE ( 'NONE', #246, 0.3937009999999999676 ) ;
#142 = FACE_OUTER_BOUND ( 'NONE', #176, .T. ) ;
#143 = PRODUCT_DEFINITION_FORMATION_WITH_SPECIFIED_SOURCE ( 'ANY', '', #7, .NOT_KNOWN. ) ;
#144 = APPLICATION_PROTOCOL_DEFINITION ( 'draft international standard', 'automotive_design', 1998, #73 ) ;
#145 =( LENGTH_UNIT ( ) NAMED_UNIT ( * ) SI_UNIT ( $, .METRE. ) );
#146 = DIMENSIONAL_EXPONENTS ( 1.000000000000000000, 0.0000000000000000000, 0.0000000000000000000, 0.0000000000000000000, 0.0000000000000000000, 0.0000000000000000000, 0.0000000000000000000 ) ;
#147 = CARTESIAN_POINT ( 'NONE',  ( 0.0000000000000000000, 0.0000000000000000000, 4.079488000000000447 ) ) ;
#148 = EDGE_LOOP ( 'NONE', ( #254, #255, #35, #181 ) ) ;
#149 = DIRECTION ( 'NONE',  ( 1.000000000000000000, 0.0000000000000000000, 0.0000000000000000000 ) ) ;
#150 = AXIS2_PLACEMENT_3D ( 'NONE', #96, #191, #284 ) ;
#151 = APPLICATION_PROTOCOL_DEFINITION ( 'draft international standard', 'automotive_design', 1998, #57 ) ;
#152 = CLOSED_SHELL ( 'NONE', ( #257, #172, #58, #223, #80, #174, #280, #219, #290, #138 ) ) ;
#153 = AXIS2_PLACEMENT_3D ( 'NONE', #120, #72, #259 ) ;
#154 = ORIENTED_EDGE ( 'NONE', *, *, #192, .F. ) ;
#155 = CARTESIAN_POINT ( 'NONE',  ( 5.898664692675622805E-33, 0.0000000000000000000, 4.816625248016410340E-17 ) ) ;
#156 = ORIENTED_EDGE ( 'NONE', *, *, #26, .F. ) ;
#157 = COLOUR_RGB ( '',0.7921568627450980005, 0.8196078431372548767, 0.9333333333333333481 ) ;
#158 = FACE_OUTER_BOUND ( 'NONE', #109, .T. ) ;
#159 = EDGE_CURVE ( 'NONE', #114, #277, #74, .T. ) ;
#160 = LINE ( 'NONE', #93, #75 ) ;
#161 = FACE_OUTER_BOUND ( 'NONE', #148, .T. ) ;
#162 = PRESENTATION_LAYER_ASSIGNMENT (  '', '', ( #184 ) ) ;
#163 = CARTESIAN_POINT ( 'NONE',  ( 0.3933072990000001656, 0.0000000000000000000, 1.771654000000000062 ) ) ;
#164 = DIMENSIONAL_EXPONENTS ( 1.000000000000000000, 0.0000000000000000000, 0.0000000000000000000, 0.0000000000000000000, 0.0000000000000000000, 0.0000000000000000000, 0.0000000000000000000 ) ;
#165 = DIRECTION ( 'NONE',  ( 0.0000000000000000000, 0.0000000000000000000, 1.000000000000000000 ) ) ;
#166 = CARTESIAN_POINT ( 'NONE',  ( 0.3937010000000001897, 4.821446694711123140E-17, 1.773886789323665614 ) ) ;
#167 =( NAMED_UNIT ( * ) PLANE_ANGLE_UNIT ( ) SI_UNIT ( $, .RADIAN. ) );
#168 = CONICAL_SURFACE ( 'NONE', #295, 0.3933072989999999436, 0.1745329251994338915 ) ;
#169 = AXIS2_PLACEMENT_3D ( 'NONE', #194, #287, #16 ) ;
#170 = DIRECTION ( 'NONE',  ( 1.000000000000000000, 0.0000000000000000000, 0.0000000000000000000 ) ) ;
#171 = DIRECTION ( 'NONE',  ( -1.224646799147353207E-16, -0.0000000000000000000, -1.000000000000000000 ) ) ;
#172 = ADVANCED_FACE ( 'NONE', ( #161 ), #168, .T. ) ;
#173 = VERTEX_POINT ( 'NONE', #264 ) ;
#174 = ADVANCED_FACE ( 'NONE', ( #30 ), #119, .T. ) ;
#175 = FACE_OUTER_BOUND ( 'NONE', #216, .T. ) ;
#176 = EDGE_LOOP ( 'NONE', ( #253, #203, #131, #299 ) ) ;
#177 = CYLINDRICAL_SURFACE ( 'NONE', #185, 0.3933072989999999436 ) ;
#178 = UNCERTAINTY_MEASURE_WITH_UNIT (LENGTH_MEASURE( 1.000000000000000082E-05 ), #297, 'distance_accuracy_value', 'NONE');
#179 = ORIENTED_EDGE ( 'NONE', *, *, #127, .F. ) ;
#180 = EDGE_LOOP ( 'NONE', ( #24, #126, #111, #298 ) ) ;
#181 = ORIENTED_EDGE ( 'NONE', *, *, #233, .F. ) ;
#182 = DIRECTION ( 'NONE',  ( 1.000000000000000000, 0.0000000000000000000, 0.0000000000000000000 ) ) ;
#183 = CIRCLE ( 'NONE', #112, 0.3933072989999999436 ) ;
#184 = STYLED_ITEM ( 'NONE', ( #249 ), #52 ) ;
#185 = AXIS2_PLACEMENT_3D ( 'NONE', #215, #286, #213 ) ;
#186 = CARTESIAN_POINT ( 'NONE',  ( -0.3933072989999999436, 0.0000000000000000000, 4.816625248016409724E-17 ) ) ;
#187 = DIRECTION ( 'NONE',  ( 0.7071067811865491270, 8.659560562354952580E-17, -0.7071067811865459074 ) ) ;
#188 = FACE_OUTER_BOUND ( 'NONE', #227, .T. ) ;
#189 = AXIS2_PLACEMENT_3D ( 'NONE', #267, #171, #218 ) ;
#190 =( NAMED_UNIT ( * ) SI_UNIT ( $, .STERADIAN. ) SOLID_ANGLE_UNIT ( ) );
#191 = DIRECTION ( 'NONE',  ( 0.0000000000000000000, 0.0000000000000000000, -1.000000000000000000 ) ) ;
#192 = EDGE_CURVE ( 'NONE', #270, #86, #117, .T. ) ;
#193 = LENGTH_MEASURE_WITH_UNIT ( LENGTH_MEASURE( 0.02539999999999999897 ), #145 );
#194 = CARTESIAN_POINT ( 'NONE',  ( 0.0000000000000000000, 0.0000000000000000000, 0.0000000000000000000 ) ) ;
#195 = CARTESIAN_POINT ( 'NONE',  ( 2.169650400296604887E-16, 0.0000000000000000000, 1.771654000000000062 ) ) ;
#196 = AXIS2_PLACEMENT_3D ( 'NONE', #263, #165, #234 ) ;
#197 = DIRECTION ( 'NONE',  ( -1.000000000000000000, 0.0000000000000000000, 1.224646799147353454E-16 ) ) ;
#198 = PRESENTATION_STYLE_ASSIGNMENT (( #212 ) ) ;
#199 = ORIENTED_EDGE ( 'NONE', *, *, #47, .F. ) ;
#200 = FACE_OUTER_BOUND ( 'NONE', #180, .T. ) ;
#201 = VERTEX_POINT ( 'NONE', #17 ) ;
#202 = ORIENTED_EDGE ( 'NONE', *, *, #226, .F. ) ;
#203 = ORIENTED_EDGE ( 'NONE', *, *, #229, .T. ) ;
#204 = ORIENTED_EDGE ( 'NONE', *, *, #21, .T. ) ;
#205 = CARTESIAN_POINT ( 'NONE',  ( 2.172384778595002181E-16, 0.0000000000000000000, 1.773886789323665614 ) ) ;
#206 = VECTOR ( 'NONE', #76, 39.37007874015748143 ) ;
#207 =( GEOMETRIC_REPRESENTATION_CONTEXT ( 3 ) GLOBAL_UNCERTAINTY_ASSIGNED_CONTEXT ( ( #251 ) ) GLOBAL_UNIT_ASSIGNED_CONTEXT ( ( #10, #167, #190 ) ) REPRESENTATION_CONTEXT ( 'NONE', 'WORKASPACE' ) );
#208 = CARTESIAN_POINT ( 'NONE',  ( 0.0000000000000000000, 0.0000000000000000000, 0.0000000000000000000 ) ) ;
#209 = CARTESIAN_POINT ( 'NONE',  ( 0.0000000000000000000, 0.0000000000000000000, 4.094488000000000127 ) ) ;
#210 = DIRECTION ( 'NONE',  ( 1.000000000000000000, 0.0000000000000000000, 0.0000000000000000000 ) ) ;
#211 = FACE_OUTER_BOUND ( 'NONE', #130, .T. ) ;
#212 = SURFACE_STYLE_USAGE ( .BOTH. , #81 ) ;
#213 = DIRECTION ( 'NONE',  ( -1.000000000000000000, 0.0000000000000000000, 1.224646799147353454E-16 ) ) ;
#214 = CIRCLE ( 'NONE', #150, 0.3937009999999999676 ) ;
#215 = CARTESIAN_POINT ( 'NONE',  ( 0.0000000000000000000, 0.0000000000000000000, 0.0000000000000000000 ) ) ;
#216 = EDGE_LOOP ( 'NONE', ( #225, #222, #156, #41 ) ) ;
#217 = SURFACE_STYLE_USAGE ( .BOTH. , #273 ) ;
#218 = DIRECTION ( 'NONE',  ( 1.000000000000000000, 0.0000000000000000000, 0.0000000000000000000 ) ) ;
#219 = ADVANCED_FACE ( 'NONE', ( #125 ), #289, .T. ) ;
#220 = VECTOR ( 'NONE', #6, 39.37007874015748143 ) ;
#221 =( NAMED_UNIT ( * ) SI_UNIT ( $, .STERADIAN. ) SOLID_ANGLE_UNIT ( ) );
#222 = ORIENTED_EDGE ( 'NONE', *, *, #237, .T. ) ;
#223 = ADVANCED_FACE ( 'NONE', ( #175 ), #13, .T. ) ;
#224 = ORIENTED_EDGE ( 'NONE', *, *, #159, .F. ) ;
#225 = ORIENTED_EDGE ( 'NONE', *, *, #226, .T. ) ;
#226 = EDGE_CURVE ( 'NONE', #277, #42, #87, .T. ) ;
#227 = EDGE_LOOP ( 'NONE', ( #2, #66, #202, #224 ) ) ;
#228 = CARTESIAN_POINT ( 'NONE',  ( 0.3933072989999999436, 4.816625248016409724E-17, -4.816625248016409724E-17 ) ) ;
#229 = EDGE_CURVE ( 'NONE', #23, #268, #84, .T. ) ;
#230 = PRODUCT_DEFINITION_CONTEXT ( 'detailed design', #73, 'design' ) ;
#231 = DIRECTION ( 'NONE',  ( 0.0000000000000000000, 0.0000000000000000000, 1.000000000000000000 ) ) ;
#232 = AXIS2_PLACEMENT_3D ( 'NONE', #195, #97, #170 ) ;
#233 = EDGE_CURVE ( 'NONE', #23, #270, #247, .T. ) ;
#234 = DIRECTION ( 'NONE',  ( 1.000000000000000000, 0.0000000000000000000, 0.0000000000000000000 ) ) ;
#235 = LENGTH_MEASURE_WITH_UNIT ( LENGTH_MEASURE( 0.02539999999999999897 ), #285 );
#236 = DIRECTION ( 'NONE',  ( -1.224646799147353207E-16, -0.0000000000000000000, -1.000000000000000000 ) ) ;
#237 = EDGE_CURVE ( 'NONE', #42, #270, #271, .T. ) ;
#238 = DIRECTION ( 'NONE',  ( 1.000000000000000000, 0.0000000000000000000, -0.0000000000000000000 ) ) ;
#239 = AXIS2_PLACEMENT_3D ( 'NONE', #208, #282, #89 ) ;
#240 = CYLINDRICAL_SURFACE ( 'NONE', #274, 0.3933072989999999436 ) ;
#241 = SHAPE_DEFINITION_REPRESENTATION ( #46, #52 ) ;
#242 =( CONVERSION_BASED_UNIT ( 'INCH', #193 ) LENGTH_UNIT ( ) NAMED_UNIT ( #164 ) );
#243 =( LENGTH_UNIT ( ) NAMED_UNIT ( * ) SI_UNIT ( $, .METRE. ) );
#244 = FILL_AREA_STYLE_COLOUR ( '', #157 ) ;
#245 = ORIENTED_EDGE ( 'NONE', *, *, #237, .F. ) ;
#246 = AXIS2_PLACEMENT_3D ( 'NONE', #205, #281, #182 ) ;
#247 = LINE ( 'NONE', #266, #256 ) ;
#248 = ORIENTED_EDGE ( 'NONE', *, *, #106, .T. ) ;
#249 = PRESENTATION_STYLE_ASSIGNMENT (( #217 ) ) ;
#250 = FILL_AREA_STYLE ('',( #244 ) ) ;
#251 = UNCERTAINTY_MEASURE_WITH_UNIT (LENGTH_MEASURE( 1.000000000000000082E-05 ), #10, 'distance_accuracy_value', 'NONE');
#252 = MANIFOLD_SOLID_BREP ( 'Cut-Revolve1', #152 ) ;
#253 = ORIENTED_EDGE ( 'NONE', *, *, #133, .F. ) ;
#254 = ORIENTED_EDGE ( 'NONE', *, *, #63, .F. ) ;
#255 = ORIENTED_EDGE ( 'NONE', *, *, #8, .T. ) ;
#256 = VECTOR ( 'NONE', #83, 39.37007874015748143 ) ;
#257 = ADVANCED_FACE ( 'NONE', ( #200 ), #177, .T. ) ;
#258 = CARTESIAN_POINT ( 'NONE',  ( 0.0000000000000000000, 0.0000000000000000000, 4.094488000000000127 ) ) ;
#259 = DIRECTION ( 'NONE',  ( -1.000000000000000000, 0.0000000000000000000, 0.0000000000000000000 ) ) ;
#260 = CARTESIAN_POINT ( 'NONE',  ( 0.0000000000000000000, 0.0000000000000000000, 4.094488000000000127 ) ) ;
#261 = AXIS2_PLACEMENT_3D ( 'NONE', #147, #36, #149 ) ;
#262 = AXIS2_PLACEMENT_3D ( 'NONE', #101, #269, #59 ) ;
#263 = CARTESIAN_POINT ( 'NONE',  ( 0.0000000000000000000, 0.0000000000000000000, 4.094488000000000127 ) ) ;
#264 = CARTESIAN_POINT ( 'NONE',  ( 0.3787010000000002319, 4.729598184775070620E-17, 4.094488000000000127 ) ) ;
#265 = CARTESIAN_POINT ( 'NONE',  ( 0.3937009999999999676, 4.821446694711121291E-17, 4.094488000000000127 ) ) ;
#266 = CARTESIAN_POINT ( 'NONE',  ( 0.3933072990000001656, 0.0000000000000000000, 1.771654000000000062 ) ) ;
#267 = CARTESIAN_POINT ( 'NONE',  ( 2.172384778595002181E-16, 0.0000000000000000000, 1.773886789323665614 ) ) ;
#268 = VERTEX_POINT ( 'NONE', #38 ) ;
#269 = DIRECTION ( 'NONE',  ( 0.0000000000000000000, 0.0000000000000000000, -1.000000000000000000 ) ) ;
#270 = VERTEX_POINT ( 'NONE', #166 ) ;
#271 = LINE ( 'NONE', #265, #122 ) ;
#272 = AXIS2_PLACEMENT_3D ( 'NONE', #260, #136, #116 ) ;
#273 = SURFACE_SIDE_STYLE ('',( #110 ) ) ;
#274 = AXIS2_PLACEMENT_3D ( 'NONE', #34, #99, #197 ) ;
#275 = ORIENTED_EDGE ( 'NONE', *, *, #8, .F. ) ;
#276 = CARTESIAN_POINT ( 'NONE',  ( -0.3933072989999997215, 4.816625248016409724E-17, 1.771654000000000062 ) ) ;
#277 = VERTEX_POINT ( 'NONE', #128 ) ;
#278 = AXIS2_PLACEMENT_3D ( 'NONE', #155, #9, #32 ) ;
#279 = CARTESIAN_POINT ( 'NONE',  ( 0.3787010000000002319, 4.637749674839021182E-17, 4.094488000000000127 ) ) ;
#280 = ADVANCED_FACE ( 'NONE', ( #78 ), #90, .T. ) ;
#281 = DIRECTION ( 'NONE',  ( -1.224646799147353207E-16, -0.0000000000000000000, -1.000000000000000000 ) ) ;
#282 = DIRECTION ( 'NONE',  ( 0.0000000000000000000, 0.0000000000000000000, 1.000000000000000000 ) ) ;
#283 = PLANE ( 'NONE',  #239 ) ;
#284 = DIRECTION ( 'NONE',  ( 1.000000000000000000, 0.0000000000000000000, 0.0000000000000000000 ) ) ;
#285 =( LENGTH_UNIT ( ) NAMED_UNIT ( * ) SI_UNIT ( $, .METRE. ) );
#286 = DIRECTION ( 'NONE',  ( -1.224646799147353207E-16, -0.0000000000000000000, -1.000000000000000000 ) ) ;
#287 = DIRECTION ( 'NONE',  ( 0.0000000000000000000, 0.0000000000000000000, 1.000000000000000000 ) ) ;
#288 = DIRECTION ( 'NONE',  ( -0.0000000000000000000, -0.0000000000000000000, -1.000000000000000000 ) ) ;
#289 = CONICAL_SURFACE ( 'NONE', #232, 0.3933072989999999436, 0.1745329251994338915 ) ;
#290 = ADVANCED_FACE ( 'NONE', ( #142 ), #240, .T. ) ;
#291 = DIRECTION ( 'NONE',  ( -1.000000000000000000, 0.0000000000000000000, 0.0000000000000000000 ) ) ;
#292 = CARTESIAN_POINT ( 'NONE',  ( 0.0000000000000000000, 0.0000000000000000000, 4.094488000000000127 ) ) ;
#293 = EDGE_LOOP ( 'NONE', ( #25, #62 ) ) ;
#294 = DIRECTION ( 'NONE',  ( -0.0000000000000000000, -0.0000000000000000000, -1.000000000000000000 ) ) ;
#295 = AXIS2_PLACEMENT_3D ( 'NONE', #140, #50, #137 ) ;
#296 = PRODUCT_RELATED_PRODUCT_CATEGORY ( 'part', '', ( #7 ) ) ;
#297 =( CONVERSION_BASED_UNIT ( 'INCH', #68 ) LENGTH_UNIT ( ) NAMED_UNIT ( #56 ) );
#298 = ORIENTED_EDGE ( 'NONE', *, *, #29, .F. ) ;
#299 = ORIENTED_EDGE ( 'NONE', *, *, #106, .F. ) ;
ENDSEC;
END-ISO-10303-21;
