ISO-10303-21;
HEADER;
FILE_DESCRIPTION (( 'STEP AP214' ),
    '1' );
FILE_NAME ('Micro_GEC-001-2-030.STEP',
    '2021-09-03T17:00:19',
    ( '' ),
    ( '' ),
    'SwSTEP 2.0',
    'SolidWorks 2020',
    '' );
FILE_SCHEMA (( 'AUTOMOTIVE_DESIGN' ));
ENDSEC;

DATA;
#1 = CARTESIAN_POINT ( 'NONE',  ( 0.0000000000000000000, 0.0000000000000000000, 4.000000000000000000 ) ) ;
#2 =( NAMED_UNIT ( * ) SI_UNIT ( $, .STERADIAN. ) SOLID_ANGLE_UNIT ( ) );
#3 = CARTESIAN_POINT ( 'NONE',  ( 0.0000000000000000000, 0.0000000000000000000, 4.000000000000000000 ) ) ;
#4 = CIRCLE ( 'NONE', #287, 0.5000000000000000000 ) ;
#5 = CARTESIAN_POINT ( 'NONE',  ( -0.5000000000000000000, 0.0000000000000000000, 3.985000000000000764 ) ) ;
#6 =( GEOMETRIC_REPRESENTATION_CONTEXT ( 3 ) GLOBAL_UNCERTAINTY_ASSIGNED_CONTEXT ( ( #94 ) ) GLOBAL_UNIT_ASSIGNED_CONTEXT ( ( #64, #146, #214 ) ) REPRESENTATION_CONTEXT ( 'NONE', 'WORKASPACE' ) );
#7 = DIRECTION ( 'NONE',  ( -1.224646799147353207E-16, -0.0000000000000000000, -1.000000000000000000 ) ) ;
#8 = EDGE_CURVE ( 'NONE', #150, #118, #12, .T. ) ;
#9 = CARTESIAN_POINT ( 'NONE',  ( 0.0000000000000000000, 0.0000000000000000000, 0.0000000000000000000 ) ) ;
#10 = DIRECTION ( 'NONE',  ( -1.224646799147353207E-16, -0.0000000000000000000, -1.000000000000000000 ) ) ;
#11 = AXIS2_PLACEMENT_3D ( 'NONE', #1, #220, #329 ) ;
#12 = CIRCLE ( 'NONE', #307, 0.4994999999999999440 ) ;
#13 = VERTEX_POINT ( 'NONE', #97 ) ;
#14 = PRODUCT_DEFINITION_CONTEXT ( 'detailed design', #21, 'design' ) ;
#15 = ORIENTED_EDGE ( 'NONE', *, *, #120, .F. ) ;
#16 = EDGE_CURVE ( 'NONE', #281, #150, #283, .T. ) ;
#17 = VERTEX_POINT ( 'NONE', #75 ) ;
#18 = ORIENTED_EDGE ( 'NONE', *, *, #289, .F. ) ;
#19 = DIRECTION ( 'NONE',  ( -0.0000000000000000000, -0.0000000000000000000, -1.000000000000000000 ) ) ;
#20 = AXIS2_PLACEMENT_3D ( 'NONE', #189, #273, #103 ) ;
#21 = APPLICATION_CONTEXT ( 'automotive_design' ) ;
#22 = ORIENTED_EDGE ( 'NONE', *, *, #114, .F. ) ;
#23 = CARTESIAN_POINT ( 'NONE',  ( -0.4994999999999999440, 0.0000000000000000000, 6.117110761741028667E-17 ) ) ;
#24 = EDGE_CURVE ( 'NONE', #282, #118, #343, .T. ) ;
#25 = DIRECTION ( 'NONE',  ( -1.224646799147353207E-16, -0.0000000000000000000, -1.000000000000000000 ) ) ;
#26 = LINE ( 'NONE', #28, #211 ) ;
#27 = STYLED_ITEM ( 'NONE', ( #160 ), #152 ) ;
#28 = CARTESIAN_POINT ( 'NONE',  ( 0.4850000000000009859, 5.939536975864675788E-17, 4.000000000000000000 ) ) ;
#29 = DIRECTION ( 'NONE',  ( 1.000000000000000000, 0.0000000000000000000, 0.0000000000000000000 ) ) ;
#30 = CARTESIAN_POINT ( 'NONE',  ( 0.0000000000000000000, 0.0000000000000000000, 4.000000000000000000 ) ) ;
#31 = CYLINDRICAL_SURFACE ( 'NONE', #200, 0.5000000000000000000 ) ;
#32 = AXIS2_PLACEMENT_3D ( 'NONE', #251, #10, #59 ) ;
#33 = SURFACE_SIDE_STYLE ('',( #57 ) ) ;
#34 = FACE_OUTER_BOUND ( 'NONE', #258, .T. ) ;
#35 = LINE ( 'NONE', #163, #322 ) ;
#36 = ORIENTED_EDGE ( 'NONE', *, *, #71, .F. ) ;
#37 = EDGE_CURVE ( 'NONE', #281, #17, #69, .T. ) ;
#38 = FACE_OUTER_BOUND ( 'NONE', #121, .T. ) ;
#39 = CIRCLE ( 'NONE', #50, 0.4994999999999998885 ) ;
#40 = ORIENTED_EDGE ( 'NONE', *, *, #227, .T. ) ;
#41 = EDGE_LOOP ( 'NONE', ( #311, #286, #180, #36 ) ) ;
#42 = UNCERTAINTY_MEASURE_WITH_UNIT (LENGTH_MEASURE( 1.000000000000000082E-05 ), #243, 'distance_accuracy_value', 'NONE');
#43 = EDGE_CURVE ( 'NONE', #17, #118, #253, .T. ) ;
#44 = EDGE_LOOP ( 'NONE', ( #203, #22, #252, #236 ) ) ;
#45 = AXIS2_PLACEMENT_3D ( 'NONE', #269, #327, #111 ) ;
#46 = DIRECTION ( 'NONE',  ( 0.0000000000000000000, 0.0000000000000000000, 1.000000000000000000 ) ) ;
#47 = VERTEX_POINT ( 'NONE', #267 ) ;
#48 = DIRECTION ( 'NONE',  ( 1.000000000000000000, 0.0000000000000000000, 0.0000000000000000000 ) ) ;
#49 = ORIENTED_EDGE ( 'NONE', *, *, #71, .T. ) ;
#50 = AXIS2_PLACEMENT_3D ( 'NONE', #61, #110, #222 ) ;
#51 = ORIENTED_EDGE ( 'NONE', *, *, #24, .F. ) ;
#52 = SURFACE_STYLE_USAGE ( .BOTH. , #33 ) ;
#53 = DIRECTION ( 'NONE',  ( 1.000000000000000000, 0.0000000000000000000, 0.0000000000000000000 ) ) ;
#54 = ADVANCED_FACE ( 'NONE', ( #348 ), #344, .T. ) ;
#55 = DIRECTION ( 'NONE',  ( 0.1736481776669314137, 0.0000000000000000000, 0.9848077530122077983 ) ) ;
#56 = AXIS2_PLACEMENT_3D ( 'NONE', #124, #158, #266 ) ;
#57 = SURFACE_STYLE_FILL_AREA ( #297 ) ;
#58 = LINE ( 'NONE', #135, #268 ) ;
#59 = DIRECTION ( 'NONE',  ( -1.000000000000000000, 0.0000000000000000000, 1.224646799147353207E-16 ) ) ;
#60 = MANIFOLD_SOLID_BREP ( 'Fillet1', #84 ) ;
#61 = CARTESIAN_POINT ( 'NONE',  ( 1.836970198721030181E-16, 0.0000000000000000000, 1.500000000000000222 ) ) ;
#62 = CARTESIAN_POINT ( 'NONE',  ( -0.4994999999999996665, 6.120172378738897351E-17, 1.500000000000000222 ) ) ;
#63 = CYLINDRICAL_SURFACE ( 'NONE', #293, 0.4994999999999999440 ) ;
#64 =( CONVERSION_BASED_UNIT ( 'INCH', #104 ) LENGTH_UNIT ( ) NAMED_UNIT ( #191 ) );
#65 = PLANE ( 'NONE',  #277 ) ;
#66 = CIRCLE ( 'NONE', #336, 0.4994999999999998885 ) ;
#67 = ORIENTED_EDGE ( 'NONE', *, *, #16, .F. ) ;
#68 = EDGE_LOOP ( 'NONE', ( #225, #291, #98, #126 ) ) ;
#69 = CIRCLE ( 'NONE', #149, 0.4694999999999999174 ) ;
#70 = VERTEX_POINT ( 'NONE', #219 ) ;
#71 = EDGE_CURVE ( 'NONE', #13, #47, #4, .T. ) ;
#72 = ORIENTED_EDGE ( 'NONE', *, *, #202, .T. ) ;
#73 = CARTESIAN_POINT ( 'NONE',  ( 0.0000000000000000000, 0.0000000000000000000, 0.0000000000000000000 ) ) ;
#74 = CIRCLE ( 'NONE', #218, 0.5000000000000000000 ) ;
#75 = CARTESIAN_POINT ( 'NONE',  ( -0.4694999999999999174, 5.933413741868926093E-17, 0.0000000000000000000 ) ) ;
#76 = PRESENTATION_STYLE_ASSIGNMENT (( #235 ) ) ;
#77 = EDGE_CURVE ( 'NONE', #70, #201, #239, .T. ) ;
#78 = DIRECTION ( 'NONE',  ( 1.000000000000000000, 0.0000000000000000000, 0.0000000000000000000 ) ) ;
#79 = AXIS2_PLACEMENT_3D ( 'NONE', #138, #141, #136 ) ;
#80 = SURFACE_SIDE_STYLE ('',( #315 ) ) ;
#81 = DIRECTION ( 'NONE',  ( 0.0000000000000000000, 0.0000000000000000000, 1.000000000000000000 ) ) ;
#82 =( NAMED_UNIT ( * ) PLANE_ANGLE_UNIT ( ) SI_UNIT ( $, .RADIAN. ) );
#83 = LINE ( 'NONE', #87, #145 ) ;
#84 = CLOSED_SHELL ( 'NONE', ( #143, #174, #205, #184, #151, #295, #186, #170, #54, #154, #319, #177 ) ) ;
#85 = DIRECTION ( 'NONE',  ( 0.0000000000000000000, 0.0000000000000000000, 1.000000000000000000 ) ) ;
#86 = CARTESIAN_POINT ( 'NONE',  ( 1.836970198721030181E-16, 0.0000000000000000000, 1.500000000000000222 ) ) ;
#87 = CARTESIAN_POINT ( 'NONE',  ( -0.4994999999999996665, 6.117110761741027434E-17, 1.500000000000000222 ) ) ;
#88 = DIRECTION ( 'NONE',  ( 0.7071067811865443531, 8.659560562354894648E-17, -0.7071067811865507924 ) ) ;
#89 = DIRECTION ( 'NONE',  ( -0.7071067811865443531, 0.0000000000000000000, -0.7071067811865507924 ) ) ;
#90 = AXIS2_PLACEMENT_3D ( 'NONE', #3, #304, #190 ) ;
#91 = ORIENTED_EDGE ( 'NONE', *, *, #43, .T. ) ;
#92 = ORIENTED_EDGE ( 'NONE', *, *, #8, .F. ) ;
#93 = CONICAL_SURFACE ( 'NONE', #79, 0.4850000000000009859, 0.7853981633974437271 ) ;
#94 = UNCERTAINTY_MEASURE_WITH_UNIT (LENGTH_MEASURE( 1.000000000000000082E-05 ), #64, 'distance_accuracy_value', 'NONE');
#95 = ORIENTED_EDGE ( 'NONE', *, *, #234, .F. ) ;
#96 = PRODUCT_CONTEXT ( 'NONE', #147, 'mechanical' ) ;
#97 = CARTESIAN_POINT ( 'NONE',  ( 0.5000000000000002220, 6.123233995736768501E-17, 1.502835640909809589 ) ) ;
#98 = ORIENTED_EDGE ( 'NONE', *, *, #16, .T. ) ;
#99 = DIRECTION ( 'NONE',  ( -1.224646799147353207E-16, -0.0000000000000000000, -1.000000000000000000 ) ) ;
#100 = CARTESIAN_POINT ( 'NONE',  ( 1.836970198721030181E-16, 0.0000000000000000000, 1.500000000000000222 ) ) ;
#101 = AXIS2_PLACEMENT_3D ( 'NONE', #242, #81, #244 ) ;
#102 = EDGE_CURVE ( 'NONE', #201, #70, #74, .T. ) ;
#103 = DIRECTION ( 'NONE',  ( 1.000000000000000000, 0.0000000000000000000, 0.0000000000000000000 ) ) ;
#104 = LENGTH_MEASURE_WITH_UNIT ( LENGTH_MEASURE( 0.02539999999999999897 ), #221 );
#105 = CARTESIAN_POINT ( 'NONE',  ( 0.0000000000000000000, 0.0000000000000000000, 4.000000000000000000 ) ) ;
#106 = DIRECTION ( 'NONE',  ( 1.224646799147353207E-16, 0.0000000000000000000, 1.000000000000000000 ) ) ;
#107 = CARTESIAN_POINT ( 'NONE',  ( 0.0000000000000000000, 0.0000000000000000000, 4.000000000000000000 ) ) ;
#108 = CIRCLE ( 'NONE', #115, 0.4850000000000009859 ) ;
#109 =( LENGTH_UNIT ( ) NAMED_UNIT ( * ) SI_UNIT ( $, .METRE. ) );
#110 = DIRECTION ( 'NONE',  ( -1.224646799147353207E-16, -0.0000000000000000000, -1.000000000000000000 ) ) ;
#111 = DIRECTION ( 'NONE',  ( 1.000000000000000000, 0.0000000000000000000, -0.0000000000000000000 ) ) ;
#112 = DIRECTION ( 'NONE',  ( -0.1736481776669312194, 2.126576849575783625E-17, 0.9848077530122080203 ) ) ;
#113 = FACE_OUTER_BOUND ( 'NONE', #44, .T. ) ;
#114 = EDGE_CURVE ( 'NONE', #259, #288, #108, .T. ) ;
#115 = AXIS2_PLACEMENT_3D ( 'NONE', #105, #85, #29 ) ;
#116 = EDGE_LOOP ( 'NONE', ( #199, #72 ) ) ;
#117 = AXIS2_PLACEMENT_3D ( 'NONE', #73, #156, #125 ) ;
#118 = VERTEX_POINT ( 'NONE', #192 ) ;
#119 = DIRECTION ( 'NONE',  ( 1.000000000000000000, 0.0000000000000000000, 0.0000000000000000000 ) ) ;
#120 = EDGE_CURVE ( 'NONE', #17, #281, #226, .T. ) ;
#121 = EDGE_LOOP ( 'NONE', ( #230, #172 ) ) ;
#122 = AXIS2_PLACEMENT_3D ( 'NONE', #86, #106, #216 ) ;
#123 = FILL_AREA_STYLE_COLOUR ( '', #130 ) ;
#124 = CARTESIAN_POINT ( 'NONE',  ( 0.4694999999999999174, 0.0000000000000000000, 0.02999999999999999889 ) ) ;
#125 = DIRECTION ( 'NONE',  ( 1.000000000000000000, 0.0000000000000000000, 0.0000000000000000000 ) ) ;
#126 = ORIENTED_EDGE ( 'NONE', *, *, #213, .F. ) ;
#127 = CARTESIAN_POINT ( 'NONE',  ( -0.4694999999999999174, 5.749716721996822286E-17, 0.02999999999999999889 ) ) ;
#128 = EDGE_CURVE ( 'NONE', #201, #47, #58, .T. ) ;
#129 = CARTESIAN_POINT ( 'NONE',  ( 0.4994999999999999440, 6.117110761741028667E-17, 0.03000000000000000583 ) ) ;
#130 = COLOUR_RGB ( '',0.7921568627450980005, 0.8196078431372548767, 0.9333333333333333481 ) ;
#131 = CARTESIAN_POINT ( 'NONE',  ( 1.840442857284759413E-16, 0.0000000000000000000, 1.502835640909809589 ) ) ;
#132 = DIRECTION ( 'NONE',  ( 0.0000000000000000000, 0.0000000000000000000, -1.000000000000000000 ) ) ;
#133 = DIRECTION ( 'NONE',  ( -1.000000000000000000, 0.0000000000000000000, 0.0000000000000000000 ) ) ;
#134 = CARTESIAN_POINT ( 'NONE',  ( 0.4850000000000009859, 6.031385485800721528E-17, 4.000000000000000000 ) ) ;
#135 = CARTESIAN_POINT ( 'NONE',  ( -0.5000000000000000000, 0.0000000000000000000, 4.000000000000000000 ) ) ;
#136 = DIRECTION ( 'NONE',  ( -1.000000000000000000, 0.0000000000000000000, 0.0000000000000000000 ) ) ;
#137 = PRODUCT_DEFINITION_SHAPE ( 'NONE', 'NONE',  #140 ) ;
#138 = CARTESIAN_POINT ( 'NONE',  ( 0.0000000000000000000, 0.0000000000000000000, 4.000000000000000000 ) ) ;
#139 = DIRECTION ( 'NONE',  ( 0.0000000000000000000, 0.0000000000000000000, 1.000000000000000000 ) ) ;
#140 = PRODUCT_DEFINITION ( 'UNKNOWN', '', #254, #14 ) ;
#141 = DIRECTION ( 'NONE',  ( 0.0000000000000000000, 0.0000000000000000000, -1.000000000000000000 ) ) ;
#142 = ORIENTED_EDGE ( 'NONE', *, *, #234, .T. ) ;
#143 = ADVANCED_FACE ( 'NONE', ( #161 ), #309, .T. ) ;
#144 = PRESENTATION_LAYER_ASSIGNMENT (  '', '', ( #27 ) ) ;
#145 = VECTOR ( 'NONE', #112, 39.37007874015747433 ) ;
#146 =( NAMED_UNIT ( * ) PLANE_ANGLE_UNIT ( ) SI_UNIT ( $, .RADIAN. ) );
#147 = APPLICATION_CONTEXT ( 'automotive_design' ) ;
#148 = ORIENTED_EDGE ( 'NONE', *, *, #275, .T. ) ;
#149 = AXIS2_PLACEMENT_3D ( 'NONE', #296, #19, #78 ) ;
#150 = VERTEX_POINT ( 'NONE', #129 ) ;
#151 = ADVANCED_FACE ( 'NONE', ( #250 ), #31, .T. ) ;
#152 = ADVANCED_BREP_SHAPE_REPRESENTATION ( 'Micro_GEC-001-2-030', ( #60, #117 ), #6 ) ;
#153 = ORIENTED_EDGE ( 'NONE', *, *, #8, .T. ) ;
#154 = ADVANCED_FACE ( 'NONE', ( #308 ), #224, .T. ) ;
#155 = ORIENTED_EDGE ( 'NONE', *, *, #337, .F. ) ;
#156 = DIRECTION ( 'NONE',  ( 0.0000000000000000000, 0.0000000000000000000, 1.000000000000000000 ) ) ;
#157 = ORIENTED_EDGE ( 'NONE', *, *, #102, .F. ) ;
#158 = DIRECTION ( 'NONE',  ( 0.0000000000000000000, -1.000000000000000000, 0.0000000000000000000 ) ) ;
#159 = EDGE_LOOP ( 'NONE', ( #261, #95, #318, #49 ) ) ;
#160 = PRESENTATION_STYLE_ASSIGNMENT (( #52 ) ) ;
#161 = FACE_OUTER_BOUND ( 'NONE', #188, .T. ) ;
#162 = AXIS2_PLACEMENT_3D ( 'NONE', #240, #350, #165 ) ;
#163 = CARTESIAN_POINT ( 'NONE',  ( 0.5000000000000000000, 6.123233995736766036E-17, 4.000000000000000000 ) ) ;
#164 = DIRECTION ( 'NONE',  ( -0.0000000000000000000, -0.0000000000000000000, -1.000000000000000000 ) ) ;
#165 = DIRECTION ( 'NONE',  ( 1.000000000000000000, 0.0000000000000000000, 0.0000000000000000000 ) ) ;
#166 = CARTESIAN_POINT ( 'NONE',  ( 0.0000000000000000000, 0.0000000000000000000, 4.000000000000000000 ) ) ;
#167 = DIRECTION ( 'NONE',  ( 1.000000000000000000, 0.0000000000000000000, -0.0000000000000000000 ) ) ;
#168 = DIRECTION ( 'NONE',  ( -0.0000000000000000000, -0.0000000000000000000, -1.000000000000000000 ) ) ;
#169 = FACE_OUTER_BOUND ( 'NONE', #41, .T. ) ;
#170 = ADVANCED_FACE ( 'NONE', ( #113 ), #93, .T. ) ;
#171 = CARTESIAN_POINT ( 'NONE',  ( 0.4995000000000001106, 0.0000000000000000000, 1.500000000000000222 ) ) ;
#172 = ORIENTED_EDGE ( 'NONE', *, *, #120, .T. ) ;
#173 = ORIENTED_EDGE ( 'NONE', *, *, #24, .T. ) ;
#174 = ADVANCED_FACE ( 'NONE', ( #305 ), #63, .T. ) ;
#175 =( GEOMETRIC_REPRESENTATION_CONTEXT ( 3 ) GLOBAL_UNCERTAINTY_ASSIGNED_CONTEXT ( ( #345 ) ) GLOBAL_UNIT_ASSIGNED_CONTEXT ( ( #328, #82, #2 ) ) REPRESENTATION_CONTEXT ( 'NONE', 'WORKASPACE' ) );
#176 = AXIS2_PLACEMENT_3D ( 'NONE', #131, #246, #119 ) ;
#177 = ADVANCED_FACE ( 'NONE', ( #302 ), #232, .T. ) ;
#178 = MECHANICAL_DESIGN_GEOMETRIC_PRESENTATION_REPRESENTATION (  '', ( #314 ), #175 ) ;
#179 = AXIS2_PLACEMENT_3D ( 'NONE', #100, #206, #48 ) ;
#180 = ORIENTED_EDGE ( 'NONE', *, *, #128, .T. ) ;
#181 = COLOUR_RGB ( '',0.7921568627450980005, 0.8196078431372548767, 0.9333333333333333481 ) ;
#182 = CIRCLE ( 'NONE', #316, 0.4994999999999999440 ) ;
#183 = ORIENTED_EDGE ( 'NONE', *, *, #213, .T. ) ;
#184 = ADVANCED_FACE ( 'NONE', ( #193 ), #320, .T. ) ;
#185 = ORIENTED_EDGE ( 'NONE', *, *, #334, .T. ) ;
#186 = ADVANCED_FACE ( 'NONE', ( #274 ), #65, .T. ) ;
#187 = ORIENTED_EDGE ( 'NONE', *, *, #128, .F. ) ;
#188 = EDGE_LOOP ( 'NONE', ( #15, #91, #92, #67 ) ) ;
#189 = CARTESIAN_POINT ( 'NONE',  ( 0.0000000000000000000, 0.0000000000000000000, 3.985000000000000764 ) ) ;
#190 = DIRECTION ( 'NONE',  ( -1.000000000000000000, 0.0000000000000000000, 0.0000000000000000000 ) ) ;
#191 = DIMENSIONAL_EXPONENTS ( 1.000000000000000000, 0.0000000000000000000, 0.0000000000000000000, 0.0000000000000000000, 0.0000000000000000000, 0.0000000000000000000, 0.0000000000000000000 ) ;
#192 = CARTESIAN_POINT ( 'NONE',  ( -0.4994999999999999440, 0.0000000000000000000, 0.03000000000000000583 ) ) ;
#193 = FACE_OUTER_BOUND ( 'NONE', #255, .T. ) ;
#194 =( NAMED_UNIT ( * ) PLANE_ANGLE_UNIT ( ) SI_UNIT ( $, .RADIAN. ) );
#195 = DIRECTION ( 'NONE',  ( 1.000000000000000000, 0.0000000000000000000, 0.0000000000000000000 ) ) ;
#196 = APPLICATION_PROTOCOL_DEFINITION ( 'draft international standard', 'automotive_design', 1998, #147 ) ;
#197 = LINE ( 'NONE', #171, #279 ) ;
#198 = AXIS2_PLACEMENT_3D ( 'NONE', #127, #317, #238 ) ;
#199 = ORIENTED_EDGE ( 'NONE', *, *, #114, .T. ) ;
#200 = AXIS2_PLACEMENT_3D ( 'NONE', #30, #168, #133 ) ;
#201 = VERTEX_POINT ( 'NONE', #5 ) ;
#202 = EDGE_CURVE ( 'NONE', #288, #259, #245, .T. ) ;
#203 = ORIENTED_EDGE ( 'NONE', *, *, #275, .F. ) ;
#204 = PRESENTATION_LAYER_ASSIGNMENT (  '', '', ( #314 ) ) ;
#205 = ADVANCED_FACE ( 'NONE', ( #34 ), #338, .T. ) ;
#206 = DIRECTION ( 'NONE',  ( 1.224646799147353207E-16, 0.0000000000000000000, 1.000000000000000000 ) ) ;
#207 = ORIENTED_EDGE ( 'NONE', *, *, #102, .T. ) ;
#208 = PRODUCT_RELATED_PRODUCT_CATEGORY ( 'part', '', ( #312 ) ) ;
#209 = DIRECTION ( 'NONE',  ( 1.000000000000000000, 0.0000000000000000000, 0.0000000000000000000 ) ) ;
#210 = CARTESIAN_POINT ( 'NONE',  ( 1.840442857284759413E-16, 0.0000000000000000000, 1.502835640909809589 ) ) ;
#211 = VECTOR ( 'NONE', #88, 39.37007874015748143 ) ;
#212 = CARTESIAN_POINT ( 'NONE',  ( 0.0000000000000000000, 0.0000000000000000000, 3.985000000000000764 ) ) ;
#213 = EDGE_CURVE ( 'NONE', #118, #150, #182, .T. ) ;
#214 =( NAMED_UNIT ( * ) SI_UNIT ( $, .STERADIAN. ) SOLID_ANGLE_UNIT ( ) );
#215 = DIRECTION ( 'NONE',  ( 1.000000000000000000, 0.0000000000000000000, 0.0000000000000000000 ) ) ;
#216 = DIRECTION ( 'NONE',  ( 1.000000000000000000, 0.0000000000000000000, 0.0000000000000000000 ) ) ;
#217 = CARTESIAN_POINT ( 'NONE',  ( 1.836970198721030181E-16, 0.0000000000000000000, 1.500000000000000222 ) ) ;
#218 = AXIS2_PLACEMENT_3D ( 'NONE', #212, #132, #241 ) ;
#219 = CARTESIAN_POINT ( 'NONE',  ( 0.5000000000000000000, 6.123233995736766036E-17, 3.985000000000000764 ) ) ;
#220 = DIRECTION ( 'NONE',  ( 0.0000000000000000000, 0.0000000000000000000, 1.000000000000000000 ) ) ;
#221 =( LENGTH_UNIT ( ) NAMED_UNIT ( * ) SI_UNIT ( $, .METRE. ) );
#222 = DIRECTION ( 'NONE',  ( -1.000000000000000000, 0.0000000000000000000, 0.0000000000000000000 ) ) ;
#223 = DIRECTION ( 'NONE',  ( -1.000000000000000000, 0.0000000000000000000, 0.0000000000000000000 ) ) ;
#224 = CYLINDRICAL_SURFACE ( 'NONE', #32, 0.4994999999999999440 ) ;
#225 = ORIENTED_EDGE ( 'NONE', *, *, #43, .F. ) ;
#226 = CIRCLE ( 'NONE', #299, 0.4694999999999999174 ) ;
#227 = EDGE_CURVE ( 'NONE', #282, #47, #83, .T. ) ;
#228 = MECHANICAL_DESIGN_GEOMETRIC_PRESENTATION_REPRESENTATION (  '', ( #27 ), #284 ) ;
#229 = EDGE_LOOP ( 'NONE', ( #346, #341, #153, #51 ) ) ;
#230 = ORIENTED_EDGE ( 'NONE', *, *, #37, .T. ) ;
#231 = PLANE ( 'NONE',  #45 ) ;
#232 = TOROIDAL_SURFACE ( 'NONE', #101, 0.4694999999999999174, 0.02999999999999999889 ) ;
#233 = ORIENTED_EDGE ( 'NONE', *, *, #247, .F. ) ;
#234 = EDGE_CURVE ( 'NONE', #237, #282, #39, .T. ) ;
#235 = SURFACE_STYLE_USAGE ( .BOTH. , #80 ) ;
#236 = ORIENTED_EDGE ( 'NONE', *, *, #77, .F. ) ;
#237 = VERTEX_POINT ( 'NONE', #331 ) ;
#238 = DIRECTION ( 'NONE',  ( -1.000000000000000000, 1.224646799147352221E-16, 0.0000000000000000000 ) ) ;
#239 = CIRCLE ( 'NONE', #20, 0.5000000000000000000 ) ;
#240 = CARTESIAN_POINT ( 'NONE',  ( 3.673940397442059190E-18, 0.0000000000000000000, 0.02999999999999999889 ) ) ;
#241 = DIRECTION ( 'NONE',  ( 1.000000000000000000, 0.0000000000000000000, 0.0000000000000000000 ) ) ;
#242 = CARTESIAN_POINT ( 'NONE',  ( 3.673940397442059190E-18, 0.0000000000000000000, 0.02999999999999999889 ) ) ;
#243 =( CONVERSION_BASED_UNIT ( 'INCH', #272 ) LENGTH_UNIT ( ) NAMED_UNIT ( #271 ) );
#244 = DIRECTION ( 'NONE',  ( 1.000000000000000000, 0.0000000000000000000, 0.0000000000000000000 ) ) ;
#245 = CIRCLE ( 'NONE', #11, 0.4850000000000009859 ) ;
#246 = DIRECTION ( 'NONE',  ( -1.224646799147353207E-16, -0.0000000000000000000, -1.000000000000000000 ) ) ;
#247 = EDGE_CURVE ( 'NONE', #259, #201, #278, .T. ) ;
#248 = DIRECTION ( 'NONE',  ( -1.000000000000000000, 0.0000000000000000000, 1.224646799147353207E-16 ) ) ;
#249 = DIRECTION ( 'NONE',  ( -1.224646799147353207E-16, -0.0000000000000000000, -1.000000000000000000 ) ) ;
#250 = FACE_OUTER_BOUND ( 'NONE', #339, .T. ) ;
#251 = CARTESIAN_POINT ( 'NONE',  ( 0.0000000000000000000, 0.0000000000000000000, 0.0000000000000000000 ) ) ;
#252 = ORIENTED_EDGE ( 'NONE', *, *, #247, .T. ) ;
#253 = CIRCLE ( 'NONE', #198, 0.03000000000000002318 ) ;
#254 = PRODUCT_DEFINITION_FORMATION_WITH_SPECIFIED_SOURCE ( 'ANY', '', #312, .NOT_KNOWN. ) ;
#255 = EDGE_LOOP ( 'NONE', ( #310, #148, #157, #233 ) ) ;
#256 = DIRECTION ( 'NONE',  ( -0.0000000000000000000, -0.0000000000000000000, -1.000000000000000000 ) ) ;
#257 = EDGE_CURVE ( 'NONE', #237, #13, #197, .T. ) ;
#258 = EDGE_LOOP ( 'NONE', ( #18, #40, #185, #263 ) ) ;
#259 = VERTEX_POINT ( 'NONE', #280 ) ;
#260 = VECTOR ( 'NONE', #249, 39.37007874015748143 ) ;
#261 = ORIENTED_EDGE ( 'NONE', *, *, #227, .F. ) ;
#262 = EDGE_LOOP ( 'NONE', ( #155, #142, #173, #183 ) ) ;
#263 = ORIENTED_EDGE ( 'NONE', *, *, #257, .F. ) ;
#264 = CIRCLE ( 'NONE', #176, 0.5000000000000000000 ) ;
#265 = EDGE_CURVE ( 'NONE', #70, #13, #35, .T. ) ;
#266 = DIRECTION ( 'NONE',  ( 0.0000000000000000000, 0.0000000000000000000, -1.000000000000000000 ) ) ;
#267 = CARTESIAN_POINT ( 'NONE',  ( -0.4999999999999997780, 0.0000000000000000000, 1.502835640909809589 ) ) ;
#268 = VECTOR ( 'NONE', #164, 39.37007874015748143 ) ;
#269 = CARTESIAN_POINT ( 'NONE',  ( 0.0000000000000000000, 0.0000000000000000000, 0.0000000000000000000 ) ) ;
#270 = DIRECTION ( 'NONE',  ( -0.0000000000000000000, -0.0000000000000000000, -1.000000000000000000 ) ) ;
#271 = DIMENSIONAL_EXPONENTS ( 1.000000000000000000, 0.0000000000000000000, 0.0000000000000000000, 0.0000000000000000000, 0.0000000000000000000, 0.0000000000000000000, 0.0000000000000000000 ) ;
#272 = LENGTH_MEASURE_WITH_UNIT ( LENGTH_MEASURE( 0.02539999999999999897 ), #109 );
#273 = DIRECTION ( 'NONE',  ( 0.0000000000000000000, 0.0000000000000000000, -1.000000000000000000 ) ) ;
#274 = FACE_OUTER_BOUND ( 'NONE', #116, .T. ) ;
#275 = EDGE_CURVE ( 'NONE', #288, #70, #26, .T. ) ;
#276 = FILL_AREA_STYLE_COLOUR ( '', #181 ) ;
#277 = AXIS2_PLACEMENT_3D ( 'NONE', #107, #298, #167 ) ;
#278 = LINE ( 'NONE', #333, #303 ) ;
#279 = VECTOR ( 'NONE', #55, 39.37007874015748143 ) ;
#280 = CARTESIAN_POINT ( 'NONE',  ( -0.4850000000000009859, 0.0000000000000000000, 4.000000000000000000 ) ) ;
#281 = VERTEX_POINT ( 'NONE', #306 ) ;
#282 = VERTEX_POINT ( 'NONE', #62 ) ;
#283 = CIRCLE ( 'NONE', #56, 0.02999999999999999889 ) ;
#284 =( GEOMETRIC_REPRESENTATION_CONTEXT ( 3 ) GLOBAL_UNCERTAINTY_ASSIGNED_CONTEXT ( ( #42 ) ) GLOBAL_UNIT_ASSIGNED_CONTEXT ( ( #243, #194, #342 ) ) REPRESENTATION_CONTEXT ( 'NONE', 'WORKASPACE' ) );
#285 = SHAPE_DEFINITION_REPRESENTATION ( #137, #152 ) ;
#286 = ORIENTED_EDGE ( 'NONE', *, *, #77, .T. ) ;
#287 = AXIS2_PLACEMENT_3D ( 'NONE', #210, #25, #215 ) ;
#288 = VERTEX_POINT ( 'NONE', #134 ) ;
#289 = EDGE_CURVE ( 'NONE', #282, #237, #66, .T. ) ;
#290 = APPLICATION_PROTOCOL_DEFINITION ( 'draft international standard', 'automotive_design', 1998, #21 ) ;
#291 = ORIENTED_EDGE ( 'NONE', *, *, #37, .F. ) ;
#292 = LENGTH_MEASURE_WITH_UNIT ( LENGTH_MEASURE( 0.02539999999999999897 ), #313 );
#293 = AXIS2_PLACEMENT_3D ( 'NONE', #9, #324, #248 ) ;
#294 = ORIENTED_EDGE ( 'NONE', *, *, #334, .F. ) ;
#295 = ADVANCED_FACE ( 'NONE', ( #169 ), #300, .T. ) ;
#296 = CARTESIAN_POINT ( 'NONE',  ( 3.673940397442059190E-18, 0.0000000000000000000, 0.0000000000000000000 ) ) ;
#297 = FILL_AREA_STYLE ('',( #276 ) ) ;
#298 = DIRECTION ( 'NONE',  ( 0.0000000000000000000, 0.0000000000000000000, 1.000000000000000000 ) ) ;
#299 = AXIS2_PLACEMENT_3D ( 'NONE', #301, #323, #53 ) ;
#300 = CYLINDRICAL_SURFACE ( 'NONE', #351, 0.5000000000000000000 ) ;
#301 = CARTESIAN_POINT ( 'NONE',  ( 3.673940397442059190E-18, 0.0000000000000000000, 0.0000000000000000000 ) ) ;
#302 = FACE_OUTER_BOUND ( 'NONE', #68, .T. ) ;
#303 = VECTOR ( 'NONE', #89, 39.37007874015748143 ) ;
#304 = DIRECTION ( 'NONE',  ( 0.0000000000000000000, 0.0000000000000000000, -1.000000000000000000 ) ) ;
#305 = FACE_OUTER_BOUND ( 'NONE', #229, .T. ) ;
#306 = CARTESIAN_POINT ( 'NONE',  ( 0.4694999999999999174, 0.0000000000000000000, 0.0000000000000000000 ) ) ;
#307 = AXIS2_PLACEMENT_3D ( 'NONE', #347, #46, #209 ) ;
#308 = FACE_OUTER_BOUND ( 'NONE', #262, .T. ) ;
#309 = TOROIDAL_SURFACE ( 'NONE', #162, 0.4694999999999999174, 0.02999999999999999889 ) ;
#310 = ORIENTED_EDGE ( 'NONE', *, *, #202, .F. ) ;
#311 = ORIENTED_EDGE ( 'NONE', *, *, #265, .F. ) ;
#312 = PRODUCT ( 'Micro_GEC-001-2-030', 'Micro_GEC-001-2-030', '', ( #96 ) ) ;
#313 =( LENGTH_UNIT ( ) NAMED_UNIT ( * ) SI_UNIT ( $, .METRE. ) );
#314 = STYLED_ITEM ( 'NONE', ( #76 ), #60 ) ;
#315 = SURFACE_STYLE_FILL_AREA ( #321 ) ;
#316 = AXIS2_PLACEMENT_3D ( 'NONE', #326, #139, #195 ) ;
#317 = DIRECTION ( 'NONE',  ( 1.224646799147353207E-16, 1.000000000000000000, -0.0000000000000000000 ) ) ;
#318 = ORIENTED_EDGE ( 'NONE', *, *, #257, .T. ) ;
#319 = ADVANCED_FACE ( 'NONE', ( #38 ), #231, .F. ) ;
#320 = CONICAL_SURFACE ( 'NONE', #90, 0.4850000000000009859, 0.7853981633974437271 ) ;
#321 = FILL_AREA_STYLE ('',( #123 ) ) ;
#322 = VECTOR ( 'NONE', #270, 39.37007874015748143 ) ;
#323 = DIRECTION ( 'NONE',  ( -0.0000000000000000000, -0.0000000000000000000, -1.000000000000000000 ) ) ;
#324 = DIRECTION ( 'NONE',  ( -1.224646799147353207E-16, -0.0000000000000000000, -1.000000000000000000 ) ) ;
#325 = DIMENSIONAL_EXPONENTS ( 1.000000000000000000, 0.0000000000000000000, 0.0000000000000000000, 0.0000000000000000000, 0.0000000000000000000, 0.0000000000000000000, 0.0000000000000000000 ) ;
#326 = CARTESIAN_POINT ( 'NONE',  ( 3.673940397442059960E-18, 0.0000000000000000000, 0.03000000000000000583 ) ) ;
#327 = DIRECTION ( 'NONE',  ( 0.0000000000000000000, 0.0000000000000000000, 1.000000000000000000 ) ) ;
#328 =( CONVERSION_BASED_UNIT ( 'INCH', #292 ) LENGTH_UNIT ( ) NAMED_UNIT ( #325 ) );
#329 = DIRECTION ( 'NONE',  ( 1.000000000000000000, 0.0000000000000000000, 0.0000000000000000000 ) ) ;
#330 = LINE ( 'NONE', #332, #260 ) ;
#331 = CARTESIAN_POINT ( 'NONE',  ( 0.4995000000000001106, 0.0000000000000000000, 1.500000000000000222 ) ) ;
#332 = CARTESIAN_POINT ( 'NONE',  ( 0.4994999999999999440, 6.117110761741028667E-17, -6.117110761741028667E-17 ) ) ;
#333 = CARTESIAN_POINT ( 'NONE',  ( -0.4850000000000009859, 0.0000000000000000000, 4.000000000000000000 ) ) ;
#334 = EDGE_CURVE ( 'NONE', #47, #13, #264, .T. ) ;
#335 = ORIENTED_EDGE ( 'NONE', *, *, #265, .T. ) ;
#336 = AXIS2_PLACEMENT_3D ( 'NONE', #217, #7, #340 ) ;
#337 = EDGE_CURVE ( 'NONE', #237, #150, #330, .T. ) ;
#338 = CONICAL_SURFACE ( 'NONE', #122, 0.4994999999999998885, 0.1745329251994339192 ) ;
#339 = EDGE_LOOP ( 'NONE', ( #207, #335, #294, #187 ) ) ;
#340 = DIRECTION ( 'NONE',  ( -1.000000000000000000, 0.0000000000000000000, 0.0000000000000000000 ) ) ;
#341 = ORIENTED_EDGE ( 'NONE', *, *, #337, .T. ) ;
#342 =( NAMED_UNIT ( * ) SI_UNIT ( $, .STERADIAN. ) SOLID_ANGLE_UNIT ( ) );
#343 = LINE ( 'NONE', #23, #349 ) ;
#344 = CONICAL_SURFACE ( 'NONE', #179, 0.4994999999999998885, 0.1745329251994339192 ) ;
#345 = UNCERTAINTY_MEASURE_WITH_UNIT (LENGTH_MEASURE( 1.000000000000000082E-05 ), #328, 'distance_accuracy_value', 'NONE');
#346 = ORIENTED_EDGE ( 'NONE', *, *, #289, .T. ) ;
#347 = CARTESIAN_POINT ( 'NONE',  ( 3.673940397442059960E-18, 0.0000000000000000000, 0.03000000000000000583 ) ) ;
#348 = FACE_OUTER_BOUND ( 'NONE', #159, .T. ) ;
#349 = VECTOR ( 'NONE', #99, 39.37007874015748143 ) ;
#350 = DIRECTION ( 'NONE',  ( 0.0000000000000000000, 0.0000000000000000000, 1.000000000000000000 ) ) ;
#351 = AXIS2_PLACEMENT_3D ( 'NONE', #166, #256, #223 ) ;
ENDSEC;
END-ISO-10303-21;
