ISO-10303-21;
HEADER;
FILE_DESCRIPTION (( 'STEP AP214' ),
    '1' );
FILE_NAME ('07002.STEP',
    '2023-07-12T13:04:48',
    ( '' ),
    ( '' ),
    'SwSTEP 2.0',
    'SolidWorks 2023',
    '' );
FILE_SCHEMA (( 'AUTOMOTIVE_DESIGN' ));
ENDSEC;

DATA;
#1 = CARTESIAN_POINT ( 'NONE',  ( 0.000000000000000000, 0.000000000000000000, 0.000000000000000000 ) ) ;
#2 = LINE ( 'NONE', #25, #10 ) ;
#3 = DIRECTION ( 'NONE',  ( -1.000000000000000000, 0.000000000000000000, 0.000000000000000000 ) ) ;
#4 = CARTESIAN_POINT ( 'NONE',  ( 0.000000000000000000, 0.000000000000000000, 0.000000000000000000 ) ) ;
#5 = DIRECTION ( 'NONE',  ( 1.000000000000000000, 0.000000000000000000, 0.000000000000000000 ) ) ;
#6 = MECHANICAL_DESIGN_GEOMETRIC_PRESENTATION_REPRESENTATION (  '', ( #207 ), #144 ) ;
#7 = FILL_AREA_STYLE_COLOUR ( '', #195 ) ;
#8 = PRESENTATION_STYLE_ASSIGNMENT (( #298 ) ) ;
#9 = AXIS2_PLACEMENT_3D ( 'NONE', #81, #45, #31 ) ;
#10 = VECTOR ( 'NONE', #193, 39.37007874015748854 ) ;
#11 = STYLED_ITEM ( 'NONE', ( #123 ), #90 ) ;
#12 = ORIENTED_EDGE ( 'NONE', *, *, #243, .T. ) ;
#13 = LENGTH_MEASURE_WITH_UNIT ( LENGTH_MEASURE( 0.02539999999999999897 ), #233 );
#14 = ORIENTED_EDGE ( 'NONE', *, *, #243, .F. ) ;
#15 = CYLINDRICAL_SURFACE ( 'NONE', #170, 0.1874999999999998890 ) ;
#16 = UNCERTAINTY_MEASURE_WITH_UNIT (LENGTH_MEASURE( 1.000000000000000082E-05 ), #76, 'distance_accuracy_value', 'NONE');
#17 = CLOSED_SHELL ( 'NONE', ( #293, #182, #147, #261 ) ) ;
#18 = DIRECTION ( 'NONE',  ( -0.000000000000000000, -1.000000000000000000, -0.000000000000000000 ) ) ;
#19 = PRODUCT_RELATED_PRODUCT_CATEGORY ( 'part', '', ( #91 ) ) ;
#20 = VERTEX_POINT ( 'NONE', #44 ) ;
#21 = CARTESIAN_POINT ( 'NONE',  ( 0.1874999999999999722, 2.500000000000000000, 2.296212748401286801E-17 ) ) ;
#22 = CARTESIAN_POINT ( 'NONE',  ( -0.1874999999999999445, 2.500000000000000000, 0.000000000000000000 ) ) ;
#23 = SURFACE_STYLE_FILL_AREA ( #156 ) ;
#24 = CIRCLE ( 'NONE', #204, 0.1875000000000000555 ) ;
#25 = CARTESIAN_POINT ( 'NONE',  ( 0.000000000000000000, 0.000000000000000000, 0.03500000000000000333 ) ) ;
#26 = CARTESIAN_POINT ( 'NONE',  ( 0.1874999999999998057, 2.500000000000000000, 2.296212748401285877E-17 ) ) ;
#27 = DIRECTION ( 'NONE',  ( 0.000000000000000000, 0.000000000000000000, -1.000000000000000000 ) ) ;
#28 = PLANE ( 'NONE',  #35 ) ;
#29 = EDGE_CURVE ( 'NONE', #20, #148, #153, .T. ) ;
#30 = AXIS2_PLACEMENT_3D ( 'NONE', #103, #229, #175 ) ;
#31 = DIRECTION ( 'NONE',  ( -1.000000000000000000, -1.495696521767949812E-16, 0.000000000000000000 ) ) ;
#32 =( GEOMETRIC_REPRESENTATION_CONTEXT ( 3 ) GLOBAL_UNCERTAINTY_ASSIGNED_CONTEXT ( ( #133 ) ) GLOBAL_UNIT_ASSIGNED_CONTEXT ( ( #183, #295, #250 ) ) REPRESENTATION_CONTEXT ( 'NONE', 'WORKASPACE' ) );
#33 = PRESENTATION_STYLE_ASSIGNMENT (( #206 ) ) ;
#34 = DIMENSIONAL_EXPONENTS ( 1.000000000000000000, 0.000000000000000000, 0.000000000000000000, 0.000000000000000000, 0.000000000000000000, 0.000000000000000000, 0.000000000000000000 ) ;
#35 = AXIS2_PLACEMENT_3D ( 'NONE', #55, #127, #197 ) ;
#36 = SURFACE_STYLE_FILL_AREA ( #165 ) ;
#37 = ADVANCED_FACE ( 'NONE', ( #107 ), #28, .T. ) ;
#38 =( NAMED_UNIT ( * ) PLANE_ANGLE_UNIT ( ) SI_UNIT ( $, .RADIAN. ) );
#39 = AXIS2_PLACEMENT_3D ( 'NONE', #285, #115, #238 ) ;
#40 = PRODUCT_DEFINITION_SHAPE ( 'NONE', 'NONE',  #179 ) ;
#41 = FILL_AREA_STYLE_COLOUR ( '', #57 ) ;
#42 = VERTEX_POINT ( 'NONE', #286 ) ;
#43 = EDGE_CURVE ( 'NONE', #168, #121, #280, .T. ) ;
#44 = CARTESIAN_POINT ( 'NONE',  ( 0.1874999999999999722, 0.2641377481542530603, 2.296212748401286801E-17 ) ) ;
#45 = DIRECTION ( 'NONE',  ( -1.495696521767949812E-16, 1.000000000000000000, 0.000000000000000000 ) ) ;
#46 = PRESENTATION_LAYER_ASSIGNMENT (  '', '', ( #226 ) ) ;
#47 = UNCERTAINTY_MEASURE_WITH_UNIT (LENGTH_MEASURE( 1.000000000000000082E-05 ), #61, 'distance_accuracy_value', 'NONE');
#48 = ORIENTED_EDGE ( 'NONE', *, *, #302, .T. ) ;
#49 = SURFACE_STYLE_USAGE ( .BOTH. , #260 ) ;
#50 = SURFACE_STYLE_FILL_AREA ( #241 ) ;
#51 = SURFACE_STYLE_USAGE ( .BOTH. , #220 ) ;
#52 = DIRECTION ( 'NONE',  ( -1.495696521767949812E-16, 1.000000000000000000, -0.000000000000000000 ) ) ;
#53 = DIRECTION ( 'NONE',  ( 0.000000000000000000, 0.000000000000000000, -1.000000000000000000 ) ) ;
#54 = PRESENTATION_STYLE_ASSIGNMENT (( #49 ) ) ;
#55 = CARTESIAN_POINT ( 'NONE',  ( 0.000000000000000000, 0.2641377481542529493, 0.000000000000000000 ) ) ;
#56 = SURFACE_STYLE_FILL_AREA ( #266 ) ;
#57 = COLOUR_RGB ( '',0.7921568627450980005, 0.8196078431372548767, 0.9333333333333333481 ) ;
#58 = PRESENTATION_LAYER_ASSIGNMENT (  '', '', ( #188 ) ) ;
#59 = EDGE_CURVE ( 'NONE', #121, #168, #234, .T. ) ;
#60 = DIRECTION ( 'NONE',  ( 0.000000000000000000, 0.000000000000000000, -1.000000000000000000 ) ) ;
#61 =( CONVERSION_BASED_UNIT ( 'INCH', #94 ) LENGTH_UNIT ( ) NAMED_UNIT ( #93 ) );
#62 = FACE_OUTER_BOUND ( 'NONE', #216, .T. ) ;
#63 = APPLICATION_PROTOCOL_DEFINITION ( 'draft international standard', 'automotive_design', 1998, #164 ) ;
#64 = EDGE_CURVE ( 'NONE', #121, #166, #2, .T. ) ;
#65 = EDGE_LOOP ( 'NONE', ( #169, #300 ) ) ;
#66 = DIMENSIONAL_EXPONENTS ( 1.000000000000000000, 0.000000000000000000, 0.000000000000000000, 0.000000000000000000, 0.000000000000000000, 0.000000000000000000, 0.000000000000000000 ) ;
#67 =( NAMED_UNIT ( * ) SI_UNIT ( $, .STERADIAN. ) SOLID_ANGLE_UNIT ( ) );
#68 =( NAMED_UNIT ( * ) SI_UNIT ( $, .STERADIAN. ) SOLID_ANGLE_UNIT ( ) );
#69 = EDGE_LOOP ( 'NONE', ( #232, #70, #96, #14 ) ) ;
#70 = ORIENTED_EDGE ( 'NONE', *, *, #29, .T. ) ;
#71 = DIRECTION ( 'NONE',  ( -1.495696521767949812E-16, 1.000000000000000000, -0.000000000000000000 ) ) ;
#72 = PLANE ( 'NONE',  #9 ) ;
#73 = AXIS2_PLACEMENT_3D ( 'NONE', #89, #83, #60 ) ;
#74 = FILL_AREA_STYLE ('',( #201 ) ) ;
#75 = CARTESIAN_POINT ( 'NONE',  ( -6.123233995736764803E-17, 2.500000000000000000, 0.000000000000000000 ) ) ;
#76 =( CONVERSION_BASED_UNIT ( 'INCH', #283 ) LENGTH_UNIT ( ) NAMED_UNIT ( #227 ) );
#77 = FACE_OUTER_BOUND ( 'NONE', #69, .T. ) ;
#78 = SURFACE_STYLE_FILL_AREA ( #74 ) ;
#79 = FILL_AREA_STYLE_COLOUR ( '', #84 ) ;
#80 = COLOUR_RGB ( '',1.000000000000000000, 0.000000000000000000, 0.000000000000000000 ) ;
#81 = CARTESIAN_POINT ( 'NONE',  ( 2.731847993664263218E-16, 0.2641377481542529493, 0.000000000000000000 ) ) ;
#82 = AXIS2_PLACEMENT_3D ( 'NONE', #271, #131, #5 ) ;
#83 = DIRECTION ( 'NONE',  ( 0.000000000000000000, -1.000000000000000000, -0.000000000000000000 ) ) ;
#84 = COLOUR_RGB ( '',1.000000000000000000, 0.000000000000000000, 0.000000000000000000 ) ;
#85 = AXIS2_PLACEMENT_3D ( 'NONE', #278, #18, #27 ) ;
#86 = SURFACE_SIDE_STYLE ('',( #180 ) ) ;
#87 = SHAPE_DEFINITION_REPRESENTATION ( #40, #88 ) ;
#88 = ADVANCED_BREP_SHAPE_REPRESENTATION ( '07002', ( #307, #109, #82 ), #249 ) ;
#89 = CARTESIAN_POINT ( 'NONE',  ( 0.000000000000000000, 0.000000000000000000, 0.000000000000000000 ) ) ;
#90 = ADVANCED_FACE ( 'NONE', ( #221 ), #239, .T. ) ;
#91 = PRODUCT ( '07002', '07002', '', ( #292 ) ) ;
#92 = STYLED_ITEM ( 'NONE', ( #134 ), #116 ) ;
#93 = DIMENSIONAL_EXPONENTS ( 1.000000000000000000, 0.000000000000000000, 0.000000000000000000, 0.000000000000000000, 0.000000000000000000, 0.000000000000000000, 0.000000000000000000 ) ;
#94 = LENGTH_MEASURE_WITH_UNIT ( LENGTH_MEASURE( 0.02539999999999999897 ), #160 );
#95 = CARTESIAN_POINT ( 'NONE',  ( -6.123233995736766036E-17, 2.500000000000000000, 0.000000000000000000 ) ) ;
#96 = ORIENTED_EDGE ( 'NONE', *, *, #191, .F. ) ;
#97 = CLOSED_SHELL ( 'NONE', ( #205, #37, #116, #90 ) ) ;
#98 = EDGE_LOOP ( 'NONE', ( #186, #254, #12, #272 ) ) ;
#99 = ORIENTED_EDGE ( 'NONE', *, *, #289, .F. ) ;
#100 = VERTEX_POINT ( 'NONE', #225 ) ;
#101 = MECHANICAL_DESIGN_GEOMETRIC_PRESENTATION_REPRESENTATION (  '', ( #188 ), #32 ) ;
#102 = UNCERTAINTY_MEASURE_WITH_UNIT (LENGTH_MEASURE( 1.000000000000000082E-05 ), #222, 'distance_accuracy_value', 'NONE');
#103 = CARTESIAN_POINT ( 'NONE',  ( 0.000000000000000000, 0.2641377481542529493, 0.000000000000000000 ) ) ;
#104 =( GEOMETRIC_REPRESENTATION_CONTEXT ( 3 ) GLOBAL_UNCERTAINTY_ASSIGNED_CONTEXT ( ( #47 ) ) GLOBAL_UNIT_ASSIGNED_CONTEXT ( ( #61, #228, #68 ) ) REPRESENTATION_CONTEXT ( 'NONE', 'WORKASPACE' ) );
#105 =( LENGTH_UNIT ( ) NAMED_UNIT ( * ) SI_UNIT ( $, .METRE. ) );
#106 = DIRECTION ( 'NONE',  ( -1.000000000000000000, 0.000000000000000000, 0.000000000000000000 ) ) ;
#107 = FACE_OUTER_BOUND ( 'NONE', #190, .T. ) ;
#108 =( NAMED_UNIT ( * ) PLANE_ANGLE_UNIT ( ) SI_UNIT ( $, .RADIAN. ) );
#109 = MANIFOLD_SOLID_BREP ( 'Revolve - Tool Body (Tipped Off)', #17 ) ;
#110 = CYLINDRICAL_SURFACE ( 'NONE', #138, 0.1874999999999998890 ) ;
#111 = CIRCLE ( 'NONE', #30, 0.1874999999999999722 ) ;
#112 =( GEOMETRIC_REPRESENTATION_CONTEXT ( 3 ) GLOBAL_UNCERTAINTY_ASSIGNED_CONTEXT ( ( #102 ) ) GLOBAL_UNIT_ASSIGNED_CONTEXT ( ( #222, #154, #287 ) ) REPRESENTATION_CONTEXT ( 'NONE', 'WORKASPACE' ) );
#113 = MECHANICAL_DESIGN_GEOMETRIC_PRESENTATION_REPRESENTATION (  '', ( #11 ), #281 ) ;
#114 = DIMENSIONAL_EXPONENTS ( 1.000000000000000000, 0.000000000000000000, 0.000000000000000000, 0.000000000000000000, 0.000000000000000000, 0.000000000000000000, 0.000000000000000000 ) ;
#115 = DIRECTION ( 'NONE',  ( 1.495696521767949812E-16, -1.000000000000000000, 0.000000000000000000 ) ) ;
#116 = ADVANCED_FACE ( 'NONE', ( #62 ), #184, .T. ) ;
#117 = LINE ( 'NONE', #22, #267 ) ;
#118 = APPLICATION_CONTEXT ( 'automotive_design' ) ;
#119 = ORIENTED_EDGE ( 'NONE', *, *, #161, .T. ) ;
#120 = DIRECTION ( 'NONE',  ( 0.000000000000000000, 0.000000000000000000, 1.000000000000000000 ) ) ;
#121 = VERTEX_POINT ( 'NONE', #192 ) ;
#122 = EDGE_CURVE ( 'NONE', #168, #143, #237, .T. ) ;
#123 = PRESENTATION_STYLE_ASSIGNMENT (( #264 ) ) ;
#124 =( NAMED_UNIT ( * ) SI_UNIT ( $, .STERADIAN. ) SOLID_ANGLE_UNIT ( ) );
#125 = CARTESIAN_POINT ( 'NONE',  ( 0.000000000000000000, 0.000000000000000000, 0.000000000000000000 ) ) ;
#126 = LENGTH_MEASURE_WITH_UNIT ( LENGTH_MEASURE( 0.02539999999999999897 ), #178 );
#127 = DIRECTION ( 'NONE',  ( 0.000000000000000000, 1.000000000000000000, 0.000000000000000000 ) ) ;
#128 = CARTESIAN_POINT ( 'NONE',  ( 0.000000000000000000, 0.2641377481542529493, 0.1874999999999999722 ) ) ;
#129 = VECTOR ( 'NONE', #215, 39.37007874015748854 ) ;
#130 = FILL_AREA_STYLE_COLOUR ( '', #248 ) ;
#131 = DIRECTION ( 'NONE',  ( 0.000000000000000000, 0.000000000000000000, 1.000000000000000000 ) ) ;
#132 = DIMENSIONAL_EXPONENTS ( 1.000000000000000000, 0.000000000000000000, 0.000000000000000000, 0.000000000000000000, 0.000000000000000000, 0.000000000000000000, 0.000000000000000000 ) ;
#133 = UNCERTAINTY_MEASURE_WITH_UNIT (LENGTH_MEASURE( 1.000000000000000082E-05 ), #183, 'distance_accuracy_value', 'NONE');
#134 = PRESENTATION_STYLE_ASSIGNMENT (( #268 ) ) ;
#135 = UNCERTAINTY_MEASURE_WITH_UNIT (LENGTH_MEASURE( 1.000000000000000082E-05 ), #217, 'distance_accuracy_value', 'NONE');
#136 = DIRECTION ( 'NONE',  ( -1.000000000000000000, 0.000000000000000000, 0.000000000000000000 ) ) ;
#137 = ORIENTED_EDGE ( 'NONE', *, *, #302, .F. ) ;
#138 = AXIS2_PLACEMENT_3D ( 'NONE', #290, #235, #244 ) ;
#139 = DIMENSIONAL_EXPONENTS ( 1.000000000000000000, 0.000000000000000000, 0.000000000000000000, 0.000000000000000000, 0.000000000000000000, 0.000000000000000000, 0.000000000000000000 ) ;
#140 = CARTESIAN_POINT ( 'NONE',  ( 2.731847993664263218E-16, 0.2641377481542530603, 0.000000000000000000 ) ) ;
#141 = AXIS2_PLACEMENT_3D ( 'NONE', #4, #202, #120 ) ;
#142 = LENGTH_MEASURE_WITH_UNIT ( LENGTH_MEASURE( 0.02539999999999999897 ), #198 );
#143 = VERTEX_POINT ( 'NONE', #146 ) ;
#144 =( GEOMETRIC_REPRESENTATION_CONTEXT ( 3 ) GLOBAL_UNCERTAINTY_ASSIGNED_CONTEXT ( ( #240 ) ) GLOBAL_UNIT_ASSIGNED_CONTEXT ( ( #150, #38, #124 ) ) REPRESENTATION_CONTEXT ( 'NONE', 'WORKASPACE' ) );
#145 = EDGE_LOOP ( 'NONE', ( #236, #187, #119, #304 ) ) ;
#146 = CARTESIAN_POINT ( 'NONE',  ( 2.296212748401287109E-17, 0.2641377481542529493, -0.1874999999999999722 ) ) ;
#147 = ADVANCED_FACE ( 'NONE', ( #157 ), #110, .T. ) ;
#148 = VERTEX_POINT ( 'NONE', #21 ) ;
#149 =( LENGTH_UNIT ( ) NAMED_UNIT ( * ) SI_UNIT ( $, .METRE. ) );
#150 =( CONVERSION_BASED_UNIT ( 'INCH', #142 ) LENGTH_UNIT ( ) NAMED_UNIT ( #34 ) );
#151 =( NAMED_UNIT ( * ) PLANE_ANGLE_UNIT ( ) SI_UNIT ( $, .RADIAN. ) );
#152 = PRESENTATION_LAYER_ASSIGNMENT (  '', '', ( #305 ) ) ;
#153 = LINE ( 'NONE', #26, #299 ) ;
#154 =( NAMED_UNIT ( * ) PLANE_ANGLE_UNIT ( ) SI_UNIT ( $, .RADIAN. ) );
#155 =( NAMED_UNIT ( * ) SI_UNIT ( $, .STERADIAN. ) SOLID_ANGLE_UNIT ( ) );
#156 = FILL_AREA_STYLE ('',( #79 ) ) ;
#157 = FACE_OUTER_BOUND ( 'NONE', #98, .T. ) ;
#158 = COLOUR_RGB ( '',0.7921568627450980005, 0.8196078431372548767, 0.9333333333333333481 ) ;
#159 = AXIS2_PLACEMENT_3D ( 'NONE', #1, #263, #176 ) ;
#160 =( LENGTH_UNIT ( ) NAMED_UNIT ( * ) SI_UNIT ( $, .METRE. ) );
#161 = EDGE_CURVE ( 'NONE', #143, #166, #181, .T. ) ;
#162 = FILL_AREA_STYLE ('',( #269 ) ) ;
#163 = AXIS2_PLACEMENT_3D ( 'NONE', #125, #223, #53 ) ;
#164 = APPLICATION_CONTEXT ( 'automotive_design' ) ;
#165 = FILL_AREA_STYLE ('',( #7 ) ) ;
#166 = VERTEX_POINT ( 'NONE', #128 ) ;
#167 = DIRECTION ( 'NONE',  ( -1.495696521767949812E-16, 1.000000000000000000, -0.000000000000000000 ) ) ;
#168 = VERTEX_POINT ( 'NONE', #276 ) ;
#169 = ORIENTED_EDGE ( 'NONE', *, *, #59, .T. ) ;
#170 = AXIS2_PLACEMENT_3D ( 'NONE', #95, #167, #106 ) ;
#171 = CARTESIAN_POINT ( 'NONE',  ( -6.123233995736764803E-17, 2.500000000000000000, 0.000000000000000000 ) ) ;
#172 = CONICAL_SURFACE ( 'NONE', #255, 0.03500000000000000333, 0.5235987755983001479 ) ;
#173 = DIRECTION ( 'NONE',  ( -1.000000000000000000, -1.821231995776178437E-16, 0.000000000000000000 ) ) ;
#174 = DIRECTION ( 'NONE',  ( -1.495696521767949812E-16, 1.000000000000000000, -0.000000000000000000 ) ) ;
#175 = DIRECTION ( 'NONE',  ( 0.000000000000000000, 0.000000000000000000, -1.000000000000000000 ) ) ;
#176 = DIRECTION ( 'NONE',  ( 0.000000000000000000, 0.000000000000000000, -1.000000000000000000 ) ) ;
#177 = CARTESIAN_POINT ( 'NONE',  ( 0.000000000000000000, 0.000000000000000000, 0.000000000000000000 ) ) ;
#178 =( LENGTH_UNIT ( ) NAMED_UNIT ( * ) SI_UNIT ( $, .METRE. ) );
#179 = PRODUCT_DEFINITION ( 'UNKNOWN', '', #284, #309 ) ;
#180 = SURFACE_STYLE_FILL_AREA ( #162 ) ;
#181 = CIRCLE ( 'NONE', #85, 0.1874999999999999722 ) ;
#182 = ADVANCED_FACE ( 'NONE', ( #246 ), #72, .F. ) ;
#183 =( CONVERSION_BASED_UNIT ( 'INCH', #224 ) LENGTH_UNIT ( ) NAMED_UNIT ( #132 ) );
#184 = CONICAL_SURFACE ( 'NONE', #141, 0.03500000000000000333, 0.5235987755983001479 ) ;
#185 = CARTESIAN_POINT ( 'NONE',  ( 2.731847993664263218E-16, 0.2641377481542530603, 0.000000000000000000 ) ) ;
#186 = ORIENTED_EDGE ( 'NONE', *, *, #29, .F. ) ;
#187 = ORIENTED_EDGE ( 'NONE', *, *, #122, .T. ) ;
#188 = STYLED_ITEM ( 'NONE', ( #33 ), #109 ) ;
#189 = DIRECTION ( 'NONE',  ( -1.495696521767949812E-16, 1.000000000000000000, -0.000000000000000000 ) ) ;
#190 = EDGE_LOOP ( 'NONE', ( #137, #214 ) ) ;
#191 = EDGE_CURVE ( 'NONE', #100, #148, #24, .T. ) ;
#192 = CARTESIAN_POINT ( 'NONE',  ( 0.000000000000000000, 0.000000000000000000, 0.03500000000000000333 ) ) ;
#193 = DIRECTION ( 'NONE',  ( 0.000000000000000000, 0.8660254037844379305, 0.5000000000000009992 ) ) ;
#194 = PRESENTATION_LAYER_ASSIGNMENT (  '', '', ( #92 ) ) ;
#195 = COLOUR_RGB ( '',1.000000000000000000, 0.000000000000000000, 0.000000000000000000 ) ;
#196 = SURFACE_SIDE_STYLE ('',( #50 ) ) ;
#197 = DIRECTION ( 'NONE',  ( 0.000000000000000000, -0.000000000000000000, 1.000000000000000000 ) ) ;
#198 =( LENGTH_UNIT ( ) NAMED_UNIT ( * ) SI_UNIT ( $, .METRE. ) );
#199 =( NAMED_UNIT ( * ) SI_UNIT ( $, .STERADIAN. ) SOLID_ANGLE_UNIT ( ) );
#200 = FACE_OUTER_BOUND ( 'NONE', #145, .T. ) ;
#201 = FILL_AREA_STYLE_COLOUR ( '', #80 ) ;
#202 = DIRECTION ( 'NONE',  ( 0.000000000000000000, 1.000000000000000000, 0.000000000000000000 ) ) ;
#203 = SURFACE_SIDE_STYLE ('',( #36 ) ) ;
#204 = AXIS2_PLACEMENT_3D ( 'NONE', #171, #71, #3 ) ;
#205 = ADVANCED_FACE ( 'NONE', ( #200 ), #172, .T. ) ;
#206 = SURFACE_STYLE_USAGE ( .BOTH. , #86 ) ;
#207 = STYLED_ITEM ( 'NONE', ( #8 ), #307 ) ;
#208 = MECHANICAL_DESIGN_GEOMETRIC_PRESENTATION_REPRESENTATION (  '', ( #226 ), #112 ) ;
#209 = CIRCLE ( 'NONE', #296, 0.1874999999999996947 ) ;
#210 = DIRECTION ( 'NONE',  ( 0.000000000000000000, 0.000000000000000000, 1.000000000000000000 ) ) ;
#211 =( NAMED_UNIT ( * ) PLANE_ANGLE_UNIT ( ) SI_UNIT ( $, .RADIAN. ) );
#212 = ORIENTED_EDGE ( 'NONE', *, *, #64, .T. ) ;
#213 = PLANE ( 'NONE',  #39 ) ;
#214 = ORIENTED_EDGE ( 'NONE', *, *, #161, .F. ) ;
#215 = DIRECTION ( 'NONE',  ( 6.123233995736778362E-17, 0.8660254037844379305, -0.5000000000000009992 ) ) ;
#216 = EDGE_LOOP ( 'NONE', ( #301, #256, #212, #48 ) ) ;
#217 =( CONVERSION_BASED_UNIT ( 'INCH', #13 ) LENGTH_UNIT ( ) NAMED_UNIT ( #139 ) );
#218 = AXIS2_PLACEMENT_3D ( 'NONE', #75, #52, #136 ) ;
#219 = CIRCLE ( 'NONE', #218, 0.1875000000000000555 ) ;
#220 = SURFACE_SIDE_STYLE ('',( #78 ) ) ;
#221 = FACE_OUTER_BOUND ( 'NONE', #65, .T. ) ;
#222 =( CONVERSION_BASED_UNIT ( 'INCH', #242 ) LENGTH_UNIT ( ) NAMED_UNIT ( #66 ) );
#223 = DIRECTION ( 'NONE',  ( -0.000000000000000000, -1.000000000000000000, -0.000000000000000000 ) ) ;
#224 = LENGTH_MEASURE_WITH_UNIT ( LENGTH_MEASURE( 0.02539999999999999897 ), #291 );
#225 = CARTESIAN_POINT ( 'NONE',  ( -0.1875000000000001110, 2.500000000000000000, 0.000000000000000000 ) ) ;
#226 = STYLED_ITEM ( 'NONE', ( #265 ), #37 ) ;
#227 = DIMENSIONAL_EXPONENTS ( 1.000000000000000000, 0.000000000000000000, 0.000000000000000000, 0.000000000000000000, 0.000000000000000000, 0.000000000000000000, 0.000000000000000000 ) ;
#228 =( NAMED_UNIT ( * ) PLANE_ANGLE_UNIT ( ) SI_UNIT ( $, .RADIAN. ) );
#229 = DIRECTION ( 'NONE',  ( -0.000000000000000000, -1.000000000000000000, -0.000000000000000000 ) ) ;
#230 =( GEOMETRIC_REPRESENTATION_CONTEXT ( 3 ) GLOBAL_UNCERTAINTY_ASSIGNED_CONTEXT ( ( #262 ) ) GLOBAL_UNIT_ASSIGNED_CONTEXT ( ( #258, #108, #155 ) ) REPRESENTATION_CONTEXT ( 'NONE', 'WORKASPACE' ) );
#231 = EDGE_LOOP ( 'NONE', ( #252, #99 ) ) ;
#232 = ORIENTED_EDGE ( 'NONE', *, *, #308, .T. ) ;
#233 =( LENGTH_UNIT ( ) NAMED_UNIT ( * ) SI_UNIT ( $, .METRE. ) );
#234 = CIRCLE ( 'NONE', #159, 0.03500000000000000333 ) ;
#235 = DIRECTION ( 'NONE',  ( -1.495696521767949812E-16, 1.000000000000000000, -0.000000000000000000 ) ) ;
#236 = ORIENTED_EDGE ( 'NONE', *, *, #43, .F. ) ;
#237 = LINE ( 'NONE', #303, #129 ) ;
#238 = DIRECTION ( 'NONE',  ( 1.000000000000000000, 1.495696521767949812E-16, 0.000000000000000000 ) ) ;
#239 = PLANE ( 'NONE',  #73 ) ;
#240 = UNCERTAINTY_MEASURE_WITH_UNIT (LENGTH_MEASURE( 1.000000000000000082E-05 ), #150, 'distance_accuracy_value', 'NONE');
#241 = FILL_AREA_STYLE ('',( #41 ) ) ;
#242 = LENGTH_MEASURE_WITH_UNIT ( LENGTH_MEASURE( 0.02539999999999999897 ), #149 );
#243 = EDGE_CURVE ( 'NONE', #42, #100, #117, .T. ) ;
#244 = DIRECTION ( 'NONE',  ( -1.000000000000000000, 0.000000000000000000, 0.000000000000000000 ) ) ;
#245 = SURFACE_SIDE_STYLE ('',( #23 ) ) ;
#246 = FACE_OUTER_BOUND ( 'NONE', #231, .T. ) ;
#247 = PRESENTATION_LAYER_ASSIGNMENT (  '', '', ( #207 ) ) ;
#248 = COLOUR_RGB ( '',1.000000000000000000, 0.000000000000000000, 0.000000000000000000 ) ;
#249 =( GEOMETRIC_REPRESENTATION_CONTEXT ( 3 ) GLOBAL_UNCERTAINTY_ASSIGNED_CONTEXT ( ( #135 ) ) GLOBAL_UNIT_ASSIGNED_CONTEXT ( ( #217, #211, #67 ) ) REPRESENTATION_CONTEXT ( 'NONE', 'WORKASPACE' ) );
#250 =( NAMED_UNIT ( * ) SI_UNIT ( $, .STERADIAN. ) SOLID_ANGLE_UNIT ( ) );
#251 = DIRECTION ( 'NONE',  ( -1.000000000000000000, -1.821231995776178437E-16, 0.000000000000000000 ) ) ;
#252 = ORIENTED_EDGE ( 'NONE', *, *, #308, .F. ) ;
#253 = FACE_OUTER_BOUND ( 'NONE', #275, .T. ) ;
#254 = ORIENTED_EDGE ( 'NONE', *, *, #289, .T. ) ;
#255 = AXIS2_PLACEMENT_3D ( 'NONE', #177, #288, #210 ) ;
#256 = ORIENTED_EDGE ( 'NONE', *, *, #59, .F. ) ;
#257 = CIRCLE ( 'NONE', #294, 0.1874999999999996947 ) ;
#258 =( CONVERSION_BASED_UNIT ( 'INCH', #126 ) LENGTH_UNIT ( ) NAMED_UNIT ( #114 ) );
#259 = MECHANICAL_DESIGN_GEOMETRIC_PRESENTATION_REPRESENTATION (  '', ( #92 ), #104 ) ;
#260 = SURFACE_SIDE_STYLE ('',( #56 ) ) ;
#261 = ADVANCED_FACE ( 'NONE', ( #253 ), #213, .F. ) ;
#262 = UNCERTAINTY_MEASURE_WITH_UNIT (LENGTH_MEASURE( 1.000000000000000082E-05 ), #258, 'distance_accuracy_value', 'NONE');
#263 = DIRECTION ( 'NONE',  ( -0.000000000000000000, -1.000000000000000000, -0.000000000000000000 ) ) ;
#264 = SURFACE_STYLE_USAGE ( .BOTH. , #245 ) ;
#265 = PRESENTATION_STYLE_ASSIGNMENT (( #51 ) ) ;
#266 = FILL_AREA_STYLE ('',( #130 ) ) ;
#267 = VECTOR ( 'NONE', #306, 39.37007874015748143 ) ;
#268 = SURFACE_STYLE_USAGE ( .BOTH. , #203 ) ;
#269 = FILL_AREA_STYLE_COLOUR ( '', #158 ) ;
#270 = APPLICATION_PROTOCOL_DEFINITION ( 'draft international standard', 'automotive_design', 1998, #118 ) ;
#271 = CARTESIAN_POINT ( 'NONE',  ( 0.000000000000000000, 0.000000000000000000, 0.000000000000000000 ) ) ;
#272 = ORIENTED_EDGE ( 'NONE', *, *, #277, .F. ) ;
#273 = ORIENTED_EDGE ( 'NONE', *, *, #191, .T. ) ;
#274 = ORIENTED_EDGE ( 'NONE', *, *, #277, .T. ) ;
#275 = EDGE_LOOP ( 'NONE', ( #273, #274 ) ) ;
#276 = CARTESIAN_POINT ( 'NONE',  ( 1.362419564051430200E-17, 0.000000000000000000, -0.03500000000000000333 ) ) ;
#277 = EDGE_CURVE ( 'NONE', #148, #100, #219, .T. ) ;
#278 = CARTESIAN_POINT ( 'NONE',  ( 0.000000000000000000, 0.2641377481542529493, 0.000000000000000000 ) ) ;
#279 = PRESENTATION_LAYER_ASSIGNMENT (  '', '', ( #11 ) ) ;
#280 = CIRCLE ( 'NONE', #163, 0.03500000000000000333 ) ;
#281 =( GEOMETRIC_REPRESENTATION_CONTEXT ( 3 ) GLOBAL_UNCERTAINTY_ASSIGNED_CONTEXT ( ( #16 ) ) GLOBAL_UNIT_ASSIGNED_CONTEXT ( ( #76, #151, #199 ) ) REPRESENTATION_CONTEXT ( 'NONE', 'WORKASPACE' ) );
#282 = DIRECTION ( 'NONE',  ( -1.495696521767949812E-16, 1.000000000000000000, -0.000000000000000000 ) ) ;
#283 = LENGTH_MEASURE_WITH_UNIT ( LENGTH_MEASURE( 0.02539999999999999897 ), #105 );
#284 = PRODUCT_DEFINITION_FORMATION_WITH_SPECIFIED_SOURCE ( 'ANY', '', #91, .NOT_KNOWN. ) ;
#285 = CARTESIAN_POINT ( 'NONE',  ( 0.1874999999999999722, 2.500000000000000000, 0.000000000000000000 ) ) ;
#286 = CARTESIAN_POINT ( 'NONE',  ( -0.1874999999999994449, 0.2641377481542530048, 0.000000000000000000 ) ) ;
#287 =( NAMED_UNIT ( * ) SI_UNIT ( $, .STERADIAN. ) SOLID_ANGLE_UNIT ( ) );
#288 = DIRECTION ( 'NONE',  ( 0.000000000000000000, 1.000000000000000000, 0.000000000000000000 ) ) ;
#289 = EDGE_CURVE ( 'NONE', #20, #42, #209, .T. ) ;
#290 = CARTESIAN_POINT ( 'NONE',  ( -6.123233995736766036E-17, 2.500000000000000000, 0.000000000000000000 ) ) ;
#291 =( LENGTH_UNIT ( ) NAMED_UNIT ( * ) SI_UNIT ( $, .METRE. ) );
#292 = PRODUCT_CONTEXT ( 'NONE', #118, 'mechanical' ) ;
#293 = ADVANCED_FACE ( 'NONE', ( #77 ), #15, .T. ) ;
#294 = AXIS2_PLACEMENT_3D ( 'NONE', #140, #189, #251 ) ;
#295 =( NAMED_UNIT ( * ) PLANE_ANGLE_UNIT ( ) SI_UNIT ( $, .RADIAN. ) );
#296 = AXIS2_PLACEMENT_3D ( 'NONE', #185, #282, #173 ) ;
#297 = MECHANICAL_DESIGN_GEOMETRIC_PRESENTATION_REPRESENTATION (  '', ( #305 ), #230 ) ;
#298 = SURFACE_STYLE_USAGE ( .BOTH. , #196 ) ;
#299 = VECTOR ( 'NONE', #174, 39.37007874015748143 ) ;
#300 = ORIENTED_EDGE ( 'NONE', *, *, #43, .T. ) ;
#301 = ORIENTED_EDGE ( 'NONE', *, *, #122, .F. ) ;
#302 = EDGE_CURVE ( 'NONE', #166, #143, #111, .T. ) ;
#303 = CARTESIAN_POINT ( 'NONE',  ( 4.286263797015735979E-18, 0.000000000000000000, -0.03500000000000000333 ) ) ;
#304 = ORIENTED_EDGE ( 'NONE', *, *, #64, .F. ) ;
#305 = STYLED_ITEM ( 'NONE', ( #54 ), #205 ) ;
#306 = DIRECTION ( 'NONE',  ( -1.495696521767949812E-16, 1.000000000000000000, -0.000000000000000000 ) ) ;
#307 = MANIFOLD_SOLID_BREP ( 'Revolve - Cutting Edge', #97 ) ;
#308 = EDGE_CURVE ( 'NONE', #42, #20, #257, .T. ) ;
#309 = PRODUCT_DEFINITION_CONTEXT ( 'detailed design', #164, 'design' ) ;
ENDSEC;
END-ISO-10303-21;
