ISO-10303-21;
HEADER;
FILE_DESCRIPTION (( 'STEP AP214' ),
    '1' );
FILE_NAME ('81460.STEP',
    '2023-06-30T22:27:32',
    ( '' ),
    ( '' ),
    'SwSTEP 2.0',
    'SolidWorks 2023',
    '' );
FILE_SCHEMA (( 'AUTOMOTIVE_DESIGN' ));
ENDSEC;

DATA;
#1 =( CONVERSION_BASED_UNIT ( 'INCH', #286 ) LENGTH_UNIT ( ) NAMED_UNIT ( #189 ) );
#2 = PRESENTATION_STYLE_ASSIGNMENT (( #5 ) ) ;
#3 = CIRCLE ( 'NONE', #47, 0.1250000000000000000 ) ;
#4 =( GEOMETRIC_REPRESENTATION_CONTEXT ( 3 ) GLOBAL_UNCERTAINTY_ASSIGNED_CONTEXT ( ( #70 ) ) GLOBAL_UNIT_ASSIGNED_CONTEXT ( ( #159, #132, #324 ) ) REPRESENTATION_CONTEXT ( 'NONE', 'WORKASPACE' ) );
#5 = SURFACE_STYLE_USAGE ( .BOTH. , #261 ) ;
#6 = CARTESIAN_POINT ( 'NONE',  ( -1.224646799147353700E-16, 3.000000000000000444, 0.000000000000000000 ) ) ;
#7 = CARTESIAN_POINT ( 'NONE',  ( -1.530808498934191201E-17, 0.1249999999999999861, 0.000000000000000000 ) ) ;
#8 = DIRECTION ( 'NONE',  ( 1.224646799147353207E-16, -0.000000000000000000, 1.000000000000000000 ) ) ;
#9 = AXIS2_PLACEMENT_3D ( 'NONE', #144, #93, #258 ) ;
#10 = FILL_AREA_STYLE ('',( #40 ) ) ;
#11 = CIRCLE ( 'NONE', #135, 0.1249999999999999584 ) ;
#12 = FILL_AREA_STYLE_COLOUR ( '', #91 ) ;
#13 =( NAMED_UNIT ( * ) PLANE_ANGLE_UNIT ( ) SI_UNIT ( $, .RADIAN. ) );
#14 = DIRECTION ( 'NONE',  ( -1.000000000000000000, 0.000000000000000000, 0.000000000000000000 ) ) ;
#15 = CARTESIAN_POINT ( 'NONE',  ( 9.184850993605145972E-17, 1.250000000000000000, 0.000000000000000000 ) ) ;
#16 = VECTOR ( 'NONE', #180, 39.37007874015748143 ) ;
#17 = DIRECTION ( 'NONE',  ( 0.000000000000000000, 0.000000000000000000, 1.000000000000000000 ) ) ;
#18 = SURFACE_STYLE_USAGE ( .BOTH. , #73 ) ;
#19 = ORIENTED_EDGE ( 'NONE', *, *, #79, .F. ) ;
#20 = ORIENTED_EDGE ( 'NONE', *, *, #249, .T. ) ;
#21 =( GEOMETRIC_REPRESENTATION_CONTEXT ( 3 ) GLOBAL_UNCERTAINTY_ASSIGNED_CONTEXT ( ( #308 ) ) GLOBAL_UNIT_ASSIGNED_CONTEXT ( ( #1, #13, #234 ) ) REPRESENTATION_CONTEXT ( 'NONE', 'WORKASPACE' ) );
#22 = STYLED_ITEM ( 'NONE', ( #2 ), #69 ) ;
#23 = AXIS2_PLACEMENT_3D ( 'NONE', #356, #355, #75 ) ;
#24 = PRESENTATION_STYLE_ASSIGNMENT (( #18 ) ) ;
#25 = ORIENTED_EDGE ( 'NONE', *, *, #128, .F. ) ;
#26 = DIRECTION ( 'NONE',  ( -0.000000000000000000, -1.000000000000000000, -0.000000000000000000 ) ) ;
#27 = AXIS2_PLACEMENT_3D ( 'NONE', #300, #162, #31 ) ;
#28 = DIRECTION ( 'NONE',  ( -0.000000000000000000, -1.000000000000000000, -0.000000000000000000 ) ) ;
#29 = PRODUCT ( '81460', '81460', '', ( #80 ) ) ;
#30 = DIRECTION ( 'NONE',  ( 0.000000000000000000, 0.000000000000000000, -1.000000000000000000 ) ) ;
#31 = DIRECTION ( 'NONE',  ( 0.000000000000000000, 0.000000000000000000, -1.000000000000000000 ) ) ;
#32 =( GEOMETRIC_REPRESENTATION_CONTEXT ( 3 ) GLOBAL_UNCERTAINTY_ASSIGNED_CONTEXT ( ( #198 ) ) GLOBAL_UNIT_ASSIGNED_CONTEXT ( ( #357, #105, #332 ) ) REPRESENTATION_CONTEXT ( 'NONE', 'WORKASPACE' ) );
#33 = SURFACE_STYLE_FILL_AREA ( #64 ) ;
#34 = AXIS2_PLACEMENT_3D ( 'NONE', #83, #130, #307 ) ;
#35 = CYLINDRICAL_SURFACE ( 'NONE', #96, 0.1249999999999998612 ) ;
#36 = ADVANCED_FACE ( 'NONE', ( #325 ), #181, .T. ) ;
#37 = LENGTH_MEASURE_WITH_UNIT ( LENGTH_MEASURE( 0.02539999999999999897 ), #346 );
#38 = ADVANCED_FACE ( 'NONE', ( #89 ), #344, .T. ) ;
#39 = CYLINDRICAL_SURFACE ( 'NONE', #204, 0.1249999999999998612 ) ;
#40 = FILL_AREA_STYLE_COLOUR ( '', #177 ) ;
#41 = LINE ( 'NONE', #149, #334 ) ;
#42 = CIRCLE ( 'NONE', #23, 0.1250000000000000000 ) ;
#43 = CARTESIAN_POINT ( 'NONE',  ( 0.1249999999999998473, 3.000000000000000444, 1.530808498934190585E-17 ) ) ;
#44 = UNCERTAINTY_MEASURE_WITH_UNIT (LENGTH_MEASURE( 1.000000000000000082E-05 ), #289, 'distance_accuracy_value', 'NONE');
#45 = SURFACE_STYLE_FILL_AREA ( #219 ) ;
#46 = DIMENSIONAL_EXPONENTS ( 1.000000000000000000, 0.000000000000000000, 0.000000000000000000, 0.000000000000000000, 0.000000000000000000, 0.000000000000000000, 0.000000000000000000 ) ;
#47 = AXIS2_PLACEMENT_3D ( 'NONE', #262, #8, #268 ) ;
#48 = SURFACE_STYLE_USAGE ( .BOTH. , #51 ) ;
#49 = ORIENTED_EDGE ( 'NONE', *, *, #98, .F. ) ;
#50 = EDGE_CURVE ( 'NONE', #218, #271, #237, .T. ) ;
#51 = SURFACE_SIDE_STYLE ('',( #45 ) ) ;
#52 = PRESENTATION_STYLE_ASSIGNMENT (( #165 ) ) ;
#53 = ORIENTED_EDGE ( 'NONE', *, *, #104, .F. ) ;
#54 = DIRECTION ( 'NONE',  ( -1.224646799147353207E-16, 1.000000000000000000, -0.000000000000000000 ) ) ;
#55 = MECHANICAL_DESIGN_GEOMETRIC_PRESENTATION_REPRESENTATION (  '', ( #71 ), #367 ) ;
#56 = AXIS2_PLACEMENT_3D ( 'NONE', #108, #302, #217 ) ;
#57 =( NAMED_UNIT ( * ) PLANE_ANGLE_UNIT ( ) SI_UNIT ( $, .RADIAN. ) );
#58 = ORIENTED_EDGE ( 'NONE', *, *, #236, .T. ) ;
#59 =( NAMED_UNIT ( * ) PLANE_ANGLE_UNIT ( ) SI_UNIT ( $, .RADIAN. ) );
#60 = EDGE_LOOP ( 'NONE', ( #328, #163, #360, #136 ) ) ;
#61 = PRESENTATION_LAYER_ASSIGNMENT (  '', '', ( #227 ) ) ;
#62 =( LENGTH_UNIT ( ) NAMED_UNIT ( * ) SI_UNIT ( $, .METRE. ) );
#63 = EDGE_CURVE ( 'NONE', #331, #254, #337, .T. ) ;
#64 = FILL_AREA_STYLE ('',( #206 ) ) ;
#65 = CARTESIAN_POINT ( 'NONE',  ( 0.000000000000000000, 0.1250000000000000000, 0.000000000000000000 ) ) ;
#66 = DIRECTION ( 'NONE',  ( -1.224646799147353207E-16, 1.000000000000000000, -0.000000000000000000 ) ) ;
#67 = LINE ( 'NONE', #244, #16 ) ;
#68 = DIRECTION ( 'NONE',  ( 0.000000000000000000, 0.000000000000000000, -1.000000000000000000 ) ) ;
#69 = MANIFOLD_SOLID_BREP ( 'Revolve - Tool Body (Straight Shanked)', #150 ) ;
#70 = UNCERTAINTY_MEASURE_WITH_UNIT (LENGTH_MEASURE( 1.000000000000000082E-05 ), #159, 'distance_accuracy_value', 'NONE');
#71 = STYLED_ITEM ( 'NONE', ( #122 ), #38 ) ;
#72 = COLOUR_RGB ( '',1.000000000000000000, 0.000000000000000000, 0.000000000000000000 ) ;
#73 = SURFACE_SIDE_STYLE ('',( #214 ) ) ;
#74 = DIMENSIONAL_EXPONENTS ( 1.000000000000000000, 0.000000000000000000, 0.000000000000000000, 0.000000000000000000, 0.000000000000000000, 0.000000000000000000, 0.000000000000000000 ) ;
#75 = DIRECTION ( 'NONE',  ( -1.000000000000000000, 0.000000000000000000, 0.000000000000000000 ) ) ;
#76 = AXIS2_PLACEMENT_3D ( 'NONE', #157, #17, #362 ) ;
#77 = AXIS2_PLACEMENT_3D ( 'NONE', #240, #153, #68 ) ;
#78 = VERTEX_POINT ( 'NONE', #233 ) ;
#79 = EDGE_CURVE ( 'NONE', #78, #215, #3, .T. ) ;
#80 = PRODUCT_CONTEXT ( 'NONE', #345, 'mechanical' ) ;
#81 =( NAMED_UNIT ( * ) SI_UNIT ( $, .STERADIAN. ) SOLID_ANGLE_UNIT ( ) );
#82 = VERTEX_POINT ( 'NONE', #316 ) ;
#83 = CARTESIAN_POINT ( 'NONE',  ( 0.000000000000000000, 0.1250000000000000000, 0.000000000000000000 ) ) ;
#84 = MECHANICAL_DESIGN_GEOMETRIC_PRESENTATION_REPRESENTATION (  '', ( #120 ), #21 ) ;
#85 = ORIENTED_EDGE ( 'NONE', *, *, #156, .F. ) ;
#86 = CARTESIAN_POINT ( 'NONE',  ( 0.000000000000000000, 1.250000000000000000, -0.1249999999999998473 ) ) ;
#87 = SURFACE_STYLE_FILL_AREA ( #265 ) ;
#88 = SURFACE_STYLE_USAGE ( .BOTH. , #283 ) ;
#89 = FACE_OUTER_BOUND ( 'NONE', #60, .T. ) ;
#90 = ADVANCED_FACE ( 'NONE', ( #186 ), #35, .T. ) ;
#91 = COLOUR_RGB ( '',0.7921568627450980005, 0.8196078431372548767, 0.9333333333333333481 ) ;
#92 = SURFACE_STYLE_FILL_AREA ( #232 ) ;
#93 = DIRECTION ( 'NONE',  ( 0.000000000000000000, 0.000000000000000000, 1.000000000000000000 ) ) ;
#94 = FACE_OUTER_BOUND ( 'NONE', #110, .T. ) ;
#95 = EDGE_CURVE ( 'NONE', #116, #223, #146, .T. ) ;
#96 = AXIS2_PLACEMENT_3D ( 'NONE', #6, #66, #211 ) ;
#97 = DIRECTION ( 'NONE',  ( -1.224646799147353207E-16, 1.000000000000000000, -0.000000000000000000 ) ) ;
#98 = EDGE_CURVE ( 'NONE', #333, #82, #354, .T. ) ;
#99 = CARTESIAN_POINT ( 'NONE',  ( -1.224646799147353700E-16, 3.000000000000000444, 0.000000000000000000 ) ) ;
#100 =( NAMED_UNIT ( * ) PLANE_ANGLE_UNIT ( ) SI_UNIT ( $, .RADIAN. ) );
#101 = PRODUCT_DEFINITION ( 'UNKNOWN', '', #298, #112 ) ;
#102 = LINE ( 'NONE', #161, #371 ) ;
#103 = LENGTH_MEASURE_WITH_UNIT ( LENGTH_MEASURE( 0.02539999999999999897 ), #133 );
#104 = EDGE_CURVE ( 'NONE', #166, #271, #41, .T. ) ;
#105 =( NAMED_UNIT ( * ) PLANE_ANGLE_UNIT ( ) SI_UNIT ( $, .RADIAN. ) );
#106 = ADVANCED_FACE ( 'NONE', ( #347 ), #241, .F. ) ;
#107 = ORIENTED_EDGE ( 'NONE', *, *, #115, .T. ) ;
#108 = CARTESIAN_POINT ( 'NONE',  ( 0.000000000000000000, 1.250000000000000000, 0.000000000000000000 ) ) ;
#109 = MECHANICAL_DESIGN_GEOMETRIC_PRESENTATION_REPRESENTATION (  '', ( #317 ), #32 ) ;
#110 = EDGE_LOOP ( 'NONE', ( #138, #228 ) ) ;
#111 = FILL_AREA_STYLE_COLOUR ( '', #348 ) ;
#112 = PRODUCT_DEFINITION_CONTEXT ( 'detailed design', #175, 'design' ) ;
#113 = ORIENTED_EDGE ( 'NONE', *, *, #50, .F. ) ;
#114 = ORIENTED_EDGE ( 'NONE', *, *, #63, .F. ) ;
#115 = EDGE_CURVE ( 'NONE', #254, #218, #285, .T. ) ;
#116 = VERTEX_POINT ( 'NONE', #43 ) ;
#117 = MECHANICAL_DESIGN_GEOMETRIC_PRESENTATION_REPRESENTATION (  '', ( #22 ), #321 ) ;
#118 =( CONVERSION_BASED_UNIT ( 'INCH', #263 ) LENGTH_UNIT ( ) NAMED_UNIT ( #195 ) );
#119 = FILL_AREA_STYLE_COLOUR ( '', #361 ) ;
#120 = STYLED_ITEM ( 'NONE', ( #373 ), #372 ) ;
#121 = SURFACE_SIDE_STYLE ('',( #33 ) ) ;
#122 = PRESENTATION_STYLE_ASSIGNMENT (( #230 ) ) ;
#123 =( NAMED_UNIT ( * ) SI_UNIT ( $, .STERADIAN. ) SOLID_ANGLE_UNIT ( ) );
#124 = CIRCLE ( 'NONE', #178, 0.1249999999999997363 ) ;
#125 = DIRECTION ( 'NONE',  ( -1.000000000000000000, -1.224646799147353207E-16, 0.000000000000000000 ) ) ;
#126 = FILL_AREA_STYLE ('',( #12 ) ) ;
#127 = SURFACE_STYLE_FILL_AREA ( #10 ) ;
#128 = EDGE_CURVE ( 'NONE', #82, #333, #124, .T. ) ;
#129 = CARTESIAN_POINT ( 'NONE',  ( 0.1249999999999998473, 3.000000000000000444, 0.000000000000000000 ) ) ;
#130 = DIRECTION ( 'NONE',  ( -0.000000000000000000, -1.000000000000000000, -0.000000000000000000 ) ) ;
#131 = ADVANCED_FACE ( 'NONE', ( #94 ), #188, .F. ) ;
#132 =( NAMED_UNIT ( * ) PLANE_ANGLE_UNIT ( ) SI_UNIT ( $, .RADIAN. ) );
#133 =( LENGTH_UNIT ( ) NAMED_UNIT ( * ) SI_UNIT ( $, .METRE. ) );
#134 = ORIENTED_EDGE ( 'NONE', *, *, #287, .F. ) ;
#135 = AXIS2_PLACEMENT_3D ( 'NONE', #190, #54, #275 ) ;
#136 = ORIENTED_EDGE ( 'NONE', *, *, #50, .T. ) ;
#137 = CARTESIAN_POINT ( 'NONE',  ( 1.530808498934191201E-17, 0.1250000000000000000, 0.1249999999999999584 ) ) ;
#138 = ORIENTED_EDGE ( 'NONE', *, *, #277, .T. ) ;
#139 = EDGE_LOOP ( 'NONE', ( #225, #196, #276, #306 ) ) ;
#140 = PRESENTATION_STYLE_ASSIGNMENT (( #88 ) ) ;
#141 = PRESENTATION_LAYER_ASSIGNMENT (  '', '', ( #264 ) ) ;
#142 = FILL_AREA_STYLE ('',( #339 ) ) ;
#143 = CARTESIAN_POINT ( 'NONE',  ( 0.000000000000000000, 0.000000000000000000, -0.1249999999999999167 ) ) ;
#144 = CARTESIAN_POINT ( 'NONE',  ( -1.530808498934191201E-17, 0.1249999999999999861, 0.000000000000000000 ) ) ;
#145 = FACE_OUTER_BOUND ( 'NONE', #250, .T. ) ;
#146 = CIRCLE ( 'NONE', #363, 0.1249999999999999584 ) ;
#147 =( LENGTH_UNIT ( ) NAMED_UNIT ( * ) SI_UNIT ( $, .METRE. ) );
#148 = LENGTH_MEASURE_WITH_UNIT ( LENGTH_MEASURE( 0.02539999999999999897 ), #284 );
#149 = CARTESIAN_POINT ( 'NONE',  ( 1.530808498934190276E-17, 0.000000000000000000, 0.1249999999999999167 ) ) ;
#150 = CLOSED_SHELL ( 'NONE', ( #183, #106, #90, #131 ) ) ;
#151 = DIRECTION ( 'NONE',  ( -1.000000000000000000, 0.000000000000000000, 0.000000000000000000 ) ) ;
#152 = EDGE_CURVE ( 'NONE', #82, #223, #67, .T. ) ;
#153 = DIRECTION ( 'NONE',  ( -0.000000000000000000, -1.000000000000000000, -0.000000000000000000 ) ) ;
#154 = UNCERTAINTY_MEASURE_WITH_UNIT (LENGTH_MEASURE( 1.000000000000000082E-05 ), #118, 'distance_accuracy_value', 'NONE');
#155 = CARTESIAN_POINT ( 'NONE',  ( 0.000000000000000000, 1.250000000000000000, 0.000000000000000000 ) ) ;
#156 = EDGE_CURVE ( 'NONE', #166, #331, #294, .T. ) ;
#157 = CARTESIAN_POINT ( 'NONE',  ( 0.000000000000000000, 0.000000000000000000, 0.000000000000000000 ) ) ;
#158 = PRESENTATION_LAYER_ASSIGNMENT (  '', '', ( #71 ) ) ;
#159 =( CONVERSION_BASED_UNIT ( 'INCH', #222 ) LENGTH_UNIT ( ) NAMED_UNIT ( #221 ) );
#160 = AXIS2_PLACEMENT_3D ( 'NONE', #255, #26, #370 ) ;
#161 = CARTESIAN_POINT ( 'NONE',  ( 0.1249999999999997363, 3.000000000000000444, 1.530808498934189660E-17 ) ) ;
#162 = DIRECTION ( 'NONE',  ( -0.000000000000000000, -1.000000000000000000, -0.000000000000000000 ) ) ;
#163 = ORIENTED_EDGE ( 'NONE', *, *, #79, .T. ) ;
#164 = UNCERTAINTY_MEASURE_WITH_UNIT (LENGTH_MEASURE( 1.000000000000000082E-05 ), #239, 'distance_accuracy_value', 'NONE');
#165 = SURFACE_STYLE_USAGE ( .BOTH. , #242 ) ;
#166 = VERTEX_POINT ( 'NONE', #207 ) ;
#167 =( LENGTH_UNIT ( ) NAMED_UNIT ( * ) SI_UNIT ( $, .METRE. ) );
#168 = AXIS2_PLACEMENT_3D ( 'NONE', #65, #28, #310 ) ;
#169 = DIRECTION ( 'NONE',  ( 0.000000000000000000, 1.000000000000000000, 0.000000000000000000 ) ) ;
#170 = ORIENTED_EDGE ( 'NONE', *, *, #277, .F. ) ;
#171 = DIRECTION ( 'NONE',  ( -0.000000000000000000, -1.000000000000000000, -0.000000000000000000 ) ) ;
#172 = DIRECTION ( 'NONE',  ( -0.000000000000000000, -1.000000000000000000, -0.000000000000000000 ) ) ;
#173 = AXIS2_PLACEMENT_3D ( 'NONE', #270, #235, #14 ) ;
#174 =( NAMED_UNIT ( * ) SI_UNIT ( $, .STERADIAN. ) SOLID_ANGLE_UNIT ( ) );
#175 = APPLICATION_CONTEXT ( 'automotive_design' ) ;
#176 = CYLINDRICAL_SURFACE ( 'NONE', #160, 0.1249999999999999167 ) ;
#177 = COLOUR_RGB ( '',1.000000000000000000, 0.000000000000000000, 0.000000000000000000 ) ;
#178 = AXIS2_PLACEMENT_3D ( 'NONE', #179, #97, #319 ) ;
#179 = CARTESIAN_POINT ( 'NONE',  ( 9.184850993605145972E-17, 1.250000000000000000, 0.000000000000000000 ) ) ;
#180 = DIRECTION ( 'NONE',  ( -1.224646799147353207E-16, 1.000000000000000000, -0.000000000000000000 ) ) ;
#181 = CYLINDRICAL_SURFACE ( 'NONE', #27, 0.1249999999999999167 ) ;
#182 = DIRECTION ( 'NONE',  ( 0.000000000000000000, 0.000000000000000000, 1.000000000000000000 ) ) ;
#183 = ADVANCED_FACE ( 'NONE', ( #184 ), #39, .T. ) ;
#184 = FACE_OUTER_BOUND ( 'NONE', #365, .T. ) ;
#185 = AXIS2_PLACEMENT_3D ( 'NONE', #200, #169, #296 ) ;
#186 = FACE_OUTER_BOUND ( 'NONE', #139, .T. ) ;
#187 = MANIFOLD_SOLID_BREP ( 'Revolve - Cutting Edge', #353 ) ;
#188 = PLANE ( 'NONE',  #252 ) ;
#189 = DIMENSIONAL_EXPONENTS ( 1.000000000000000000, 0.000000000000000000, 0.000000000000000000, 0.000000000000000000, 0.000000000000000000, 0.000000000000000000, 0.000000000000000000 ) ;
#190 = CARTESIAN_POINT ( 'NONE',  ( -1.224646799147353700E-16, 3.000000000000000444, 0.000000000000000000 ) ) ;
#191 = COLOUR_RGB ( '',1.000000000000000000, 0.000000000000000000, 0.000000000000000000 ) ;
#192 = DIRECTION ( 'NONE',  ( -1.224646799147353207E-16, 1.000000000000000000, -0.000000000000000000 ) ) ;
#193 = MECHANICAL_DESIGN_GEOMETRIC_PRESENTATION_REPRESENTATION (  '', ( #264 ), #238 ) ;
#194 = ORIENTED_EDGE ( 'NONE', *, *, #156, .T. ) ;
#195 = DIMENSIONAL_EXPONENTS ( 1.000000000000000000, 0.000000000000000000, 0.000000000000000000, 0.000000000000000000, 0.000000000000000000, 0.000000000000000000, 0.000000000000000000 ) ;
#196 = ORIENTED_EDGE ( 'NONE', *, *, #98, .T. ) ;
#197 = APPLICATION_PROTOCOL_DEFINITION ( 'draft international standard', 'automotive_design', 1998, #175 ) ;
#198 = UNCERTAINTY_MEASURE_WITH_UNIT (LENGTH_MEASURE( 1.000000000000000082E-05 ), #357, 'distance_accuracy_value', 'NONE');
#199 = DIMENSIONAL_EXPONENTS ( 1.000000000000000000, 0.000000000000000000, 0.000000000000000000, 0.000000000000000000, 0.000000000000000000, 0.000000000000000000, 0.000000000000000000 ) ;
#200 = CARTESIAN_POINT ( 'NONE',  ( 0.000000000000000000, 1.250000000000000000, 0.000000000000000000 ) ) ;
#201 = ORIENTED_EDGE ( 'NONE', *, *, #326, .F. ) ;
#202 = SURFACE_STYLE_FILL_AREA ( #142 ) ;
#203 = VECTOR ( 'NONE', #172, 39.37007874015748143 ) ;
#204 = AXIS2_PLACEMENT_3D ( 'NONE', #99, #320, #151 ) ;
#205 =( NAMED_UNIT ( * ) SI_UNIT ( $, .STERADIAN. ) SOLID_ANGLE_UNIT ( ) );
#206 = FILL_AREA_STYLE_COLOUR ( '', #191 ) ;
#207 = CARTESIAN_POINT ( 'NONE',  ( 1.530808498934189968E-17, 1.250000000000000000, 0.1249999999999998473 ) ) ;
#208 = PRESENTATION_LAYER_ASSIGNMENT (  '', '', ( #22 ) ) ;
#209 = AXIS2_PLACEMENT_3D ( 'NONE', #155, #272, #292 ) ;
#210 = DIRECTION ( 'NONE',  ( -0.000000000000000000, -1.000000000000000000, -0.000000000000000000 ) ) ;
#211 = DIRECTION ( 'NONE',  ( -1.000000000000000000, 0.000000000000000000, 0.000000000000000000 ) ) ;
#212 = DIRECTION ( 'NONE',  ( -1.224646799147353207E-16, 1.000000000000000000, -0.000000000000000000 ) ) ;
#213 = PRESENTATION_LAYER_ASSIGNMENT (  '', '', ( #120 ) ) ;
#214 = SURFACE_STYLE_FILL_AREA ( #126 ) ;
#215 = VERTEX_POINT ( 'NONE', #269 ) ;
#216 = APPLICATION_PROTOCOL_DEFINITION ( 'draft international standard', 'automotive_design', 1998, #345 ) ;
#217 = DIRECTION ( 'NONE',  ( 0.000000000000000000, 0.000000000000000000, -1.000000000000000000 ) ) ;
#218 = VERTEX_POINT ( 'NONE', #251 ) ;
#219 = FILL_AREA_STYLE ('',( #111 ) ) ;
#220 = STYLED_ITEM ( 'NONE', ( #24 ), #187 ) ;
#221 = DIMENSIONAL_EXPONENTS ( 1.000000000000000000, 0.000000000000000000, 0.000000000000000000, 0.000000000000000000, 0.000000000000000000, 0.000000000000000000, 0.000000000000000000 ) ;
#222 = LENGTH_MEASURE_WITH_UNIT ( LENGTH_MEASURE( 0.02539999999999999897 ), #167 );
#223 = VERTEX_POINT ( 'NONE', #330 ) ;
#224 = LENGTH_MEASURE_WITH_UNIT ( LENGTH_MEASURE( 0.02539999999999999897 ), #281 );
#225 = ORIENTED_EDGE ( 'NONE', *, *, #267, .F. ) ;
#226 = PRESENTATION_LAYER_ASSIGNMENT (  '', '', ( #317 ) ) ;
#227 = STYLED_ITEM ( 'NONE', ( #327 ), #297 ) ;
#228 = ORIENTED_EDGE ( 'NONE', *, *, #95, .T. ) ;
#229 = FACE_OUTER_BOUND ( 'NONE', #256, .T. ) ;
#230 = SURFACE_STYLE_USAGE ( .BOTH. , #121 ) ;
#231 = AXIS2_PLACEMENT_3D ( 'NONE', #340, #171, #30 ) ;
#232 = FILL_AREA_STYLE ('',( #288 ) ) ;
#233 = CARTESIAN_POINT ( 'NONE',  ( -0.1250000000000000000, 0.1250000000000000000, 1.530808498934191201E-17 ) ) ;
#234 =( NAMED_UNIT ( * ) SI_UNIT ( $, .STERADIAN. ) SOLID_ANGLE_UNIT ( ) );
#235 = DIRECTION ( 'NONE',  ( -1.224646799147353207E-16, 1.000000000000000000, -0.000000000000000000 ) ) ;
#236 = EDGE_CURVE ( 'NONE', #218, #215, #42, .T. ) ;
#237 = CIRCLE ( 'NONE', #168, 0.1249999999999999861 ) ;
#238 =( GEOMETRIC_REPRESENTATION_CONTEXT ( 3 ) GLOBAL_UNCERTAINTY_ASSIGNED_CONTEXT ( ( #154 ) ) GLOBAL_UNIT_ASSIGNED_CONTEXT ( ( #118, #343, #205 ) ) REPRESENTATION_CONTEXT ( 'NONE', 'WORKASPACE' ) );
#239 =( CONVERSION_BASED_UNIT ( 'INCH', #37 ) LENGTH_UNIT ( ) NAMED_UNIT ( #199 ) );
#240 = CARTESIAN_POINT ( 'NONE',  ( 0.000000000000000000, 0.1250000000000000000, 0.000000000000000000 ) ) ;
#241 = PLANE ( 'NONE',  #369 ) ;
#242 = SURFACE_SIDE_STYLE ('',( #127 ) ) ;
#243 = DIMENSIONAL_EXPONENTS ( 1.000000000000000000, 0.000000000000000000, 0.000000000000000000, 0.000000000000000000, 0.000000000000000000, 0.000000000000000000, 0.000000000000000000 ) ;
#244 = CARTESIAN_POINT ( 'NONE',  ( -0.1249999999999999861, 3.000000000000000444, 0.000000000000000000 ) ) ;
#245 = MECHANICAL_DESIGN_GEOMETRIC_PRESENTATION_REPRESENTATION (  '', ( #220 ), #4 ) ;
#246 = EDGE_LOOP ( 'NONE', ( #134, #85 ) ) ;
#247 =( NAMED_UNIT ( * ) SI_UNIT ( $, .STERADIAN. ) SOLID_ANGLE_UNIT ( ) );
#248 =( CONVERSION_BASED_UNIT ( 'INCH', #103 ) LENGTH_UNIT ( ) NAMED_UNIT ( #46 ) );
#249 = EDGE_CURVE ( 'NONE', #78, #254, #342, .T. ) ;
#250 = EDGE_LOOP ( 'NONE', ( #278, #282, #113, #358, #114 ) ) ;
#251 = CARTESIAN_POINT ( 'NONE',  ( 0.1249999999999999861, 0.1250000000000000000, 0.000000000000000000 ) ) ;
#252 = AXIS2_PLACEMENT_3D ( 'NONE', #129, #350, #351 ) ;
#253 = PLANE ( 'NONE',  #185 ) ;
#254 = VERTEX_POINT ( 'NONE', #279 ) ;
#255 = CARTESIAN_POINT ( 'NONE',  ( 0.000000000000000000, 0.000000000000000000, 0.000000000000000000 ) ) ;
#256 = EDGE_LOOP ( 'NONE', ( #19, #20, #107, #58 ) ) ;
#257 = CARTESIAN_POINT ( 'NONE',  ( 0.1249999999999998335, 1.250000000000000000, 1.530808498934190276E-17 ) ) ;
#258 = DIRECTION ( 'NONE',  ( 1.000000000000000000, 0.000000000000000000, 0.000000000000000000 ) ) ;
#259 = CIRCLE ( 'NONE', #56, 0.1249999999999998473 ) ;
#260 = SURFACE_STYLE_USAGE ( .BOTH. , #313 ) ;
#261 = SURFACE_SIDE_STYLE ('',( #87 ) ) ;
#262 = CARTESIAN_POINT ( 'NONE',  ( -1.530808498934191201E-17, 0.1249999999999999861, 0.000000000000000000 ) ) ;
#263 = LENGTH_MEASURE_WITH_UNIT ( LENGTH_MEASURE( 0.02539999999999999897 ), #312 );
#264 = STYLED_ITEM ( 'NONE', ( #140 ), #368 ) ;
#265 = FILL_AREA_STYLE ('',( #119 ) ) ;
#266 = DIRECTION ( 'NONE',  ( 1.000000000000000000, 0.000000000000000000, 0.000000000000000000 ) ) ;
#267 = EDGE_CURVE ( 'NONE', #333, #116, #102, .T. ) ;
#268 = DIRECTION ( 'NONE',  ( 1.000000000000000000, 0.000000000000000000, -1.224646799147353207E-16 ) ) ;
#269 = CARTESIAN_POINT ( 'NONE',  ( -7.654042494670956004E-18, -1.707404996040164512E-17, 0.000000000000000000 ) ) ;
#270 = CARTESIAN_POINT ( 'NONE',  ( 9.184850993605145972E-17, 1.250000000000000000, 0.000000000000000000 ) ) ;
#271 = VERTEX_POINT ( 'NONE', #137 ) ;
#272 = DIRECTION ( 'NONE',  ( -0.000000000000000000, -1.000000000000000000, -0.000000000000000000 ) ) ;
#273 = UNCERTAINTY_MEASURE_WITH_UNIT (LENGTH_MEASURE( 1.000000000000000082E-05 ), #291, 'distance_accuracy_value', 'NONE');
#274 = CIRCLE ( 'NONE', #231, 0.1249999999999999861 ) ;
#275 = DIRECTION ( 'NONE',  ( -1.000000000000000000, 0.000000000000000000, 0.000000000000000000 ) ) ;
#276 = ORIENTED_EDGE ( 'NONE', *, *, #152, .T. ) ;
#277 = EDGE_CURVE ( 'NONE', #223, #116, #11, .T. ) ;
#278 = ORIENTED_EDGE ( 'NONE', *, *, #287, .T. ) ;
#279 = CARTESIAN_POINT ( 'NONE',  ( 0.000000000000000000, 0.1250000000000000000, -0.1249999999999999861 ) ) ;
#280 = COLOUR_RGB ( '',1.000000000000000000, 0.000000000000000000, 0.000000000000000000 ) ;
#281 =( LENGTH_UNIT ( ) NAMED_UNIT ( * ) SI_UNIT ( $, .METRE. ) );
#282 = ORIENTED_EDGE ( 'NONE', *, *, #104, .T. ) ;
#283 = SURFACE_SIDE_STYLE ('',( #92 ) ) ;
#284 =( LENGTH_UNIT ( ) NAMED_UNIT ( * ) SI_UNIT ( $, .METRE. ) );
#285 = CIRCLE ( 'NONE', #77, 0.1249999999999999861 ) ;
#286 = LENGTH_MEASURE_WITH_UNIT ( LENGTH_MEASURE( 0.02539999999999999897 ), #62 );
#287 = EDGE_CURVE ( 'NONE', #331, #166, #259, .T. ) ;
#288 = FILL_AREA_STYLE_COLOUR ( '', #72 ) ;
#289 =( CONVERSION_BASED_UNIT ( 'INCH', #314 ) LENGTH_UNIT ( ) NAMED_UNIT ( #243 ) );
#290 = MECHANICAL_DESIGN_GEOMETRIC_PRESENTATION_REPRESENTATION (  '', ( #227 ), #299 ) ;
#291 =( CONVERSION_BASED_UNIT ( 'INCH', #148 ) LENGTH_UNIT ( ) NAMED_UNIT ( #74 ) );
#292 = DIRECTION ( 'NONE',  ( 0.000000000000000000, 0.000000000000000000, -1.000000000000000000 ) ) ;
#293 = CARTESIAN_POINT ( 'NONE',  ( -1.224646799147353700E-16, 3.000000000000000444, 0.000000000000000000 ) ) ;
#294 = CIRCLE ( 'NONE', #209, 0.1249999999999998473 ) ;
#295 = DIRECTION ( 'NONE',  ( -1.000000000000000000, 0.000000000000000000, 0.000000000000000000 ) ) ;
#296 = DIRECTION ( 'NONE',  ( 0.000000000000000000, -0.000000000000000000, 1.000000000000000000 ) ) ;
#297 = ADVANCED_FACE ( 'NONE', ( #305 ), #253, .T. ) ;
#298 = PRODUCT_DEFINITION_FORMATION_WITH_SPECIFIED_SOURCE ( 'ANY', '', #29, .NOT_KNOWN. ) ;
#299 =( GEOMETRIC_REPRESENTATION_CONTEXT ( 3 ) GLOBAL_UNCERTAINTY_ASSIGNED_CONTEXT ( ( #303 ) ) GLOBAL_UNIT_ASSIGNED_CONTEXT ( ( #248, #57, #81 ) ) REPRESENTATION_CONTEXT ( 'NONE', 'WORKASPACE' ) );
#300 = CARTESIAN_POINT ( 'NONE',  ( 0.000000000000000000, 0.000000000000000000, 0.000000000000000000 ) ) ;
#301 = ORIENTED_EDGE ( 'NONE', *, *, #267, .T. ) ;
#302 = DIRECTION ( 'NONE',  ( -0.000000000000000000, -1.000000000000000000, -0.000000000000000000 ) ) ;
#303 = UNCERTAINTY_MEASURE_WITH_UNIT (LENGTH_MEASURE( 1.000000000000000082E-05 ), #248, 'distance_accuracy_value', 'NONE');
#304 = ORIENTED_EDGE ( 'NONE', *, *, #128, .T. ) ;
#305 = FACE_OUTER_BOUND ( 'NONE', #246, .T. ) ;
#306 = ORIENTED_EDGE ( 'NONE', *, *, #95, .F. ) ;
#307 = DIRECTION ( 'NONE',  ( 0.000000000000000000, 0.000000000000000000, -1.000000000000000000 ) ) ;
#308 = UNCERTAINTY_MEASURE_WITH_UNIT (LENGTH_MEASURE( 1.000000000000000082E-05 ), #1, 'distance_accuracy_value', 'NONE');
#309 = EDGE_LOOP ( 'NONE', ( #53, #194, #311, #366, #201 ) ) ;
#310 = DIRECTION ( 'NONE',  ( 0.000000000000000000, 0.000000000000000000, -1.000000000000000000 ) ) ;
#311 = ORIENTED_EDGE ( 'NONE', *, *, #63, .T. ) ;
#312 =( LENGTH_UNIT ( ) NAMED_UNIT ( * ) SI_UNIT ( $, .METRE. ) );
#313 = SURFACE_SIDE_STYLE ('',( #202 ) ) ;
#314 = LENGTH_MEASURE_WITH_UNIT ( LENGTH_MEASURE( 0.02539999999999999897 ), #147 );
#315 = PRESENTATION_LAYER_ASSIGNMENT (  '', '', ( #220 ) ) ;
#316 = CARTESIAN_POINT ( 'NONE',  ( -0.1249999999999996531, 1.250000000000000000, 0.000000000000000000 ) ) ;
#317 = STYLED_ITEM ( 'NONE', ( #52 ), #36 ) ;
#318 = SPHERICAL_SURFACE ( 'NONE', #341, 0.1250000000000000000 ) ;
#319 = DIRECTION ( 'NONE',  ( -1.000000000000000000, 0.000000000000000000, 0.000000000000000000 ) ) ;
#320 = DIRECTION ( 'NONE',  ( -1.224646799147353207E-16, 1.000000000000000000, -0.000000000000000000 ) ) ;
#321 =( GEOMETRIC_REPRESENTATION_CONTEXT ( 3 ) GLOBAL_UNCERTAINTY_ASSIGNED_CONTEXT ( ( #273 ) ) GLOBAL_UNIT_ASSIGNED_CONTEXT ( ( #291, #323, #123 ) ) REPRESENTATION_CONTEXT ( 'NONE', 'WORKASPACE' ) );
#322 = PRODUCT_RELATED_PRODUCT_CATEGORY ( 'part', '', ( #29 ) ) ;
#323 =( NAMED_UNIT ( * ) PLANE_ANGLE_UNIT ( ) SI_UNIT ( $, .RADIAN. ) );
#324 =( NAMED_UNIT ( * ) SI_UNIT ( $, .STERADIAN. ) SOLID_ANGLE_UNIT ( ) );
#325 = FACE_OUTER_BOUND ( 'NONE', #309, .T. ) ;
#326 = EDGE_CURVE ( 'NONE', #271, #78, #274, .T. ) ;
#327 = PRESENTATION_STYLE_ASSIGNMENT (( #48 ) ) ;
#328 = ORIENTED_EDGE ( 'NONE', *, *, #326, .T. ) ;
#329 = ORIENTED_EDGE ( 'NONE', *, *, #152, .F. ) ;
#330 = CARTESIAN_POINT ( 'NONE',  ( -0.1250000000000000833, 3.000000000000000444, 0.000000000000000000 ) ) ;
#331 = VERTEX_POINT ( 'NONE', #86 ) ;
#332 =( NAMED_UNIT ( * ) SI_UNIT ( $, .STERADIAN. ) SOLID_ANGLE_UNIT ( ) );
#333 = VERTEX_POINT ( 'NONE', #257 ) ;
#334 = VECTOR ( 'NONE', #210, 39.37007874015748143 ) ;
#335 = PRODUCT_DEFINITION_SHAPE ( 'NONE', 'NONE',  #101 ) ;
#336 = EDGE_LOOP ( 'NONE', ( #25, #49 ) ) ;
#337 = LINE ( 'NONE', #143, #203 ) ;
#338 = DIMENSIONAL_EXPONENTS ( 1.000000000000000000, 0.000000000000000000, 0.000000000000000000, 0.000000000000000000, 0.000000000000000000, 0.000000000000000000, 0.000000000000000000 ) ;
#339 = FILL_AREA_STYLE_COLOUR ( '', #280 ) ;
#340 = CARTESIAN_POINT ( 'NONE',  ( 0.000000000000000000, 0.1250000000000000000, 0.000000000000000000 ) ) ;
#341 = AXIS2_PLACEMENT_3D ( 'NONE', #7, #182, #266 ) ;
#342 = CIRCLE ( 'NONE', #34, 0.1249999999999999861 ) ;
#343 =( NAMED_UNIT ( * ) PLANE_ANGLE_UNIT ( ) SI_UNIT ( $, .RADIAN. ) );
#344 = SPHERICAL_SURFACE ( 'NONE', #9, 0.1250000000000000000 ) ;
#345 = APPLICATION_CONTEXT ( 'automotive_design' ) ;
#346 =( LENGTH_UNIT ( ) NAMED_UNIT ( * ) SI_UNIT ( $, .METRE. ) );
#347 = FACE_OUTER_BOUND ( 'NONE', #336, .T. ) ;
#348 = COLOUR_RGB ( '',1.000000000000000000, 0.000000000000000000, 0.000000000000000000 ) ;
#349 =( GEOMETRIC_REPRESENTATION_CONTEXT ( 3 ) GLOBAL_UNCERTAINTY_ASSIGNED_CONTEXT ( ( #164 ) ) GLOBAL_UNIT_ASSIGNED_CONTEXT ( ( #239, #100, #247 ) ) REPRESENTATION_CONTEXT ( 'NONE', 'WORKASPACE' ) );
#350 = DIRECTION ( 'NONE',  ( 1.224646799147353207E-16, -1.000000000000000000, 0.000000000000000000 ) ) ;
#351 = DIRECTION ( 'NONE',  ( 1.000000000000000000, 1.224646799147353207E-16, 0.000000000000000000 ) ) ;
#352 = DIRECTION ( 'NONE',  ( -1.224646799147353207E-16, 1.000000000000000000, 0.000000000000000000 ) ) ;
#353 = CLOSED_SHELL ( 'NONE', ( #38, #368, #297, #36, #372 ) ) ;
#354 = CIRCLE ( 'NONE', #173, 0.1249999999999997363 ) ;
#355 = DIRECTION ( 'NONE',  ( 0.000000000000000000, 0.000000000000000000, -1.000000000000000000 ) ) ;
#356 = CARTESIAN_POINT ( 'NONE',  ( -1.530808498934191201E-17, 0.1249999999999999861, 0.000000000000000000 ) ) ;
#357 =( CONVERSION_BASED_UNIT ( 'INCH', #224 ) LENGTH_UNIT ( ) NAMED_UNIT ( #338 ) );
#358 = ORIENTED_EDGE ( 'NONE', *, *, #115, .F. ) ;
#359 = SHAPE_DEFINITION_REPRESENTATION ( #335, #364 ) ;
#360 = ORIENTED_EDGE ( 'NONE', *, *, #236, .F. ) ;
#361 = COLOUR_RGB ( '',0.7921568627450980005, 0.8196078431372548767, 0.9333333333333333481 ) ;
#362 = DIRECTION ( 'NONE',  ( 1.000000000000000000, 0.000000000000000000, 0.000000000000000000 ) ) ;
#363 = AXIS2_PLACEMENT_3D ( 'NONE', #293, #212, #295 ) ;
#364 = ADVANCED_BREP_SHAPE_REPRESENTATION ( '81460', ( #187, #69, #76 ), #349 ) ;
#365 = EDGE_LOOP ( 'NONE', ( #304, #301, #170, #329 ) ) ;
#366 = ORIENTED_EDGE ( 'NONE', *, *, #249, .F. ) ;
#367 =( GEOMETRIC_REPRESENTATION_CONTEXT ( 3 ) GLOBAL_UNCERTAINTY_ASSIGNED_CONTEXT ( ( #44 ) ) GLOBAL_UNIT_ASSIGNED_CONTEXT ( ( #289, #59, #174 ) ) REPRESENTATION_CONTEXT ( 'NONE', 'WORKASPACE' ) );
#368 = ADVANCED_FACE ( 'NONE', ( #145 ), #176, .T. ) ;
#369 = AXIS2_PLACEMENT_3D ( 'NONE', #15, #352, #125 ) ;
#370 = DIRECTION ( 'NONE',  ( 0.000000000000000000, 0.000000000000000000, -1.000000000000000000 ) ) ;
#371 = VECTOR ( 'NONE', #192, 39.37007874015748143 ) ;
#372 = ADVANCED_FACE ( 'NONE', ( #229 ), #318, .T. ) ;
#373 = PRESENTATION_STYLE_ASSIGNMENT (( #260 ) ) ;
ENDSEC;
END-ISO-10303-21;
