ISO-10303-21;
HEADER;
FILE_DESCRIPTION (( 'STEP AP214' ),
    '1' );
FILE_NAME ('86026.STEP',
    '2023-06-30T23:57:06',
    ( '' ),
    ( '' ),
    'SwSTEP 2.0',
    'SolidWorks 2023',
    '' );
FILE_SCHEMA (( 'AUTOMOTIVE_DESIGN' ));
ENDSEC;

DATA;
#1 = ORIENTED_EDGE ( 'NONE', *, *, #210, .T. ) ;
#2 = SURFACE_SIDE_STYLE ('',( #343 ) ) ;
#3 = ORIENTED_EDGE ( 'NONE', *, *, #210, .F. ) ;
#4 =( CONVERSION_BASED_UNIT ( 'INCH', #69 ) LENGTH_UNIT ( ) NAMED_UNIT ( #36 ) );
#5 = CIRCLE ( 'NONE', #334, 0.1874999999999999722 ) ;
#6 = ORIENTED_EDGE ( 'NONE', *, *, #19, .T. ) ;
#7 = CIRCLE ( 'NONE', #303, 0.1874999999999999722 ) ;
#8 = DIRECTION ( 'NONE',  ( -0.000000000000000000, -1.000000000000000000, -0.000000000000000000 ) ) ;
#9 = DIRECTION ( 'NONE',  ( -0.000000000000000000, -1.000000000000000000, -0.000000000000000000 ) ) ;
#10 = CARTESIAN_POINT ( 'NONE',  ( 1.254110101066591133E-16, 2.000000000000000000, 0.000000000000000000 ) ) ;
#11 = LINE ( 'NONE', #179, #322 ) ;
#12 = DIRECTION ( 'NONE',  ( 0.000000000000000000, 0.000000000000000000, 1.000000000000000000 ) ) ;
#13 = VERTEX_POINT ( 'NONE', #123 ) ;
#14 = STYLED_ITEM ( 'NONE', ( #333 ), #197 ) ;
#15 = PRODUCT_CONTEXT ( 'NONE', #121, 'mechanical' ) ;
#16 = CIRCLE ( 'NONE', #164, 0.1874999999999999722 ) ;
#17 = PLANE ( 'NONE',  #53 ) ;
#18 = APPLICATION_PROTOCOL_DEFINITION ( 'draft international standard', 'automotive_design', 1998, #121 ) ;
#19 = EDGE_CURVE ( 'NONE', #200, #213, #202, .T. ) ;
#20 = CYLINDRICAL_SURFACE ( 'NONE', #209, 0.1874999999999998890 ) ;
#21 = EDGE_CURVE ( 'NONE', #287, #13, #166, .T. ) ;
#22 = DIRECTION ( 'NONE',  ( -0.000000000000000000, -1.000000000000000000, -0.000000000000000000 ) ) ;
#23 = DIRECTION ( 'NONE',  ( -1.239378450106971924E-16, 1.000000000000000000, -0.000000000000000000 ) ) ;
#24 = DIRECTION ( 'NONE',  ( -1.000000000000000000, 0.000000000000000000, 0.000000000000000000 ) ) ;
#25 =( GEOMETRIC_REPRESENTATION_CONTEXT ( 3 ) GLOBAL_UNCERTAINTY_ASSIGNED_CONTEXT ( ( #154 ) ) GLOBAL_UNIT_ASSIGNED_CONTEXT ( ( #370, #219, #331 ) ) REPRESENTATION_CONTEXT ( 'NONE', 'WORKASPACE' ) );
#26 = AXIS2_PLACEMENT_3D ( 'NONE', #265, #236, #24 ) ;
#27 = CARTESIAN_POINT ( 'NONE',  ( 2.296212748401286801E-17, 0.1875000000000000555, 0.1874999999999999445 ) ) ;
#28 = ORIENTED_EDGE ( 'NONE', *, *, #280, .T. ) ;
#29 = ADVANCED_FACE ( 'NONE', ( #165 ), #275, .T. ) ;
#30 = ORIENTED_EDGE ( 'NONE', *, *, #348, .F. ) ;
#31 = VERTEX_POINT ( 'NONE', #234 ) ;
#32 = PRESENTATION_LAYER_ASSIGNMENT (  '', '', ( #57 ) ) ;
#33 = SURFACE_STYLE_FILL_AREA ( #60 ) ;
#34 = CARTESIAN_POINT ( 'NONE',  ( 0.000000000000000000, 0.1875000000000000555, 0.000000000000000000 ) ) ;
#35 = PRESENTATION_STYLE_ASSIGNMENT (( #208 ) ) ;
#36 = DIMENSIONAL_EXPONENTS ( 1.000000000000000000, 0.000000000000000000, 0.000000000000000000, 0.000000000000000000, 0.000000000000000000, 0.000000000000000000, 0.000000000000000000 ) ;
#37 = EDGE_LOOP ( 'NONE', ( #204, #92, #185, #295 ) ) ;
#38 = CARTESIAN_POINT ( 'NONE',  ( 0.000000000000000000, 0.1875000000000000555, 0.000000000000000000 ) ) ;
#39 = DIRECTION ( 'NONE',  ( -1.000000000000000000, 0.000000000000000000, 0.000000000000000000 ) ) ;
#40 = MECHANICAL_DESIGN_GEOMETRIC_PRESENTATION_REPRESENTATION (  '', ( #231 ), #293 ) ;
#41 = STYLED_ITEM ( 'NONE', ( #367 ), #226 ) ;
#42 = FILL_AREA_STYLE ('',( #186 ) ) ;
#43 = COLOUR_RGB ( '',1.000000000000000000, 0.000000000000000000, 0.000000000000000000 ) ;
#44 = PRESENTATION_STYLE_ASSIGNMENT (( #328 ) ) ;
#45 = FILL_AREA_STYLE ('',( #305 ) ) ;
#46 = LENGTH_MEASURE_WITH_UNIT ( LENGTH_MEASURE( 0.02539999999999999897 ), #73 );
#47 = CIRCLE ( 'NONE', #98, 0.1874999999999999167 ) ;
#48 =( NAMED_UNIT ( * ) SI_UNIT ( $, .STERADIAN. ) SOLID_ANGLE_UNIT ( ) );
#49 = DIRECTION ( 'NONE',  ( 0.000000000000000000, 0.000000000000000000, 1.000000000000000000 ) ) ;
#50 =( NAMED_UNIT ( * ) SI_UNIT ( $, .STERADIAN. ) SOLID_ANGLE_UNIT ( ) );
#51 = ORIENTED_EDGE ( 'NONE', *, *, #272, .T. ) ;
#52 = CARTESIAN_POINT ( 'NONE',  ( 0.000000000000000000, 2.000000000000000000, 0.000000000000000000 ) ) ;
#53 = AXIS2_PLACEMENT_3D ( 'NONE', #247, #79, #279 ) ;
#54 = DIRECTION ( 'NONE',  ( 0.000000000000000000, 0.000000000000000000, -1.000000000000000000 ) ) ;
#55 = DIRECTION ( 'NONE',  ( -0.000000000000000000, -1.000000000000000000, -0.000000000000000000 ) ) ;
#56 = DIRECTION ( 'NONE',  ( -1.239378450106971924E-16, 1.000000000000000000, -0.000000000000000000 ) ) ;
#57 = STYLED_ITEM ( 'NONE', ( #44 ), #214 ) ;
#58 = COLOUR_RGB ( '',1.000000000000000000, 0.000000000000000000, 0.000000000000000000 ) ;
#59 = EDGE_CURVE ( 'NONE', #13, #287, #124, .T. ) ;
#60 = FILL_AREA_STYLE ('',( #152 ) ) ;
#61 = CARTESIAN_POINT ( 'NONE',  ( 0.1874999999999997780, 4.000000000000000000, 2.296212748401285877E-17 ) ) ;
#62 = UNCERTAINTY_MEASURE_WITH_UNIT (LENGTH_MEASURE( 1.000000000000000082E-05 ), #355, 'distance_accuracy_value', 'NONE');
#63 = DIRECTION ( 'NONE',  ( -1.000000000000000000, 0.000000000000000000, 0.000000000000000000 ) ) ;
#64 = SURFACE_STYLE_USAGE ( .BOTH. , #349 ) ;
#65 = COLOUR_RGB ( '',1.000000000000000000, 0.000000000000000000, 0.000000000000000000 ) ;
#66 = COLOUR_RGB ( '',0.7921568627450980005, 0.8196078431372548767, 0.9333333333333333481 ) ;
#67 = ORIENTED_EDGE ( 'NONE', *, *, #135, .F. ) ;
#68 = FACE_OUTER_BOUND ( 'NONE', #196, .T. ) ;
#69 = LENGTH_MEASURE_WITH_UNIT ( LENGTH_MEASURE( 0.02539999999999999897 ), #207 );
#70 = ORIENTED_EDGE ( 'NONE', *, *, #282, .T. ) ;
#71 = EDGE_CURVE ( 'NONE', #13, #285, #337, .T. ) ;
#72 = SURFACE_STYLE_FILL_AREA ( #42 ) ;
#73 =( LENGTH_UNIT ( ) NAMED_UNIT ( * ) SI_UNIT ( $, .METRE. ) );
#74 =( GEOMETRIC_REPRESENTATION_CONTEXT ( 3 ) GLOBAL_UNCERTAINTY_ASSIGNED_CONTEXT ( ( #130 ) ) GLOBAL_UNIT_ASSIGNED_CONTEXT ( ( #245, #129, #362 ) ) REPRESENTATION_CONTEXT ( 'NONE', 'WORKASPACE' ) );
#75 = EDGE_CURVE ( 'NONE', #264, #292, #5, .T. ) ;
#76 = SURFACE_STYLE_USAGE ( .BOTH. , #216 ) ;
#77 = AXIS2_PLACEMENT_3D ( 'NONE', #140, #49, #250 ) ;
#78 = LENGTH_MEASURE_WITH_UNIT ( LENGTH_MEASURE( 0.02539999999999999897 ), #365 );
#79 = DIRECTION ( 'NONE',  ( 0.000000000000000000, 1.000000000000000000, 0.000000000000000000 ) ) ;
#80 = FILL_AREA_STYLE_COLOUR ( '', #91 ) ;
#81 = DIRECTION ( 'NONE',  ( 0.000000000000000000, 0.000000000000000000, -1.000000000000000000 ) ) ;
#82 = CARTESIAN_POINT ( 'NONE',  ( -1.224646799147352714E-16, 4.000000000000000000, 0.000000000000000000 ) ) ;
#83 = CARTESIAN_POINT ( 'NONE',  ( -0.1875000000000000278, 0.1875000000000000555, 2.296212748401287109E-17 ) ) ;
#84 = DIRECTION ( 'NONE',  ( -0.000000000000000000, -1.000000000000000000, -0.000000000000000000 ) ) ;
#85 = ORIENTED_EDGE ( 'NONE', *, *, #340, .T. ) ;
#86 = PRESENTATION_LAYER_ASSIGNMENT (  '', '', ( #116 ) ) ;
#87 = EDGE_LOOP ( 'NONE', ( #242, #162, #211, #6 ) ) ;
#88 = DIRECTION ( 'NONE',  ( 1.000000000000000000, 0.000000000000000000, -1.224646799147353207E-16 ) ) ;
#89 = UNCERTAINTY_MEASURE_WITH_UNIT (LENGTH_MEASURE( 1.000000000000000082E-05 ), #90, 'distance_accuracy_value', 'NONE');
#90 =( CONVERSION_BASED_UNIT ( 'INCH', #350 ) LENGTH_UNIT ( ) NAMED_UNIT ( #241 ) );
#91 = COLOUR_RGB ( '',1.000000000000000000, 0.000000000000000000, 0.000000000000000000 ) ;
#92 = ORIENTED_EDGE ( 'NONE', *, *, #309, .T. ) ;
#93 = AXIS2_PLACEMENT_3D ( 'NONE', #369, #107, #218 ) ;
#94 =( NAMED_UNIT ( * ) PLANE_ANGLE_UNIT ( ) SI_UNIT ( $, .RADIAN. ) );
#95 = DIRECTION ( 'NONE',  ( -1.239378450106971924E-16, 1.000000000000000000, 0.000000000000000000 ) ) ;
#96 = ORIENTED_EDGE ( 'NONE', *, *, #272, .F. ) ;
#97 = CARTESIAN_POINT ( 'NONE',  ( 0.000000000000000000, 0.000000000000000000, 0.000000000000000000 ) ) ;
#98 = AXIS2_PLACEMENT_3D ( 'NONE', #220, #307, #141 ) ;
#99 = ORIENTED_EDGE ( 'NONE', *, *, #288, .T. ) ;
#100 = DIRECTION ( 'NONE',  ( 1.239378450106971924E-16, -1.000000000000000000, 0.000000000000000000 ) ) ;
#101 = ORIENTED_EDGE ( 'NONE', *, *, #19, .F. ) ;
#102 = SURFACE_SIDE_STYLE ('',( #72 ) ) ;
#103 = DIMENSIONAL_EXPONENTS ( 1.000000000000000000, 0.000000000000000000, 0.000000000000000000, 0.000000000000000000, 0.000000000000000000, 0.000000000000000000, 0.000000000000000000 ) ;
#104 = SURFACE_STYLE_FILL_AREA ( #246 ) ;
#105 = SURFACE_STYLE_FILL_AREA ( #163 ) ;
#106 = COLOUR_RGB ( '',0.7921568627450980005, 0.8196078431372548767, 0.9333333333333333481 ) ;
#107 = DIRECTION ( 'NONE',  ( -1.239378450106971924E-16, 1.000000000000000000, -0.000000000000000000 ) ) ;
#108 = FILL_AREA_STYLE ('',( #194 ) ) ;
#109 = PRODUCT_DEFINITION_SHAPE ( 'NONE', 'NONE',  #150 ) ;
#110 = DIRECTION ( 'NONE',  ( -1.239378450106971924E-16, 1.000000000000000000, -0.000000000000000000 ) ) ;
#111 = CARTESIAN_POINT ( 'NONE',  ( 2.296212748401285877E-17, 0.000000000000000000, 0.1874999999999998890 ) ) ;
#112 = ORIENTED_EDGE ( 'NONE', *, *, #256, .T. ) ;
#113 = LENGTH_MEASURE_WITH_UNIT ( LENGTH_MEASURE( 0.02539999999999999897 ), #253 );
#114 = ADVANCED_BREP_SHAPE_REPRESENTATION ( '86026', ( #226, #373, #345 ), #74 ) ;
#115 = CIRCLE ( 'NONE', #314, 0.1875000000000000278 ) ;
#116 = STYLED_ITEM ( 'NONE', ( #290 ), #373 ) ;
#117 = ORIENTED_EDGE ( 'NONE', *, *, #59, .F. ) ;
#118 =( LENGTH_UNIT ( ) NAMED_UNIT ( * ) SI_UNIT ( $, .METRE. ) );
#119 = ADVANCED_FACE ( 'NONE', ( #329 ), #188, .T. ) ;
#120 = ORIENTED_EDGE ( 'NONE', *, *, #262, .F. ) ;
#121 = APPLICATION_CONTEXT ( 'automotive_design' ) ;
#122 = PRODUCT_DEFINITION_FORMATION_WITH_SPECIFIED_SOURCE ( 'ANY', '', #252, .NOT_KNOWN. ) ;
#123 = CARTESIAN_POINT ( 'NONE',  ( -0.1874999999999995282, 2.000000000000000000, 0.000000000000000000 ) ) ;
#124 = CIRCLE ( 'NONE', #93, 0.1874999999999996669 ) ;
#125 = CARTESIAN_POINT ( 'NONE',  ( 1.254110101066591133E-16, 2.000000000000000000, 0.000000000000000000 ) ) ;
#126 = DIRECTION ( 'NONE',  ( -1.239378450106971924E-16, 1.000000000000000000, -0.000000000000000000 ) ) ;
#127 = ORIENTED_EDGE ( 'NONE', *, *, #21, .T. ) ;
#128 = DIMENSIONAL_EXPONENTS ( 1.000000000000000000, 0.000000000000000000, 0.000000000000000000, 0.000000000000000000, 0.000000000000000000, 0.000000000000000000, 0.000000000000000000 ) ;
#129 =( NAMED_UNIT ( * ) PLANE_ANGLE_UNIT ( ) SI_UNIT ( $, .RADIAN. ) );
#130 = UNCERTAINTY_MEASURE_WITH_UNIT (LENGTH_MEASURE( 1.000000000000000082E-05 ), #245, 'distance_accuracy_value', 'NONE');
#131 =( NAMED_UNIT ( * ) SI_UNIT ( $, .STERADIAN. ) SOLID_ANGLE_UNIT ( ) );
#132 = PRODUCT_RELATED_PRODUCT_CATEGORY ( 'part', '', ( #252 ) ) ;
#133 = LENGTH_MEASURE_WITH_UNIT ( LENGTH_MEASURE( 0.02539999999999999897 ), #335 );
#134 = FACE_OUTER_BOUND ( 'NONE', #87, .T. ) ;
#135 = EDGE_CURVE ( 'NONE', #292, #200, #16, .T. ) ;
#136 = APPLICATION_PROTOCOL_DEFINITION ( 'draft international standard', 'automotive_design', 1998, #145 ) ;
#137 = SURFACE_STYLE_FILL_AREA ( #108 ) ;
#138 = AXIS2_PLACEMENT_3D ( 'NONE', #363, #100, #326 ) ;
#139 = FACE_OUTER_BOUND ( 'NONE', #146, .T. ) ;
#140 = CARTESIAN_POINT ( 'NONE',  ( -2.296212748401287726E-17, 0.1875000000000000278, 0.000000000000000000 ) ) ;
#141 = DIRECTION ( 'NONE',  ( -1.000000000000000000, 0.000000000000000000, 0.000000000000000000 ) ) ;
#142 = ADVANCED_FACE ( 'NONE', ( #354 ), #240, .F. ) ;
#143 =( GEOMETRIC_REPRESENTATION_CONTEXT ( 3 ) GLOBAL_UNCERTAINTY_ASSIGNED_CONTEXT ( ( #89 ) ) GLOBAL_UNIT_ASSIGNED_CONTEXT ( ( #90, #156, #131 ) ) REPRESENTATION_CONTEXT ( 'NONE', 'WORKASPACE' ) );
#144 = AXIS2_PLACEMENT_3D ( 'NONE', #125, #95, #237 ) ;
#145 = APPLICATION_CONTEXT ( 'automotive_design' ) ;
#146 = EDGE_LOOP ( 'NONE', ( #270, #30 ) ) ;
#147 = CARTESIAN_POINT ( 'NONE',  ( -0.1875000000000000555, 4.000000000000000000, 0.000000000000000000 ) ) ;
#148 = ORIENTED_EDGE ( 'NONE', *, *, #280, .F. ) ;
#149 = DIRECTION ( 'NONE',  ( -0.000000000000000000, -1.000000000000000000, -0.000000000000000000 ) ) ;
#150 = PRODUCT_DEFINITION ( 'UNKNOWN', '', #122, #261 ) ;
#151 = MECHANICAL_DESIGN_GEOMETRIC_PRESENTATION_REPRESENTATION (  '', ( #57 ), #143 ) ;
#152 = FILL_AREA_STYLE_COLOUR ( '', #66 ) ;
#153 = DIMENSIONAL_EXPONENTS ( 1.000000000000000000, 0.000000000000000000, 0.000000000000000000, 0.000000000000000000, 0.000000000000000000, 0.000000000000000000, 0.000000000000000000 ) ;
#154 = UNCERTAINTY_MEASURE_WITH_UNIT (LENGTH_MEASURE( 1.000000000000000082E-05 ), #370, 'distance_accuracy_value', 'NONE');
#155 = ADVANCED_FACE ( 'NONE', ( #359 ), #356, .T. ) ;
#156 =( NAMED_UNIT ( * ) PLANE_ANGLE_UNIT ( ) SI_UNIT ( $, .RADIAN. ) );
#157 = STYLED_ITEM ( 'NONE', ( #227 ), #119 ) ;
#158 = PRESENTATION_LAYER_ASSIGNMENT (  '', '', ( #41 ) ) ;
#159 = DIRECTION ( 'NONE',  ( 0.000000000000000000, 0.000000000000000000, -1.000000000000000000 ) ) ;
#160 = CARTESIAN_POINT ( 'NONE',  ( 0.000000000000000000, 0.000000000000000000, 0.000000000000000000 ) ) ;
#161 = UNCERTAINTY_MEASURE_WITH_UNIT (LENGTH_MEASURE( 1.000000000000000082E-05 ), #4, 'distance_accuracy_value', 'NONE');
#162 = ORIENTED_EDGE ( 'NONE', *, *, #75, .T. ) ;
#163 = FILL_AREA_STYLE ('',( #298 ) ) ;
#164 = AXIS2_PLACEMENT_3D ( 'NONE', #34, #9, #159 ) ;
#165 = FACE_OUTER_BOUND ( 'NONE', #198, .T. ) ;
#166 = CIRCLE ( 'NONE', #203, 0.1874999999999996669 ) ;
#167 = DIRECTION ( 'NONE',  ( 1.000000000000000000, 0.000000000000000000, 0.000000000000000000 ) ) ;
#168 = SURFACE_STYLE_USAGE ( .BOTH. , #102 ) ;
#169 =( CONVERSION_BASED_UNIT ( 'INCH', #78 ) LENGTH_UNIT ( ) NAMED_UNIT ( #172 ) );
#170 = SPHERICAL_SURFACE ( 'NONE', #283, 0.1875000000000000278 ) ;
#171 =( GEOMETRIC_REPRESENTATION_CONTEXT ( 3 ) GLOBAL_UNCERTAINTY_ASSIGNED_CONTEXT ( ( #320 ) ) GLOBAL_UNIT_ASSIGNED_CONTEXT ( ( #284, #225, #50 ) ) REPRESENTATION_CONTEXT ( 'NONE', 'WORKASPACE' ) );
#172 = DIMENSIONAL_EXPONENTS ( 1.000000000000000000, 0.000000000000000000, 0.000000000000000000, 0.000000000000000000, 0.000000000000000000, 0.000000000000000000, 0.000000000000000000 ) ;
#173 = PRESENTATION_STYLE_ASSIGNMENT (( #76 ) ) ;
#174 = CARTESIAN_POINT ( 'NONE',  ( 0.000000000000000000, 0.000000000000000000, 0.000000000000000000 ) ) ;
#175 = ORIENTED_EDGE ( 'NONE', *, *, #262, .T. ) ;
#176 = VECTOR ( 'NONE', #110, 39.37007874015748143 ) ;
#177 = EDGE_LOOP ( 'NONE', ( #117, #315 ) ) ;
#178 = CARTESIAN_POINT ( 'NONE',  ( 0.1874999999999997780, 2.000000000000000000, 2.296212748401285877E-17 ) ) ;
#179 = CARTESIAN_POINT ( 'NONE',  ( 0.1874999999999996392, 4.000000000000000000, 2.296212748401284644E-17 ) ) ;
#180 = MECHANICAL_DESIGN_GEOMETRIC_PRESENTATION_REPRESENTATION (  '', ( #116 ), #239 ) ;
#181 = AXIS2_PLACEMENT_3D ( 'NONE', #360, #232, #63 ) ;
#182 = EDGE_LOOP ( 'NONE', ( #324, #127, #318, #297 ) ) ;
#183 = SURFACE_STYLE_FILL_AREA ( #319 ) ;
#184 = LENGTH_MEASURE_WITH_UNIT ( LENGTH_MEASURE( 0.02539999999999999897 ), #266 );
#185 = ORIENTED_EDGE ( 'NONE', *, *, #340, .F. ) ;
#186 = FILL_AREA_STYLE_COLOUR ( '', #106 ) ;
#187 = AXIS2_PLACEMENT_3D ( 'NONE', #323, #327, #276 ) ;
#188 = CYLINDRICAL_SURFACE ( 'NONE', #316, 0.1874999999999998890 ) ;
#189 = CIRCLE ( 'NONE', #199, 0.1874999999999997780 ) ;
#190 = PRESENTATION_LAYER_ASSIGNMENT (  '', '', ( #231 ) ) ;
#191 = LENGTH_MEASURE_WITH_UNIT ( LENGTH_MEASURE( 0.02539999999999999897 ), #325 );
#192 =( NAMED_UNIT ( * ) SI_UNIT ( $, .STERADIAN. ) SOLID_ANGLE_UNIT ( ) );
#193 = CARTESIAN_POINT ( 'NONE',  ( 0.000000000000000000, 0.1875000000000000555, 0.000000000000000000 ) ) ;
#194 = FILL_AREA_STYLE_COLOUR ( '', #58 ) ;
#195 = FACE_OUTER_BOUND ( 'NONE', #182, .T. ) ;
#196 = EDGE_LOOP ( 'NONE', ( #70, #51, #3, #67, #120 ) ) ;
#197 = ADVANCED_FACE ( 'NONE', ( #134 ), #170, .T. ) ;
#198 = EDGE_LOOP ( 'NONE', ( #28, #99, #101, #1 ) ) ;
#199 = AXIS2_PLACEMENT_3D ( 'NONE', #228, #8, #206 ) ;
#200 = VERTEX_POINT ( 'NONE', #248 ) ;
#201 = ORIENTED_EDGE ( 'NONE', *, *, #348, .T. ) ;
#202 = CIRCLE ( 'NONE', #181, 0.1875000000000000278 ) ;
#203 = AXIS2_PLACEMENT_3D ( 'NONE', #10, #126, #39 ) ;
#204 = ORIENTED_EDGE ( 'NONE', *, *, #59, .T. ) ;
#205 = VERTEX_POINT ( 'NONE', #361 ) ;
#206 = DIRECTION ( 'NONE',  ( 0.000000000000000000, 0.000000000000000000, -1.000000000000000000 ) ) ;
#207 =( LENGTH_UNIT ( ) NAMED_UNIT ( * ) SI_UNIT ( $, .METRE. ) );
#208 = SURFACE_STYLE_USAGE ( .BOTH. , #321 ) ;
#209 = AXIS2_PLACEMENT_3D ( 'NONE', #174, #55, #312 ) ;
#210 = EDGE_CURVE ( 'NONE', #200, #311, #7, .T. ) ;
#211 = ORIENTED_EDGE ( 'NONE', *, *, #135, .T. ) ;
#212 = FACE_OUTER_BOUND ( 'NONE', #301, .T. ) ;
#213 = VERTEX_POINT ( 'NONE', #306 ) ;
#214 = ADVANCED_FACE ( 'NONE', ( #139 ), #17, .T. ) ;
#215 = SURFACE_SIDE_STYLE ('',( #104 ) ) ;
#216 = SURFACE_SIDE_STYLE ('',( #105 ) ) ;
#217 = AXIS2_PLACEMENT_3D ( 'NONE', #341, #84, #342 ) ;
#218 = DIRECTION ( 'NONE',  ( -1.000000000000000000, 0.000000000000000000, 0.000000000000000000 ) ) ;
#219 =( NAMED_UNIT ( * ) PLANE_ANGLE_UNIT ( ) SI_UNIT ( $, .RADIAN. ) );
#220 = CARTESIAN_POINT ( 'NONE',  ( -1.224646799147352714E-16, 4.000000000000000000, 0.000000000000000000 ) ) ;
#221 = SURFACE_SIDE_STYLE ('',( #137 ) ) ;
#222 = CLOSED_SHELL ( 'NONE', ( #29, #235, #214, #119, #197 ) ) ;
#223 = CYLINDRICAL_SURFACE ( 'NONE', #368, 0.1874999999999997780 ) ;
#224 = STYLED_ITEM ( 'NONE', ( #173 ), #235 ) ;
#225 =( NAMED_UNIT ( * ) PLANE_ANGLE_UNIT ( ) SI_UNIT ( $, .RADIAN. ) );
#226 = MANIFOLD_SOLID_BREP ( 'Revolve - Cutting Edge', #222 ) ;
#227 = PRESENTATION_STYLE_ASSIGNMENT (( #255 ) ) ;
#228 = CARTESIAN_POINT ( 'NONE',  ( 0.000000000000000000, 2.000000000000000000, 0.000000000000000000 ) ) ;
#229 = ADVANCED_FACE ( 'NONE', ( #212 ), #358, .F. ) ;
#230 =( GEOMETRIC_REPRESENTATION_CONTEXT ( 3 ) GLOBAL_UNCERTAINTY_ASSIGNED_CONTEXT ( ( #268 ) ) GLOBAL_UNIT_ASSIGNED_CONTEXT ( ( #336, #364, #192 ) ) REPRESENTATION_CONTEXT ( 'NONE', 'WORKASPACE' ) );
#231 = STYLED_ITEM ( 'NONE', ( #35 ), #29 ) ;
#232 = DIRECTION ( 'NONE',  ( 0.000000000000000000, 0.000000000000000000, -1.000000000000000000 ) ) ;
#233 = DIRECTION ( 'NONE',  ( -0.000000000000000000, -1.000000000000000000, -0.000000000000000000 ) ) ;
#234 = CARTESIAN_POINT ( 'NONE',  ( 0.000000000000000000, 2.000000000000000000, -0.1874999999999997780 ) ) ;
#235 = ADVANCED_FACE ( 'NONE', ( #68 ), #20, .T. ) ;
#236 = DIRECTION ( 'NONE',  ( -1.239378450106971924E-16, 1.000000000000000000, -0.000000000000000000 ) ) ;
#237 = DIRECTION ( 'NONE',  ( -1.000000000000000000, -1.239378450106971924E-16, 0.000000000000000000 ) ) ;
#238 = VECTOR ( 'NONE', #338, 39.37007874015748143 ) ;
#239 =( GEOMETRIC_REPRESENTATION_CONTEXT ( 3 ) GLOBAL_UNCERTAINTY_ASSIGNED_CONTEXT ( ( #62 ) ) GLOBAL_UNIT_ASSIGNED_CONTEXT ( ( #355, #260, #273 ) ) REPRESENTATION_CONTEXT ( 'NONE', 'WORKASPACE' ) );
#240 = PLANE ( 'NONE',  #144 ) ;
#241 = DIMENSIONAL_EXPONENTS ( 1.000000000000000000, 0.000000000000000000, 0.000000000000000000, 0.000000000000000000, 0.000000000000000000, 0.000000000000000000, 0.000000000000000000 ) ;
#242 = ORIENTED_EDGE ( 'NONE', *, *, #288, .F. ) ;
#243 = SHAPE_DEFINITION_REPRESENTATION ( #109, #114 ) ;
#244 =( NAMED_UNIT ( * ) PLANE_ANGLE_UNIT ( ) SI_UNIT ( $, .RADIAN. ) );
#245 =( CONVERSION_BASED_UNIT ( 'INCH', #191 ) LENGTH_UNIT ( ) NAMED_UNIT ( #308 ) );
#246 = FILL_AREA_STYLE ('',( #80 ) ) ;
#247 = CARTESIAN_POINT ( 'NONE',  ( 0.000000000000000000, 2.000000000000000000, 0.000000000000000000 ) ) ;
#248 = CARTESIAN_POINT ( 'NONE',  ( 0.1874999999999999722, 0.1875000000000000555, 0.000000000000000000 ) ) ;
#249 =( GEOMETRIC_REPRESENTATION_CONTEXT ( 3 ) GLOBAL_UNCERTAINTY_ASSIGNED_CONTEXT ( ( #161 ) ) GLOBAL_UNIT_ASSIGNED_CONTEXT ( ( #4, #94, #291 ) ) REPRESENTATION_CONTEXT ( 'NONE', 'WORKASPACE' ) );
#250 = DIRECTION ( 'NONE',  ( 1.000000000000000000, 0.000000000000000000, 0.000000000000000000 ) ) ;
#251 = DIRECTION ( 'NONE',  ( -0.000000000000000000, -1.000000000000000000, -0.000000000000000000 ) ) ;
#252 = PRODUCT ( '86026', '86026', '', ( #15 ) ) ;
#253 =( LENGTH_UNIT ( ) NAMED_UNIT ( * ) SI_UNIT ( $, .METRE. ) );
#254 = CARTESIAN_POINT ( 'NONE',  ( 0.000000000000000000, 0.000000000000000000, -0.1874999999999998890 ) ) ;
#255 = SURFACE_STYLE_USAGE ( .BOTH. , #2 ) ;
#256 = EDGE_CURVE ( 'NONE', #346, #285, #47, .T. ) ;
#257 = CIRCLE ( 'NONE', #217, 0.1874999999999999722 ) ;
#258 = DIRECTION ( 'NONE',  ( 1.224646799147353207E-16, -0.000000000000000000, 1.000000000000000000 ) ) ;
#259 = PRESENTATION_LAYER_ASSIGNMENT (  '', '', ( #224 ) ) ;
#260 =( NAMED_UNIT ( * ) PLANE_ANGLE_UNIT ( ) SI_UNIT ( $, .RADIAN. ) );
#261 = PRODUCT_DEFINITION_CONTEXT ( 'detailed design', #145, 'design' ) ;
#262 = EDGE_CURVE ( 'NONE', #31, #292, #347, .T. ) ;
#263 = DIRECTION ( 'NONE',  ( 0.000000000000000000, 0.000000000000000000, -1.000000000000000000 ) ) ;
#264 = VERTEX_POINT ( 'NONE', #83 ) ;
#265 = CARTESIAN_POINT ( 'NONE',  ( -1.224646799147352714E-16, 4.000000000000000000, 0.000000000000000000 ) ) ;
#266 =( LENGTH_UNIT ( ) NAMED_UNIT ( * ) SI_UNIT ( $, .METRE. ) );
#267 = ORIENTED_EDGE ( 'NONE', *, *, #75, .F. ) ;
#268 = UNCERTAINTY_MEASURE_WITH_UNIT (LENGTH_MEASURE( 1.000000000000000082E-05 ), #336, 'distance_accuracy_value', 'NONE');
#269 = AXIS2_PLACEMENT_3D ( 'NONE', #52, #22, #54 ) ;
#270 = ORIENTED_EDGE ( 'NONE', *, *, #282, .F. ) ;
#271 = DIRECTION ( 'NONE',  ( -0.000000000000000000, -1.000000000000000000, -0.000000000000000000 ) ) ;
#272 = EDGE_CURVE ( 'NONE', #205, #311, #372, .T. ) ;
#273 =( NAMED_UNIT ( * ) SI_UNIT ( $, .STERADIAN. ) SOLID_ANGLE_UNIT ( ) );
#274 = CARTESIAN_POINT ( 'NONE',  ( -2.296212748401287726E-17, 0.1875000000000000278, 0.000000000000000000 ) ) ;
#275 = SPHERICAL_SURFACE ( 'NONE', #77, 0.1875000000000000278 ) ;
#276 = DIRECTION ( 'NONE',  ( -1.000000000000000000, 0.000000000000000000, 0.000000000000000000 ) ) ;
#277 = MECHANICAL_DESIGN_GEOMETRIC_PRESENTATION_REPRESENTATION (  '', ( #224 ), #171 ) ;
#278 = ADVANCED_FACE ( 'NONE', ( #195 ), #223, .T. ) ;
#279 = DIRECTION ( 'NONE',  ( 0.000000000000000000, -0.000000000000000000, 1.000000000000000000 ) ) ;
#280 = EDGE_CURVE ( 'NONE', #311, #264, #257, .T. ) ;
#281 = CARTESIAN_POINT ( 'NONE',  ( -0.1874999999999999167, 4.000000000000000000, 0.000000000000000000 ) ) ;
#282 = EDGE_CURVE ( 'NONE', #31, #205, #294, .T. ) ;
#283 = AXIS2_PLACEMENT_3D ( 'NONE', #274, #300, #167 ) ;
#284 =( CONVERSION_BASED_UNIT ( 'INCH', #113 ) LENGTH_UNIT ( ) NAMED_UNIT ( #299 ) );
#285 = VERTEX_POINT ( 'NONE', #147 ) ;
#286 = CARTESIAN_POINT ( 'NONE',  ( -2.296212748401287726E-17, 0.1875000000000000278, 0.000000000000000000 ) ) ;
#287 = VERTEX_POINT ( 'NONE', #178 ) ;
#288 = EDGE_CURVE ( 'NONE', #264, #213, #115, .T. ) ;
#289 = EDGE_LOOP ( 'NONE', ( #96, #201, #175, #267, #148 ) ) ;
#290 = PRESENTATION_STYLE_ASSIGNMENT (( #64 ) ) ;
#291 =( NAMED_UNIT ( * ) SI_UNIT ( $, .STERADIAN. ) SOLID_ANGLE_UNIT ( ) );
#292 = VERTEX_POINT ( 'NONE', #353 ) ;
#293 =( GEOMETRIC_REPRESENTATION_CONTEXT ( 3 ) GLOBAL_UNCERTAINTY_ASSIGNED_CONTEXT ( ( #296 ) ) GLOBAL_UNIT_ASSIGNED_CONTEXT ( ( #169, #244, #48 ) ) REPRESENTATION_CONTEXT ( 'NONE', 'WORKASPACE' ) );
#294 = CIRCLE ( 'NONE', #269, 0.1874999999999997780 ) ;
#295 = ORIENTED_EDGE ( 'NONE', *, *, #71, .F. ) ;
#296 = UNCERTAINTY_MEASURE_WITH_UNIT (LENGTH_MEASURE( 1.000000000000000082E-05 ), #169, 'distance_accuracy_value', 'NONE');
#297 = ORIENTED_EDGE ( 'NONE', *, *, #256, .F. ) ;
#298 = FILL_AREA_STYLE_COLOUR ( '', #65 ) ;
#299 = DIMENSIONAL_EXPONENTS ( 1.000000000000000000, 0.000000000000000000, 0.000000000000000000, 0.000000000000000000, 0.000000000000000000, 0.000000000000000000, 0.000000000000000000 ) ;
#300 = DIRECTION ( 'NONE',  ( 0.000000000000000000, 0.000000000000000000, 1.000000000000000000 ) ) ;
#301 = EDGE_LOOP ( 'NONE', ( #85, #112 ) ) ;
#302 = DIRECTION ( 'NONE',  ( 1.000000000000000000, 0.000000000000000000, 0.000000000000000000 ) ) ;
#303 = AXIS2_PLACEMENT_3D ( 'NONE', #38, #271, #371 ) ;
#304 = PRESENTATION_LAYER_ASSIGNMENT (  '', '', ( #157 ) ) ;
#305 = FILL_AREA_STYLE_COLOUR ( '', #313 ) ;
#306 = CARTESIAN_POINT ( 'NONE',  ( -1.148106374200643863E-17, 0.000000000000000000, 0.000000000000000000 ) ) ;
#307 = DIRECTION ( 'NONE',  ( -1.239378450106971924E-16, 1.000000000000000000, -0.000000000000000000 ) ) ;
#308 = DIMENSIONAL_EXPONENTS ( 1.000000000000000000, 0.000000000000000000, 0.000000000000000000, 0.000000000000000000, 0.000000000000000000, 0.000000000000000000, 0.000000000000000000 ) ;
#309 = EDGE_CURVE ( 'NONE', #287, #346, #11, .T. ) ;
#310 = DIRECTION ( 'NONE',  ( -1.000000000000000000, 0.000000000000000000, 0.000000000000000000 ) ) ;
#311 = VERTEX_POINT ( 'NONE', #27 ) ;
#312 = DIRECTION ( 'NONE',  ( 0.000000000000000000, 0.000000000000000000, -1.000000000000000000 ) ) ;
#313 = COLOUR_RGB ( '',1.000000000000000000, 0.000000000000000000, 0.000000000000000000 ) ;
#314 = AXIS2_PLACEMENT_3D ( 'NONE', #286, #258, #88 ) ;
#315 = ORIENTED_EDGE ( 'NONE', *, *, #21, .F. ) ;
#316 = AXIS2_PLACEMENT_3D ( 'NONE', #97, #233, #263 ) ;
#317 = VECTOR ( 'NONE', #149, 39.37007874015748143 ) ;
#318 = ORIENTED_EDGE ( 'NONE', *, *, #71, .T. ) ;
#319 = FILL_AREA_STYLE ('',( #352 ) ) ;
#320 = UNCERTAINTY_MEASURE_WITH_UNIT (LENGTH_MEASURE( 1.000000000000000082E-05 ), #284, 'distance_accuracy_value', 'NONE');
#321 = SURFACE_SIDE_STYLE ('',( #183 ) ) ;
#322 = VECTOR ( 'NONE', #56, 39.37007874015748143 ) ;
#323 = CARTESIAN_POINT ( 'NONE',  ( -1.224646799147352714E-16, 4.000000000000000000, 0.000000000000000000 ) ) ;
#324 = ORIENTED_EDGE ( 'NONE', *, *, #309, .F. ) ;
#325 =( LENGTH_UNIT ( ) NAMED_UNIT ( * ) SI_UNIT ( $, .METRE. ) );
#326 = DIRECTION ( 'NONE',  ( 1.000000000000000000, 1.239378450106971924E-16, 0.000000000000000000 ) ) ;
#327 = DIRECTION ( 'NONE',  ( -1.239378450106971924E-16, 1.000000000000000000, -0.000000000000000000 ) ) ;
#328 = SURFACE_STYLE_USAGE ( .BOTH. , #215 ) ;
#329 = FACE_OUTER_BOUND ( 'NONE', #289, .T. ) ;
#330 = CLOSED_SHELL ( 'NONE', ( #155, #142, #278, #229 ) ) ;
#331 =( NAMED_UNIT ( * ) SI_UNIT ( $, .STERADIAN. ) SOLID_ANGLE_UNIT ( ) );
#332 = PRESENTATION_LAYER_ASSIGNMENT (  '', '', ( #14 ) ) ;
#333 = PRESENTATION_STYLE_ASSIGNMENT (( #339 ) ) ;
#334 = AXIS2_PLACEMENT_3D ( 'NONE', #193, #251, #81 ) ;
#335 =( LENGTH_UNIT ( ) NAMED_UNIT ( * ) SI_UNIT ( $, .METRE. ) );
#336 =( CONVERSION_BASED_UNIT ( 'INCH', #46 ) LENGTH_UNIT ( ) NAMED_UNIT ( #128 ) );
#337 = LINE ( 'NONE', #281, #176 ) ;
#338 = DIRECTION ( 'NONE',  ( -0.000000000000000000, -1.000000000000000000, -0.000000000000000000 ) ) ;
#339 = SURFACE_STYLE_USAGE ( .BOTH. , #221 ) ;
#340 = EDGE_CURVE ( 'NONE', #285, #346, #351, .T. ) ;
#341 = CARTESIAN_POINT ( 'NONE',  ( 0.000000000000000000, 0.1875000000000000555, 0.000000000000000000 ) ) ;
#342 = DIRECTION ( 'NONE',  ( 0.000000000000000000, 0.000000000000000000, -1.000000000000000000 ) ) ;
#343 = SURFACE_STYLE_FILL_AREA ( #45 ) ;
#344 = MECHANICAL_DESIGN_GEOMETRIC_PRESENTATION_REPRESENTATION (  '', ( #14 ), #230 ) ;
#345 = AXIS2_PLACEMENT_3D ( 'NONE', #160, #12, #302 ) ;
#346 = VERTEX_POINT ( 'NONE', #61 ) ;
#347 = LINE ( 'NONE', #254, #238 ) ;
#348 = EDGE_CURVE ( 'NONE', #205, #31, #189, .T. ) ;
#349 = SURFACE_SIDE_STYLE ('',( #33 ) ) ;
#350 = LENGTH_MEASURE_WITH_UNIT ( LENGTH_MEASURE( 0.02539999999999999897 ), #118 );
#351 = CIRCLE ( 'NONE', #26, 0.1874999999999999167 ) ;
#352 = FILL_AREA_STYLE_COLOUR ( '', #43 ) ;
#353 = CARTESIAN_POINT ( 'NONE',  ( 0.000000000000000000, 0.1875000000000000555, -0.1874999999999999722 ) ) ;
#354 = FACE_OUTER_BOUND ( 'NONE', #177, .T. ) ;
#355 =( CONVERSION_BASED_UNIT ( 'INCH', #184 ) LENGTH_UNIT ( ) NAMED_UNIT ( #153 ) );
#356 = CYLINDRICAL_SURFACE ( 'NONE', #187, 0.1874999999999997780 ) ;
#357 = MECHANICAL_DESIGN_GEOMETRIC_PRESENTATION_REPRESENTATION (  '', ( #41 ), #25 ) ;
#358 = PLANE ( 'NONE',  #138 ) ;
#359 = FACE_OUTER_BOUND ( 'NONE', #37, .T. ) ;
#360 = CARTESIAN_POINT ( 'NONE',  ( -2.296212748401287726E-17, 0.1875000000000000278, 0.000000000000000000 ) ) ;
#361 = CARTESIAN_POINT ( 'NONE',  ( 2.296212748401284952E-17, 2.000000000000000000, 0.1874999999999997780 ) ) ;
#362 =( NAMED_UNIT ( * ) SI_UNIT ( $, .STERADIAN. ) SOLID_ANGLE_UNIT ( ) );
#363 = CARTESIAN_POINT ( 'NONE',  ( 0.1874999999999997780, 4.000000000000000000, 0.000000000000000000 ) ) ;
#364 =( NAMED_UNIT ( * ) PLANE_ANGLE_UNIT ( ) SI_UNIT ( $, .RADIAN. ) );
#365 =( LENGTH_UNIT ( ) NAMED_UNIT ( * ) SI_UNIT ( $, .METRE. ) );
#366 = MECHANICAL_DESIGN_GEOMETRIC_PRESENTATION_REPRESENTATION (  '', ( #157 ), #249 ) ;
#367 = PRESENTATION_STYLE_ASSIGNMENT (( #168 ) ) ;
#368 = AXIS2_PLACEMENT_3D ( 'NONE', #82, #23, #310 ) ;
#369 = CARTESIAN_POINT ( 'NONE',  ( 1.254110101066591133E-16, 2.000000000000000000, 0.000000000000000000 ) ) ;
#370 =( CONVERSION_BASED_UNIT ( 'INCH', #133 ) LENGTH_UNIT ( ) NAMED_UNIT ( #103 ) );
#371 = DIRECTION ( 'NONE',  ( 0.000000000000000000, 0.000000000000000000, -1.000000000000000000 ) ) ;
#372 = LINE ( 'NONE', #111, #317 ) ;
#373 = MANIFOLD_SOLID_BREP ( 'Revolve - Tool Body (Straight Shanked)', #330 ) ;
ENDSEC;
END-ISO-10303-21;
