ISO-10303-21;
HEADER;
FILE_DESCRIPTION (( 'STEP AP214' ),
    '1' );
FILE_NAME ('Micro_BMSM-015-2.STEP',
    '2021-09-03T15:46:20',
    ( '' ),
    ( '' ),
    'SwSTEP 2.0',
    'SolidWorks 2020',
    '' );
FILE_SCHEMA (( 'AUTOMOTIVE_DESIGN' ));
ENDSEC;

DATA;
#1 = DIRECTION ( 'NONE',  ( -1.000000000000000000, 0.0000000000000000000, 0.0000000000000000000 ) ) ;
#2 = CARTESIAN_POINT ( 'NONE',  ( 0.02949797250000001092, 0.0000000000000000000, 0.09055100000000000648 ) ) ;
#3 = DIRECTION ( 'NONE',  ( -1.000000000000000000, 0.0000000000000000000, 1.447052840699614652E-16 ) ) ;
#4 = CIRCLE ( 'NONE', #243, 0.02949797249999999704 ) ;
#5 = EDGE_CURVE ( 'NONE', #205, #215, #314, .T. ) ;
#6 = ORIENTED_EDGE ( 'NONE', *, *, #156, .T. ) ;
#7 = CARTESIAN_POINT ( 'NONE',  ( 3.612459760346164844E-18, 0.0000000000000000000, 0.02949797249999999704 ) ) ;
#8 = VECTOR ( 'NONE', #223, 39.37007874015748143 ) ;
#9 = COLOUR_RGB ( '',0.7921568627450980005, 0.8196078431372548767, 0.9333333333333333481 ) ;
#10 = ORIENTED_EDGE ( 'NONE', *, *, #127, .T. ) ;
#11 = DIRECTION ( 'NONE',  ( -1.000000000000000000, 1.224646799147353454E-16, 0.0000000000000000000 ) ) ;
#12 = FACE_OUTER_BOUND ( 'NONE', #265, .T. ) ;
#13 = AXIS2_PLACEMENT_3D ( 'NONE', #254, #24, #46 ) ;
#14 = DIRECTION ( 'NONE',  ( 0.7071067811865482389, 8.659560562354941486E-17, -0.7071067811865469066 ) ) ;
#15 = FACE_OUTER_BOUND ( 'NONE', #183, .T. ) ;
#16 = DIRECTION ( 'NONE',  ( 0.0000000000000000000, 0.0000000000000000000, -1.000000000000000000 ) ) ;
#17 = MANIFOLD_SOLID_BREP ( 'Fillet1', #319 ) ;
#18 = VECTOR ( 'NONE', #100, 39.37007874015748143 ) ;
#19 = CARTESIAN_POINT ( 'NONE',  ( 0.0000000000000000000, 0.0000000000000000000, 1.496062999999999921 ) ) ;
#20 = CARTESIAN_POINT ( 'NONE',  ( 1.108929923095919883E-17, 0.0000000000000000000, 0.09055100000000000648 ) ) ;
#21 = CARTESIAN_POINT ( 'NONE',  ( 0.0000000000000000000, 0.0000000000000000000, 1.496062999999999921 ) ) ;
#22 = AXIS2_PLACEMENT_3D ( 'NONE', #288, #119, #58 ) ;
#23 = STYLED_ITEM ( 'NONE', ( #193 ), #77 ) ;
#24 = DIRECTION ( 'NONE',  ( 1.224646799147353207E-16, 0.0000000000000000000, 1.000000000000000000 ) ) ;
#25 = EDGE_CURVE ( 'NONE', #231, #56, #108, .T. ) ;
#26 = FACE_OUTER_BOUND ( 'NONE', #242, .T. ) ;
#27 = ORIENTED_EDGE ( 'NONE', *, *, #274, .T. ) ;
#28 = EDGE_LOOP ( 'NONE', ( #277, #158, #238 ) ) ;
#29 = CARTESIAN_POINT ( 'NONE',  ( 0.0000000000000000000, 0.0000000000000000000, 0.0000000000000000000 ) ) ;
#30 = ORIENTED_EDGE ( 'NONE', *, *, #279, .T. ) ;
#31 =( NAMED_UNIT ( * ) SI_UNIT ( $, .STERADIAN. ) SOLID_ANGLE_UNIT ( ) );
#32 = VECTOR ( 'NONE', #14, 39.37007874015748143 ) ;
#33 = CARTESIAN_POINT ( 'NONE',  ( 0.02949797250000000398, 3.612459760346164844E-18, 0.02949797249999999357 ) ) ;
#34 =( CONVERSION_BASED_UNIT ( 'INCH', #136 ) LENGTH_UNIT ( ) NAMED_UNIT ( #59 ) );
#35 = ADVANCED_FACE ( 'NONE', ( #12 ), #219, .T. ) ;
#36 = DIRECTION ( 'NONE',  ( 1.000000000000000000, 0.0000000000000000000, 0.0000000000000000000 ) ) ;
#37 = UNCERTAINTY_MEASURE_WITH_UNIT (LENGTH_MEASURE( 1.000000000000000082E-05 ), #34, 'distance_accuracy_value', 'NONE');
#38 = AXIS2_PLACEMENT_3D ( 'NONE', #227, #125, #269 ) ;
#39 = EDGE_CURVE ( 'NONE', #284, #259, #166, .T. ) ;
#40 = DIRECTION ( 'NONE',  ( -1.000000000000000000, 0.0000000000000000000, 0.0000000000000000000 ) ) ;
#41 = DIRECTION ( 'NONE',  ( 1.000000000000000000, 0.0000000000000000000, -0.0000000000000000000 ) ) ;
#42 = CARTESIAN_POINT ( 'NONE',  ( -0.02949797249999998663, 5.422305716355429748E-18, 0.09055100000000000648 ) ) ;
#43 = AXIS2_PLACEMENT_3D ( 'NONE', #73, #179, #153 ) ;
#44 = SPHERICAL_SURFACE ( 'NONE', #324, 0.02949797249999999704 ) ;
#45 = DIRECTION ( 'NONE',  ( -0.7071067811865482389, 0.0000000000000000000, -0.7071067811865469066 ) ) ;
#46 = DIRECTION ( 'NONE',  ( 1.000000000000000000, 0.0000000000000000000, 0.0000000000000000000 ) ) ;
#47 = VECTOR ( 'NONE', #191, 39.37007874015748143 ) ;
#48 = PRESENTATION_LAYER_ASSIGNMENT (  '', '', ( #23 ) ) ;
#49 = CYLINDRICAL_SURFACE ( 'NONE', #87, 0.05905500000000000332 ) ;
#50 = ORIENTED_EDGE ( 'NONE', *, *, #117, .F. ) ;
#51 = EDGE_CURVE ( 'NONE', #231, #184, #290, .T. ) ;
#52 = ORIENTED_EDGE ( 'NONE', *, *, #198, .F. ) ;
#53 = VECTOR ( 'NONE', #45, 39.37007874015748143 ) ;
#54 = EDGE_LOOP ( 'NONE', ( #6, #234 ) ) ;
#55 = CARTESIAN_POINT ( 'NONE',  ( 3.161759216420703775E-17, 0.0000000000000000000, 0.2581772327026897740 ) ) ;
#56 = VERTEX_POINT ( 'NONE', #293 ) ;
#57 = FILL_AREA_STYLE_COLOUR ( '', #9 ) ;
#58 = DIRECTION ( 'NONE',  ( 1.000000000000000000, 0.0000000000000000000, 0.0000000000000000000 ) ) ;
#59 = DIMENSIONAL_EXPONENTS ( 1.000000000000000000, 0.0000000000000000000, 0.0000000000000000000, 0.0000000000000000000, 0.0000000000000000000, 0.0000000000000000000, 0.0000000000000000000 ) ;
#60 = SHAPE_DEFINITION_REPRESENTATION ( #203, #77 ) ;
#61 =( NAMED_UNIT ( * ) PLANE_ANGLE_UNIT ( ) SI_UNIT ( $, .RADIAN. ) );
#62 = ADVANCED_FACE ( 'NONE', ( #317 ), #220, .T. ) ;
#63 = AXIS2_PLACEMENT_3D ( 'NONE', #120, #66, #247 ) ;
#64 = CARTESIAN_POINT ( 'NONE',  ( 1.108929923095919883E-17, 0.0000000000000000000, 0.09055100000000000648 ) ) ;
#65 = ADVANCED_FACE ( 'NONE', ( #15 ), #154, .T. ) ;
#66 = DIRECTION ( 'NONE',  ( 0.0000000000000000000, -1.000000000000000000, 0.0000000000000000000 ) ) ;
#67 = CARTESIAN_POINT ( 'NONE',  ( 0.02949797250000001092, 0.0000000000000000000, 0.09055100000000000648 ) ) ;
#68 = EDGE_CURVE ( 'NONE', #259, #309, #275, .T. ) ;
#69 = CARTESIAN_POINT ( 'NONE',  ( -0.02949797249999998663, 3.612459760346164844E-18, 0.09055100000000000648 ) ) ;
#70 = CIRCLE ( 'NONE', #43, 0.02949797249999999704 ) ;
#71 = DIRECTION ( 'NONE',  ( 1.000000000000000000, 0.0000000000000000000, 0.0000000000000000000 ) ) ;
#72 = LINE ( 'NONE', #67, #121 ) ;
#73 = CARTESIAN_POINT ( 'NONE',  ( 3.612459760346164844E-18, 0.0000000000000000000, 0.02949797249999999704 ) ) ;
#74 = ORIENTED_EDGE ( 'NONE', *, *, #161, .T. ) ;
#75 = CIRCLE ( 'NONE', #63, 0.02949797249999999704 ) ;
#76 =( LENGTH_UNIT ( ) NAMED_UNIT ( * ) SI_UNIT ( $, .METRE. ) );
#77 = ADVANCED_BREP_SHAPE_REPRESENTATION ( 'Micro_BMSM-015-2', ( #17, #244 ), #299 ) ;
#78 = ORIENTED_EDGE ( 'NONE', *, *, #110, .T. ) ;
#79 = EDGE_LOOP ( 'NONE', ( #50, #30, #278 ) ) ;
#80 = CIRCLE ( 'NONE', #147, 0.05905500000000000332 ) ;
#81 = ORIENTED_EDGE ( 'NONE', *, *, #270, .T. ) ;
#82 = CARTESIAN_POINT ( 'NONE',  ( 0.05905500000000004496, 7.232151672364700045E-18, 0.2581772327026897740 ) ) ;
#83 = EDGE_CURVE ( 'NONE', #184, #284, #160, .T. ) ;
#84 = ORIENTED_EDGE ( 'NONE', *, *, #97, .F. ) ;
#85 =( CONVERSION_BASED_UNIT ( 'INCH', #112 ) LENGTH_UNIT ( ) NAMED_UNIT ( #292 ) );
#86 = SURFACE_STYLE_USAGE ( .BOTH. , #273 ) ;
#87 = AXIS2_PLACEMENT_3D ( 'NONE', #311, #206, #155 ) ;
#88 =( LENGTH_UNIT ( ) NAMED_UNIT ( * ) SI_UNIT ( $, .METRE. ) );
#89 = SURFACE_STYLE_FILL_AREA ( #312 ) ;
#90 = ADVANCED_FACE ( 'NONE', ( #252 ), #151, .T. ) ;
#91 = ORIENTED_EDGE ( 'NONE', *, *, #25, .F. ) ;
#92 = AXIS2_PLACEMENT_3D ( 'NONE', #93, #229, #322 ) ;
#93 = CARTESIAN_POINT ( 'NONE',  ( 1.108929923095919883E-17, 0.0000000000000000000, 0.09055100000000000648 ) ) ;
#94 = PRODUCT_RELATED_PRODUCT_CATEGORY ( 'part', '', ( #253 ) ) ;
#95 = FACE_OUTER_BOUND ( 'NONE', #79, .T. ) ;
#96 = DIRECTION ( 'NONE',  ( 0.0000000000000000000, 0.0000000000000000000, -1.000000000000000000 ) ) ;
#97 = EDGE_CURVE ( 'NONE', #103, #259, #175, .T. ) ;
#98 = CONICAL_SURFACE ( 'NONE', #13, 0.02949797249999999704, 0.1745329251994339470 ) ;
#99 = DIRECTION ( 'NONE',  ( 1.000000000000000000, 0.0000000000000000000, 0.0000000000000000000 ) ) ;
#100 = DIRECTION ( 'NONE',  ( -0.0000000000000000000, -0.0000000000000000000, -1.000000000000000000 ) ) ;
#101 = APPLICATION_CONTEXT ( 'automotive_design' ) ;
#102 = DIRECTION ( 'NONE',  ( -1.224646799147353207E-16, -0.0000000000000000000, -1.000000000000000000 ) ) ;
#103 = VERTEX_POINT ( 'NONE', #42 ) ;
#104 = MECHANICAL_DESIGN_GEOMETRIC_PRESENTATION_REPRESENTATION (  '', ( #248 ), #180 ) ;
#105 = EDGE_CURVE ( 'NONE', #56, #284, #202, .T. ) ;
#106 = VERTEX_POINT ( 'NONE', #300 ) ;
#107 = ORIENTED_EDGE ( 'NONE', *, *, #5, .T. ) ;
#108 = CIRCLE ( 'NONE', #22, 0.04405499999999973326 ) ;
#109 = ORIENTED_EDGE ( 'NONE', *, *, #68, .F. ) ;
#110 = EDGE_CURVE ( 'NONE', #103, #205, #224, .T. ) ;
#111 =( NAMED_UNIT ( * ) SI_UNIT ( $, .STERADIAN. ) SOLID_ANGLE_UNIT ( ) );
#112 = LENGTH_MEASURE_WITH_UNIT ( LENGTH_MEASURE( 0.02539999999999999897 ), #76 );
#113 = ORIENTED_EDGE ( 'NONE', *, *, #110, .F. ) ;
#114 = DIMENSIONAL_EXPONENTS ( 1.000000000000000000, 0.0000000000000000000, 0.0000000000000000000, 0.0000000000000000000, 0.0000000000000000000, 0.0000000000000000000, 0.0000000000000000000 ) ;
#115 = AXIS2_PLACEMENT_3D ( 'NONE', #144, #16, #176 ) ;
#116 = DIRECTION ( 'NONE',  ( 1.224646799147353207E-16, 0.0000000000000000000, 1.000000000000000000 ) ) ;
#117 = EDGE_CURVE ( 'NONE', #106, #215, #75, .T. ) ;
#118 = UNCERTAINTY_MEASURE_WITH_UNIT (LENGTH_MEASURE( 1.000000000000000082E-05 ), #85, 'distance_accuracy_value', 'NONE');
#119 = DIRECTION ( 'NONE',  ( 0.0000000000000000000, 0.0000000000000000000, 1.000000000000000000 ) ) ;
#120 = CARTESIAN_POINT ( 'NONE',  ( 3.612459760346164844E-18, 0.0000000000000000000, 0.02949797249999999704 ) ) ;
#121 = VECTOR ( 'NONE', #260, 39.37007874015748143 ) ;
#122 = FACE_OUTER_BOUND ( 'NONE', #188, .T. ) ;
#123 = CARTESIAN_POINT ( 'NONE',  ( 0.0000000000000000000, 0.0000000000000000000, 1.496062999999999921 ) ) ;
#124 = DIRECTION ( 'NONE',  ( 1.000000000000000000, 0.0000000000000000000, 0.0000000000000000000 ) ) ;
#125 = DIRECTION ( 'NONE',  ( 0.0000000000000000000, 0.0000000000000000000, -1.000000000000000000 ) ) ;
#126 = PRODUCT_DEFINITION_FORMATION_WITH_SPECIFIED_SOURCE ( 'ANY', '', #253, .NOT_KNOWN. ) ;
#127 = EDGE_CURVE ( 'NONE', #103, #163, #267, .T. ) ;
#128 = ORIENTED_EDGE ( 'NONE', *, *, #39, .T. ) ;
#129 = DIRECTION ( 'NONE',  ( 1.224646799147353207E-16, 0.0000000000000000000, 1.000000000000000000 ) ) ;
#130 = ORIENTED_EDGE ( 'NONE', *, *, #68, .T. ) ;
#131 = ADVANCED_FACE ( 'NONE', ( #226 ), #196, .T. ) ;
#132 = DIRECTION ( 'NONE',  ( 1.224646799147353207E-16, 1.000000000000000000, -0.0000000000000000000 ) ) ;
#133 = DIRECTION ( 'NONE',  ( -0.0000000000000000000, -0.0000000000000000000, -1.000000000000000000 ) ) ;
#134 = APPLICATION_CONTEXT ( 'automotive_design' ) ;
#135 = CIRCLE ( 'NONE', #92, 0.02949797249999999704 ) ;
#136 = LENGTH_MEASURE_WITH_UNIT ( LENGTH_MEASURE( 0.02539999999999999897 ), #169 );
#137 = DIRECTION ( 'NONE',  ( 1.000000000000000000, 0.0000000000000000000, 0.0000000000000000000 ) ) ;
#138 = ORIENTED_EDGE ( 'NONE', *, *, #285, .T. ) ;
#139 = CARTESIAN_POINT ( 'NONE',  ( 0.04405499999999973326, 5.395181473643630390E-18, 1.496062999999999921 ) ) ;
#140 = LENGTH_MEASURE_WITH_UNIT ( LENGTH_MEASURE( 0.02539999999999999897 ), #88 );
#141 = AXIS2_PLACEMENT_3D ( 'NONE', #157, #304, #137 ) ;
#142 = SURFACE_STYLE_USAGE ( .BOTH. , #294 ) ;
#143 = PRODUCT_CONTEXT ( 'NONE', #101, 'mechanical' ) ;
#144 = CARTESIAN_POINT ( 'NONE',  ( 0.0000000000000000000, 0.0000000000000000000, 1.496062999999999921 ) ) ;
#145 = DIRECTION ( 'NONE',  ( 1.000000000000000000, 0.0000000000000000000, 0.0000000000000000000 ) ) ;
#146 = DIRECTION ( 'NONE',  ( -0.1736481776669312194, 2.126576849575783625E-17, 0.9848077530122077983 ) ) ;
#147 = AXIS2_PLACEMENT_3D ( 'NONE', #55, #102, #235 ) ;
#148 = DIRECTION ( 'NONE',  ( -1.224646799147353207E-16, -0.0000000000000000000, -1.000000000000000000 ) ) ;
#149 = DIRECTION ( 'NONE',  ( 0.0000000000000000000, 1.000000000000000000, 0.0000000000000000000 ) ) ;
#150 = ADVANCED_FACE ( 'NONE', ( #122 ), #197, .T. ) ;
#151 = PLANE ( 'NONE',  #228 ) ;
#152 = ADVANCED_FACE ( 'NONE', ( #321 ), #44, .T. ) ;
#153 = DIRECTION ( 'NONE',  ( -1.000000000000000000, 0.0000000000000000000, 1.447052840699614652E-16 ) ) ;
#154 = CONICAL_SURFACE ( 'NONE', #212, 0.04405499999999973326, 0.7853981633974491672 ) ;
#155 = DIRECTION ( 'NONE',  ( -1.000000000000000000, 0.0000000000000000000, 0.0000000000000000000 ) ) ;
#156 = EDGE_CURVE ( 'NONE', #56, #231, #207, .T. ) ;
#157 = CARTESIAN_POINT ( 'NONE',  ( 0.0000000000000000000, 0.0000000000000000000, 1.481062999999999574 ) ) ;
#158 = ORIENTED_EDGE ( 'NONE', *, *, #117, .T. ) ;
#159 = AXIS2_PLACEMENT_3D ( 'NONE', #64, #116, #36 ) ;
#160 = CIRCLE ( 'NONE', #38, 0.05905500000000000332 ) ;
#161 = EDGE_CURVE ( 'NONE', #205, #103, #135, .T. ) ;
#162 = ORIENTED_EDGE ( 'NONE', *, *, #97, .T. ) ;
#163 = VERTEX_POINT ( 'NONE', #301 ) ;
#164 =( NAMED_UNIT ( * ) PLANE_ANGLE_UNIT ( ) SI_UNIT ( $, .RADIAN. ) );
#165 = FILL_AREA_STYLE_COLOUR ( '', #195 ) ;
#166 = LINE ( 'NONE', #221, #47 ) ;
#167 =( NAMED_UNIT ( * ) SI_UNIT ( $, .STERADIAN. ) SOLID_ANGLE_UNIT ( ) );
#168 = ORIENTED_EDGE ( 'NONE', *, *, #211, .T. ) ;
#169 =( LENGTH_UNIT ( ) NAMED_UNIT ( * ) SI_UNIT ( $, .METRE. ) );
#170 = AXIS2_PLACEMENT_3D ( 'NONE', #171, #133, #246 ) ;
#171 = CARTESIAN_POINT ( 'NONE',  ( 0.0000000000000000000, 0.0000000000000000000, 1.496062999999999921 ) ) ;
#172 = CARTESIAN_POINT ( 'NONE',  ( 0.0000000000000000000, 0.0000000000000000000, 0.0000000000000000000 ) ) ;
#173 = CARTESIAN_POINT ( 'NONE',  ( 3.161759216420703775E-17, 0.0000000000000000000, 0.2581772327026897740 ) ) ;
#174 = AXIS2_PLACEMENT_3D ( 'NONE', #20, #148, #40 ) ;
#175 = LINE ( 'NONE', #69, #313 ) ;
#176 = DIRECTION ( 'NONE',  ( -1.000000000000000000, 0.0000000000000000000, 0.0000000000000000000 ) ) ;
#177 = SURFACE_STYLE_FILL_AREA ( #239 ) ;
#178 = PRESENTATION_LAYER_ASSIGNMENT (  '', '', ( #248 ) ) ;
#179 = DIRECTION ( 'NONE',  ( 1.224646799147353207E-16, 0.0000000000000000000, 1.000000000000000000 ) ) ;
#180 =( GEOMETRIC_REPRESENTATION_CONTEXT ( 3 ) GLOBAL_UNCERTAINTY_ASSIGNED_CONTEXT ( ( #37 ) ) GLOBAL_UNIT_ASSIGNED_CONTEXT ( ( #34, #194, #111 ) ) REPRESENTATION_CONTEXT ( 'NONE', 'WORKASPACE' ) );
#181 = ORIENTED_EDGE ( 'NONE', *, *, #156, .F. ) ;
#182 = CARTESIAN_POINT ( 'NONE',  ( -0.05905500000000000332, 0.0000000000000000000, 1.481062999999999574 ) ) ;
#183 = EDGE_LOOP ( 'NONE', ( #281, #181, #256, #209 ) ) ;
#184 = VERTEX_POINT ( 'NONE', #268 ) ;
#185 = ORIENTED_EDGE ( 'NONE', *, *, #105, .F. ) ;
#186 = CIRCLE ( 'NONE', #141, 0.05905500000000000332 ) ;
#187 = ADVANCED_FACE ( 'NONE', ( #95 ), #199, .T. ) ;
#188 = EDGE_LOOP ( 'NONE', ( #78, #107, #138, #306 ) ) ;
#189 = CARTESIAN_POINT ( 'NONE',  ( 0.02949797249999999704, 3.612459760346164844E-18, -3.612459760346164844E-18 ) ) ;
#190 = AXIS2_PLACEMENT_3D ( 'NONE', #230, #129, #3 ) ;
#191 = DIRECTION ( 'NONE',  ( -0.0000000000000000000, -0.0000000000000000000, -1.000000000000000000 ) ) ;
#192 = ORIENTED_EDGE ( 'NONE', *, *, #274, .F. ) ;
#193 = PRESENTATION_STYLE_ASSIGNMENT (( #86 ) ) ;
#194 =( NAMED_UNIT ( * ) PLANE_ANGLE_UNIT ( ) SI_UNIT ( $, .RADIAN. ) );
#195 = COLOUR_RGB ( '',0.7921568627450980005, 0.8196078431372548767, 0.9333333333333333481 ) ;
#196 = CONICAL_SURFACE ( 'NONE', #115, 0.04405499999999973326, 0.7853981633974491672 ) ;
#197 = CYLINDRICAL_SURFACE ( 'NONE', #257, 0.02949797249999999704 ) ;
#198 = EDGE_CURVE ( 'NONE', #205, #309, #72, .T. ) ;
#199 = SPHERICAL_SURFACE ( 'NONE', #320, 0.02949797249999999704 ) ;
#200 = CARTESIAN_POINT ( 'NONE',  ( 3.612459760346164844E-18, 0.0000000000000000000, 0.02949797249999999704 ) ) ;
#201 = DIRECTION ( 'NONE',  ( 0.0000000000000000000, 1.000000000000000000, 0.0000000000000000000 ) ) ;
#202 = LINE ( 'NONE', #296, #53 ) ;
#203 = PRODUCT_DEFINITION_SHAPE ( 'NONE', 'NONE',  #295 ) ;
#204 = CARTESIAN_POINT ( 'NONE',  ( -0.05905499999999996863, 0.0000000000000000000, 0.2581772327026897740 ) ) ;
#205 = VERTEX_POINT ( 'NONE', #2 ) ;
#206 = DIRECTION ( 'NONE',  ( -0.0000000000000000000, -0.0000000000000000000, -1.000000000000000000 ) ) ;
#207 = CIRCLE ( 'NONE', #303, 0.04405499999999973326 ) ;
#208 = ORIENTED_EDGE ( 'NONE', *, *, #51, .T. ) ;
#209 = ORIENTED_EDGE ( 'NONE', *, *, #83, .F. ) ;
#210 = ORIENTED_EDGE ( 'NONE', *, *, #198, .T. ) ;
#211 = EDGE_CURVE ( 'NONE', #184, #309, #263, .T. ) ;
#212 = AXIS2_PLACEMENT_3D ( 'NONE', #19, #96, #1 ) ;
#213 = MECHANICAL_DESIGN_GEOMETRIC_PRESENTATION_REPRESENTATION (  '', ( #23 ), #262 ) ;
#214 = FACE_OUTER_BOUND ( 'NONE', #305, .T. ) ;
#215 = VERTEX_POINT ( 'NONE', #33 ) ;
#216 = APPLICATION_PROTOCOL_DEFINITION ( 'draft international standard', 'automotive_design', 1998, #101 ) ;
#217 = ORIENTED_EDGE ( 'NONE', *, *, #83, .T. ) ;
#218 = EDGE_LOOP ( 'NONE', ( #310, #217, #128, #192 ) ) ;
#219 = CONICAL_SURFACE ( 'NONE', #159, 0.02949797249999999704, 0.1745329251994339470 ) ;
#220 = CYLINDRICAL_SURFACE ( 'NONE', #170, 0.05905500000000000332 ) ;
#221 = CARTESIAN_POINT ( 'NONE',  ( -0.05905500000000000332, 0.0000000000000000000, 1.496062999999999921 ) ) ;
#222 = APPLICATION_PROTOCOL_DEFINITION ( 'draft international standard', 'automotive_design', 1998, #134 ) ;
#223 = DIRECTION ( 'NONE',  ( -1.224646799147353207E-16, -0.0000000000000000000, -1.000000000000000000 ) ) ;
#224 = CIRCLE ( 'NONE', #174, 0.02949797249999999704 ) ;
#225 = DIRECTION ( 'NONE',  ( -1.224646799147353207E-16, -0.0000000000000000000, -1.000000000000000000 ) ) ;
#226 = FACE_OUTER_BOUND ( 'NONE', #307, .T. ) ;
#227 = CARTESIAN_POINT ( 'NONE',  ( 0.0000000000000000000, 0.0000000000000000000, 1.481062999999999574 ) ) ;
#228 = AXIS2_PLACEMENT_3D ( 'NONE', #123, #298, #41 ) ;
#229 = DIRECTION ( 'NONE',  ( -1.224646799147353207E-16, -0.0000000000000000000, -1.000000000000000000 ) ) ;
#230 = CARTESIAN_POINT ( 'NONE',  ( 3.612459760346164844E-18, 0.0000000000000000000, 0.02949797249999999704 ) ) ;
#231 = VERTEX_POINT ( 'NONE', #302 ) ;
#232 = DIRECTION ( 'NONE',  ( -1.224646799147353207E-16, -0.0000000000000000000, -1.000000000000000000 ) ) ;
#233 = ORIENTED_EDGE ( 'NONE', *, *, #325, .T. ) ;
#234 = ORIENTED_EDGE ( 'NONE', *, *, #25, .T. ) ;
#235 = DIRECTION ( 'NONE',  ( 1.000000000000000000, 0.0000000000000000000, 0.0000000000000000000 ) ) ;
#236 = ORIENTED_EDGE ( 'NONE', *, *, #325, .F. ) ;
#237 = ADVANCED_FACE ( 'NONE', ( #26 ), #276, .T. ) ;
#238 = ORIENTED_EDGE ( 'NONE', *, *, #270, .F. ) ;
#239 = FILL_AREA_STYLE ('',( #57 ) ) ;
#240 = PRESENTATION_STYLE_ASSIGNMENT (( #142 ) ) ;
#241 =( CONVERSION_BASED_UNIT ( 'INCH', #140 ) LENGTH_UNIT ( ) NAMED_UNIT ( #114 ) );
#242 = EDGE_LOOP ( 'NONE', ( #258, #74, #10, #81 ) ) ;
#243 = AXIS2_PLACEMENT_3D ( 'NONE', #7, #132, #11 ) ;
#244 = AXIS2_PLACEMENT_3D ( 'NONE', #315, #245, #145 ) ;
#245 = DIRECTION ( 'NONE',  ( 0.0000000000000000000, 0.0000000000000000000, 1.000000000000000000 ) ) ;
#246 = DIRECTION ( 'NONE',  ( -1.000000000000000000, 0.0000000000000000000, 0.0000000000000000000 ) ) ;
#247 = DIRECTION ( 'NONE',  ( 0.0000000000000000000, 0.0000000000000000000, -1.000000000000000000 ) ) ;
#248 = STYLED_ITEM ( 'NONE', ( #240 ), #17 ) ;
#249 = CIRCLE ( 'NONE', #190, 0.02949797249999999704 ) ;
#250 = CARTESIAN_POINT ( 'NONE',  ( -0.02949797249999999704, 0.0000000000000000000, 3.612459760346164844E-18 ) ) ;
#251 = DIRECTION ( 'NONE',  ( 1.000000000000000000, 0.0000000000000000000, 0.0000000000000000000 ) ) ;
#252 = FACE_OUTER_BOUND ( 'NONE', #54, .T. ) ;
#253 = PRODUCT ( 'Micro_BMSM-015-2', 'Micro_BMSM-015-2', '', ( #143 ) ) ;
#254 = CARTESIAN_POINT ( 'NONE',  ( 1.108929923095919883E-17, 0.0000000000000000000, 0.09055100000000000648 ) ) ;
#255 = CARTESIAN_POINT ( 'NONE',  ( 0.05905500000000000332, 7.232151672364695422E-18, 1.496062999999999921 ) ) ;
#256 = ORIENTED_EDGE ( 'NONE', *, *, #105, .T. ) ;
#257 = AXIS2_PLACEMENT_3D ( 'NONE', #172, #318, #271 ) ;
#258 = ORIENTED_EDGE ( 'NONE', *, *, #5, .F. ) ;
#259 = VERTEX_POINT ( 'NONE', #204 ) ;
#260 = DIRECTION ( 'NONE',  ( 0.1736481776669314414, 0.0000000000000000000, 0.9848077530122077983 ) ) ;
#261 = ORIENTED_EDGE ( 'NONE', *, *, #161, .F. ) ;
#262 =( GEOMETRIC_REPRESENTATION_CONTEXT ( 3 ) GLOBAL_UNCERTAINTY_ASSIGNED_CONTEXT ( ( #316 ) ) GLOBAL_UNIT_ASSIGNED_CONTEXT ( ( #241, #61, #167 ) ) REPRESENTATION_CONTEXT ( 'NONE', 'WORKASPACE' ) );
#263 = LINE ( 'NONE', #255, #18 ) ;
#264 = DIRECTION ( 'NONE',  ( -1.224646799147353207E-16, -0.0000000000000000000, -1.000000000000000000 ) ) ;
#265 = EDGE_LOOP ( 'NONE', ( #84, #261, #210, #27 ) ) ;
#266 = EDGE_LOOP ( 'NONE', ( #233, #168, #109, #282 ) ) ;
#267 = LINE ( 'NONE', #250, #8 ) ;
#268 = CARTESIAN_POINT ( 'NONE',  ( 0.05905500000000000332, 7.232151672364695422E-18, 1.481062999999999574 ) ) ;
#269 = DIRECTION ( 'NONE',  ( 1.000000000000000000, 0.0000000000000000000, 0.0000000000000000000 ) ) ;
#270 = EDGE_CURVE ( 'NONE', #163, #215, #249, .T. ) ;
#271 = DIRECTION ( 'NONE',  ( -1.000000000000000000, 0.0000000000000000000, 1.224646799147353454E-16 ) ) ;
#272 = DIRECTION ( 'NONE',  ( 0.0000000000000000000, 0.0000000000000000000, 1.000000000000000000 ) ) ;
#273 = SURFACE_SIDE_STYLE ('',( #177 ) ) ;
#274 = EDGE_CURVE ( 'NONE', #309, #259, #80, .T. ) ;
#275 = CIRCLE ( 'NONE', #280, 0.05905500000000000332 ) ;
#276 = CYLINDRICAL_SURFACE ( 'NONE', #289, 0.02949797249999999704 ) ;
#277 = ORIENTED_EDGE ( 'NONE', *, *, #279, .F. ) ;
#278 = ORIENTED_EDGE ( 'NONE', *, *, #285, .F. ) ;
#279 = EDGE_CURVE ( 'NONE', #106, #163, #4, .T. ) ;
#280 = AXIS2_PLACEMENT_3D ( 'NONE', #173, #225, #99 ) ;
#281 = ORIENTED_EDGE ( 'NONE', *, *, #51, .F. ) ;
#282 = ORIENTED_EDGE ( 'NONE', *, *, #39, .F. ) ;
#283 = DIRECTION ( 'NONE',  ( -1.000000000000000000, 0.0000000000000000000, 1.224646799147353454E-16 ) ) ;
#284 = VERTEX_POINT ( 'NONE', #182 ) ;
#285 = EDGE_CURVE ( 'NONE', #215, #163, #70, .T. ) ;
#286 = FACE_OUTER_BOUND ( 'NONE', #218, .T. ) ;
#287 = PRODUCT_DEFINITION_CONTEXT ( 'detailed design', #134, 'design' ) ;
#288 = CARTESIAN_POINT ( 'NONE',  ( 0.0000000000000000000, 0.0000000000000000000, 1.496062999999999921 ) ) ;
#289 = AXIS2_PLACEMENT_3D ( 'NONE', #29, #232, #283 ) ;
#290 = LINE ( 'NONE', #139, #32 ) ;
#291 = ADVANCED_FACE ( 'NONE', ( #214 ), #98, .T. ) ;
#292 = DIMENSIONAL_EXPONENTS ( 1.000000000000000000, 0.0000000000000000000, 0.0000000000000000000, 0.0000000000000000000, 0.0000000000000000000, 0.0000000000000000000, 0.0000000000000000000 ) ;
#293 = CARTESIAN_POINT ( 'NONE',  ( -0.04405499999999973326, 0.0000000000000000000, 1.496062999999999921 ) ) ;
#294 = SURFACE_SIDE_STYLE ('',( #89 ) ) ;
#295 = PRODUCT_DEFINITION ( 'UNKNOWN', '', #126, #287 ) ;
#296 = CARTESIAN_POINT ( 'NONE',  ( -0.04405499999999973326, 0.0000000000000000000, 1.496062999999999921 ) ) ;
#297 = CARTESIAN_POINT ( 'NONE',  ( 3.612459760346164844E-18, 0.0000000000000000000, 0.02949797249999999704 ) ) ;
#298 = DIRECTION ( 'NONE',  ( 0.0000000000000000000, 0.0000000000000000000, 1.000000000000000000 ) ) ;
#299 =( GEOMETRIC_REPRESENTATION_CONTEXT ( 3 ) GLOBAL_UNCERTAINTY_ASSIGNED_CONTEXT ( ( #118 ) ) GLOBAL_UNIT_ASSIGNED_CONTEXT ( ( #85, #164, #31 ) ) REPRESENTATION_CONTEXT ( 'NONE', 'WORKASPACE' ) );
#300 = CARTESIAN_POINT ( 'NONE',  ( 5.418689640519246881E-18, 0.0000000000000000000, 0.0000000000000000000 ) ) ;
#301 = CARTESIAN_POINT ( 'NONE',  ( -0.02949797249999999357, 0.0000000000000000000, 0.02949797250000000398 ) ) ;
#302 = CARTESIAN_POINT ( 'NONE',  ( 0.04405499999999973326, 6.313666573004162521E-18, 1.496062999999999921 ) ) ;
#303 = AXIS2_PLACEMENT_3D ( 'NONE', #21, #272, #251 ) ;
#304 = DIRECTION ( 'NONE',  ( 0.0000000000000000000, 0.0000000000000000000, -1.000000000000000000 ) ) ;
#305 = EDGE_LOOP ( 'NONE', ( #113, #162, #130, #52 ) ) ;
#306 = ORIENTED_EDGE ( 'NONE', *, *, #127, .F. ) ;
#307 = EDGE_LOOP ( 'NONE', ( #91, #208, #236, #185 ) ) ;
#308 = VECTOR ( 'NONE', #264, 39.37007874015748143 ) ;
#309 = VERTEX_POINT ( 'NONE', #82 ) ;
#310 = ORIENTED_EDGE ( 'NONE', *, *, #211, .F. ) ;
#311 = CARTESIAN_POINT ( 'NONE',  ( 0.0000000000000000000, 0.0000000000000000000, 1.496062999999999921 ) ) ;
#312 = FILL_AREA_STYLE ('',( #165 ) ) ;
#313 = VECTOR ( 'NONE', #146, 39.37007874015748143 ) ;
#314 = LINE ( 'NONE', #189, #308 ) ;
#315 = CARTESIAN_POINT ( 'NONE',  ( 0.0000000000000000000, 0.0000000000000000000, 0.0000000000000000000 ) ) ;
#316 = UNCERTAINTY_MEASURE_WITH_UNIT (LENGTH_MEASURE( 1.000000000000000082E-05 ), #241, 'distance_accuracy_value', 'NONE');
#317 = FACE_OUTER_BOUND ( 'NONE', #266, .T. ) ;
#318 = DIRECTION ( 'NONE',  ( -1.224646799147353207E-16, -0.0000000000000000000, -1.000000000000000000 ) ) ;
#319 = CLOSED_SHELL ( 'NONE', ( #187, #150, #291, #131, #62, #323, #90, #65, #35, #237, #152 ) ) ;
#320 = AXIS2_PLACEMENT_3D ( 'NONE', #297, #201, #71 ) ;
#321 = FACE_OUTER_BOUND ( 'NONE', #28, .T. ) ;
#322 = DIRECTION ( 'NONE',  ( -1.000000000000000000, 0.0000000000000000000, 0.0000000000000000000 ) ) ;
#323 = ADVANCED_FACE ( 'NONE', ( #286 ), #49, .T. ) ;
#324 = AXIS2_PLACEMENT_3D ( 'NONE', #200, #149, #124 ) ;
#325 = EDGE_CURVE ( 'NONE', #284, #184, #186, .T. ) ;
ENDSEC;
END-ISO-10303-21;
