ISO-10303-21;
HEADER;
FILE_DESCRIPTION (( 'STEP AP214' ),
    '1' );
FILE_NAME ('Micro_KC-093-140-010.STEP',
    '2021-09-03T19:04:50',
    ( '' ),
    ( '' ),
    'SwSTEP 2.0',
    'SolidWorks 2020',
    '' );
FILE_SCHEMA (( 'AUTOMOTIVE_DESIGN' ));
ENDSEC;

DATA;
#1 = ORIENTED_EDGE ( 'NONE', *, *, #47, .T. ) ;
#2 =( NAMED_UNIT ( * ) SI_UNIT ( $, .STERADIAN. ) SOLID_ANGLE_UNIT ( ) );
#3 = ORIENTED_EDGE ( 'NONE', *, *, #133, .T. ) ;
#4 = SURFACE_STYLE_FILL_AREA ( #267 ) ;
#5 = ORIENTED_EDGE ( 'NONE', *, *, #159, .F. ) ;
#6 = DIMENSIONAL_EXPONENTS ( 1.000000000000000000, 0.0000000000000000000, 0.0000000000000000000, 0.0000000000000000000, 0.0000000000000000000, 0.0000000000000000000, 0.0000000000000000000 ) ;
#7 = CARTESIAN_POINT ( 'NONE',  ( 0.0000000000000000000, 0.0000000000000000000, 1.485000000000000764 ) ) ;
#8 = ORIENTED_EDGE ( 'NONE', *, *, #240, .T. ) ;
#9 = EDGE_LOOP ( 'NONE', ( #141, #204 ) ) ;
#10 = CARTESIAN_POINT ( 'NONE',  ( 0.0000000000000000000, 0.0000000000000000000, 0.1400000000000000133 ) ) ;
#11 = CIRCLE ( 'NONE', #95, 0.02350000000000002781 ) ;
#12 = CARTESIAN_POINT ( 'NONE',  ( 0.0000000000000000000, 0.0000000000000000000, 1.500000000000000222 ) ) ;
#13 = CARTESIAN_POINT ( 'NONE',  ( 0.06250000000000000000, 7.654042494670956004E-18, 0.1789999999999997982 ) ) ;
#14 = PLANE ( 'NONE',  #164 ) ;
#15 =( NAMED_UNIT ( * ) SI_UNIT ( $, .STERADIAN. ) SOLID_ANGLE_UNIT ( ) );
#16 = CARTESIAN_POINT ( 'NONE',  ( -0.02350000000000001740, 0.0000000000000000000, 0.0000000000000000000 ) ) ;
#17 = VERTEX_POINT ( 'NONE', #31 ) ;
#18 = CARTESIAN_POINT ( 'NONE',  ( 0.02350000000000001740, 2.877919977996282524E-18, 0.0000000000000000000 ) ) ;
#19 = VERTEX_POINT ( 'NONE', #125 ) ;
#20 = AXIS2_PLACEMENT_3D ( 'NONE', #128, #248, #365 ) ;
#21 = FACE_OUTER_BOUND ( 'NONE', #254, .T. ) ;
#22 = CYLINDRICAL_SURFACE ( 'NONE', #33, 0.06250000000000000000 ) ;
#23 = ORIENTED_EDGE ( 'NONE', *, *, #116, .F. ) ;
#24 = DIRECTION ( 'NONE',  ( 1.000000000000000000, 0.0000000000000000000, 0.0000000000000000000 ) ) ;
#25 = VECTOR ( 'NONE', #136, 39.37007874015748143 ) ;
#26 = VERTEX_POINT ( 'NONE', #152 ) ;
#27 = ADVANCED_FACE ( 'NONE', ( #213 ), #183, .T. ) ;
#28 = LENGTH_MEASURE_WITH_UNIT ( LENGTH_MEASURE( 0.02539999999999999897 ), #269 );
#29 = VERTEX_POINT ( 'NONE', #243 ) ;
#30 = FILL_AREA_STYLE_COLOUR ( '', #200 ) ;
#31 = CARTESIAN_POINT ( 'NONE',  ( -0.04690000000000001806, 0.0000000000000000000, 0.009999999999999995004 ) ) ;
#32 = DIRECTION ( 'NONE',  ( -0.0000000000000000000, -0.0000000000000000000, -1.000000000000000000 ) ) ;
#33 = AXIS2_PLACEMENT_3D ( 'NONE', #310, #140, #263 ) ;
#34 = LINE ( 'NONE', #117, #226 ) ;
#35 = ORIENTED_EDGE ( 'NONE', *, *, #306, .T. ) ;
#36 =( LENGTH_UNIT ( ) NAMED_UNIT ( * ) SI_UNIT ( $, .METRE. ) );
#37 = EDGE_CURVE ( 'NONE', #91, #268, #102, .T. ) ;
#38 = PRODUCT_DEFINITION_SHAPE ( 'NONE', 'NONE',  #207 ) ;
#39 = DIRECTION ( 'NONE',  ( -1.000000000000000000, 0.0000000000000000000, 0.0000000000000000000 ) ) ;
#40 = AXIS2_PLACEMENT_3D ( 'NONE', #182, #241, #349 ) ;
#41 = DIRECTION ( 'NONE',  ( 0.0000000000000000000, 0.0000000000000000000, 1.000000000000000000 ) ) ;
#42 = SHAPE_DEFINITION_REPRESENTATION ( #38, #90 ) ;
#43 = DIRECTION ( 'NONE',  ( 1.000000000000000000, 0.0000000000000000000, 0.0000000000000000000 ) ) ;
#44 = LENGTH_MEASURE_WITH_UNIT ( LENGTH_MEASURE( 0.02539999999999999897 ), #36 );
#45 = ADVANCED_FACE ( 'NONE', ( #214 ), #330, .T. ) ;
#46 = FILL_AREA_STYLE ('',( #307 ) ) ;
#47 = EDGE_CURVE ( 'NONE', #19, #67, #143, .T. ) ;
#48 =( GEOMETRIC_REPRESENTATION_CONTEXT ( 3 ) GLOBAL_UNCERTAINTY_ASSIGNED_CONTEXT ( ( #247 ) ) GLOBAL_UNIT_ASSIGNED_CONTEXT ( ( #149, #206, #2 ) ) REPRESENTATION_CONTEXT ( 'NONE', 'WORKASPACE' ) );
#49 = LINE ( 'NONE', #16, #209 ) ;
#50 = CYLINDRICAL_SURFACE ( 'NONE', #304, 0.02350000000000001740 ) ;
#51 = EDGE_CURVE ( 'NONE', #60, #91, #162, .T. ) ;
#52 = CARTESIAN_POINT ( 'NONE',  ( -0.04750000000000064587, 0.0000000000000000000, 1.500000000000000222 ) ) ;
#53 = PRODUCT_DEFINITION_FORMATION_WITH_SPECIFIED_SOURCE ( 'ANY', '', #333, .NOT_KNOWN. ) ;
#54 = CARTESIAN_POINT ( 'NONE',  ( 0.0000000000000000000, 0.0000000000000000000, 0.0000000000000000000 ) ) ;
#55 = DIRECTION ( 'NONE',  ( -1.000000000000000000, 0.0000000000000000000, 0.0000000000000000000 ) ) ;
#56 = MANIFOLD_SOLID_BREP ( 'Cut-Revolve1', #318 ) ;
#57 = CARTESIAN_POINT ( 'NONE',  ( 0.0000000000000000000, 0.0000000000000000000, 0.0000000000000000000 ) ) ;
#58 = MECHANICAL_DESIGN_GEOMETRIC_PRESENTATION_REPRESENTATION (  '', ( #279 ), #251 ) ;
#59 = DIRECTION ( 'NONE',  ( -1.000000000000000000, 0.0000000000000000000, 0.0000000000000000000 ) ) ;
#60 = VERTEX_POINT ( 'NONE', #71 ) ;
#61 = CARTESIAN_POINT ( 'NONE',  ( 0.0000000000000000000, 0.0000000000000000000, 0.1789999999999997982 ) ) ;
#62 = EDGE_LOOP ( 'NONE', ( #87, #139, #181, #77 ) ) ;
#63 = ORIENTED_EDGE ( 'NONE', *, *, #78, .T. ) ;
#64 = AXIS2_PLACEMENT_3D ( 'NONE', #184, #296, #242 ) ;
#65 = DIRECTION ( 'NONE',  ( 1.000000000000000000, 0.0000000000000000000, -0.0000000000000000000 ) ) ;
#66 = ADVANCED_FACE ( 'NONE', ( #274 ), #319, .T. ) ;
#67 = VERTEX_POINT ( 'NONE', #278 ) ;
#68 = DIRECTION ( 'NONE',  ( -1.000000000000000000, 0.0000000000000000000, 0.0000000000000000000 ) ) ;
#69 =( NAMED_UNIT ( * ) PLANE_ANGLE_UNIT ( ) SI_UNIT ( $, .RADIAN. ) );
#70 = PRODUCT_RELATED_PRODUCT_CATEGORY ( 'part', '', ( #333 ) ) ;
#71 = CARTESIAN_POINT ( 'NONE',  ( 0.06250000000000000000, 7.654042494670956004E-18, 1.485000000000000764 ) ) ;
#72 = CARTESIAN_POINT ( 'NONE',  ( -0.06250000000000000000, 0.0000000000000000000, 0.1789999999999997982 ) ) ;
#73 = AXIS2_PLACEMENT_3D ( 'NONE', #10, #195, #362 ) ;
#74 = AXIS2_PLACEMENT_3D ( 'NONE', #76, #115, #231 ) ;
#75 = LINE ( 'NONE', #339, #25 ) ;
#76 = CARTESIAN_POINT ( 'NONE',  ( 0.0000000000000000000, 0.0000000000000000000, 1.500000000000000222 ) ) ;
#77 = ORIENTED_EDGE ( 'NONE', *, *, #37, .F. ) ;
#78 = EDGE_CURVE ( 'NONE', #17, #235, #255, .T. ) ;
#79 = DIRECTION ( 'NONE',  ( -1.000000000000000000, 0.0000000000000000000, 0.0000000000000000000 ) ) ;
#80 = ORIENTED_EDGE ( 'NONE', *, *, #306, .F. ) ;
#81 = AXIS2_PLACEMENT_3D ( 'NONE', #223, #166, #282 ) ;
#82 = LINE ( 'NONE', #52, #373 ) ;
#83 = ORIENTED_EDGE ( 'NONE', *, *, #370, .F. ) ;
#84 = EDGE_CURVE ( 'NONE', #67, #19, #170, .T. ) ;
#85 = FACE_BOUND ( 'NONE', #147, .T. ) ;
#86 = CARTESIAN_POINT ( 'NONE',  ( 0.02350000000000002781, 0.0000000000000000000, 0.1400000000000000133 ) ) ;
#87 = ORIENTED_EDGE ( 'NONE', *, *, #51, .F. ) ;
#88 = FACE_OUTER_BOUND ( 'NONE', #357, .T. ) ;
#89 = ORIENTED_EDGE ( 'NONE', *, *, #51, .T. ) ;
#90 = ADVANCED_BREP_SHAPE_REPRESENTATION ( 'Micro_KC-093-140-010', ( #56, #250 ), #48 ) ;
#91 = VERTEX_POINT ( 'NONE', #13 ) ;
#92 = EDGE_CURVE ( 'NONE', #287, #118, #103, .T. ) ;
#93 = DIRECTION ( 'NONE',  ( 1.000000000000000000, 0.0000000000000000000, 0.0000000000000000000 ) ) ;
#94 = COLOUR_RGB ( '',0.7921568627450980005, 0.8196078431372548767, 0.9333333333333333481 ) ;
#95 = AXIS2_PLACEMENT_3D ( 'NONE', #212, #353, #358 ) ;
#96 = ORIENTED_EDGE ( 'NONE', *, *, #276, .F. ) ;
#97 = EDGE_CURVE ( 'NONE', #235, #17, #366, .T. ) ;
#98 =( CONVERSION_BASED_UNIT ( 'INCH', #280 ) LENGTH_UNIT ( ) NAMED_UNIT ( #6 ) );
#99 = ADVANCED_FACE ( 'NONE', ( #220 ), #101, .T. ) ;
#100 = DIRECTION ( 'NONE',  ( 0.0000000000000000000, 0.0000000000000000000, 1.000000000000000000 ) ) ;
#101 = CYLINDRICAL_SURFACE ( 'NONE', #233, 0.04690000000000001806 ) ;
#102 = CIRCLE ( 'NONE', #199, 0.06250000000000000000 ) ;
#103 = CIRCLE ( 'NONE', #352, 0.04750000000000064587 ) ;
#104 = CIRCLE ( 'NONE', #297, 0.04690000000000001806 ) ;
#105 =( CONVERSION_BASED_UNIT ( 'INCH', #44 ) LENGTH_UNIT ( ) NAMED_UNIT ( #179 ) );
#106 = DIRECTION ( 'NONE',  ( 1.000000000000000000, 0.0000000000000000000, -0.0000000000000000000 ) ) ;
#107 = ADVANCED_FACE ( 'NONE', ( #277 ), #14, .F. ) ;
#108 = CARTESIAN_POINT ( 'NONE',  ( 0.0000000000000000000, 0.0000000000000000000, 0.0000000000000000000 ) ) ;
#109 = AXIS2_PLACEMENT_3D ( 'NONE', #225, #169, #228 ) ;
#110 = ORIENTED_EDGE ( 'NONE', *, *, #47, .F. ) ;
#111 = CARTESIAN_POINT ( 'NONE',  ( -0.04750000000000064587, 0.0000000000000000000, 1.500000000000000222 ) ) ;
#112 = APPLICATION_CONTEXT ( 'automotive_design' ) ;
#113 = DIRECTION ( 'NONE',  ( -1.000000000000000000, 0.0000000000000000000, 0.0000000000000000000 ) ) ;
#114 = ORIENTED_EDGE ( 'NONE', *, *, #276, .T. ) ;
#115 = DIRECTION ( 'NONE',  ( 0.0000000000000000000, 0.0000000000000000000, 1.000000000000000000 ) ) ;
#116 = EDGE_CURVE ( 'NONE', #270, #292, #275, .T. ) ;
#117 = CARTESIAN_POINT ( 'NONE',  ( 0.02350000000000002781, 0.0000000000000000000, 0.1400000000000000133 ) ) ;
#118 = VERTEX_POINT ( 'NONE', #111 ) ;
#119 = ORIENTED_EDGE ( 'NONE', *, *, #325, .F. ) ;
#120 = ORIENTED_EDGE ( 'NONE', *, *, #281, .T. ) ;
#121 = SURFACE_SIDE_STYLE ('',( #4 ) ) ;
#122 = EDGE_LOOP ( 'NONE', ( #187, #230 ) ) ;
#123 = ADVANCED_FACE ( 'NONE', ( #196 ), #50, .T. ) ;
#124 = EDGE_LOOP ( 'NONE', ( #96, #80, #266, #351 ) ) ;
#125 = CARTESIAN_POINT ( 'NONE',  ( 0.02350000000000001046, 2.877919977996281753E-18, 0.009999999999999995004 ) ) ;
#126 = AXIS2_PLACEMENT_3D ( 'NONE', #7, #356, #177 ) ;
#127 = APPLICATION_PROTOCOL_DEFINITION ( 'draft international standard', 'automotive_design', 1998, #129 ) ;
#128 = CARTESIAN_POINT ( 'NONE',  ( 0.0000000000000000000, 0.0000000000000000000, 0.009999999999999995004 ) ) ;
#129 = APPLICATION_CONTEXT ( 'automotive_design' ) ;
#130 = CARTESIAN_POINT ( 'NONE',  ( 0.0000000000000000000, 0.0000000000000000000, 0.0000000000000000000 ) ) ;
#131 = AXIS2_PLACEMENT_3D ( 'NONE', #54, #286, #79 ) ;
#132 = CARTESIAN_POINT ( 'NONE',  ( 0.0000000000000000000, 0.0000000000000000000, 0.0000000000000000000 ) ) ;
#133 = EDGE_CURVE ( 'NONE', #287, #60, #172, .T. ) ;
#134 =( LENGTH_UNIT ( ) NAMED_UNIT ( * ) SI_UNIT ( $, .METRE. ) );
#135 = DIRECTION ( 'NONE',  ( -0.0000000000000000000, -0.0000000000000000000, -1.000000000000000000 ) ) ;
#136 = DIRECTION ( 'NONE',  ( -0.0000000000000000000, -0.0000000000000000000, -1.000000000000000000 ) ) ;
#137 = AXIS2_PLACEMENT_3D ( 'NONE', #160, #337, #194 ) ;
#138 = AXIS2_PLACEMENT_3D ( 'NONE', #379, #238, #65 ) ;
#139 = ORIENTED_EDGE ( 'NONE', *, *, #345, .T. ) ;
#140 = DIRECTION ( 'NONE',  ( -0.0000000000000000000, -0.0000000000000000000, -1.000000000000000000 ) ) ;
#141 = ORIENTED_EDGE ( 'NONE', *, *, #224, .T. ) ;
#142 = CARTESIAN_POINT ( 'NONE',  ( 0.04690000000000001806, 5.743593488001088307E-18, 0.009999999999999995004 ) ) ;
#143 = CIRCLE ( 'NONE', #153, 0.02350000000000001046 ) ;
#144 = AXIS2_PLACEMENT_3D ( 'NONE', #295, #32, #265 ) ;
#145 = UNCERTAINTY_MEASURE_WITH_UNIT (LENGTH_MEASURE( 1.000000000000000082E-05 ), #105, 'distance_accuracy_value', 'NONE');
#146 = DIRECTION ( 'NONE',  ( -0.0000000000000000000, -0.0000000000000000000, -1.000000000000000000 ) ) ;
#147 = EDGE_LOOP ( 'NONE', ( #234, #1 ) ) ;
#148 = ADVANCED_FACE ( 'NONE', ( #21 ), #197, .T. ) ;
#149 =( CONVERSION_BASED_UNIT ( 'INCH', #28 ) LENGTH_UNIT ( ) NAMED_UNIT ( #291 ) );
#150 = ORIENTED_EDGE ( 'NONE', *, *, #92, .F. ) ;
#151 = FACE_OUTER_BOUND ( 'NONE', #208, .T. ) ;
#152 = CARTESIAN_POINT ( 'NONE',  ( -0.02350000000000002781, 5.265981236333620997E-18, 0.1400000000000000133 ) ) ;
#153 = AXIS2_PLACEMENT_3D ( 'NONE', #338, #369, #161 ) ;
#154 = VECTOR ( 'NONE', #173, 39.37007874015748143 ) ;
#155 = DIRECTION ( 'NONE',  ( 1.000000000000000000, 0.0000000000000000000, 0.0000000000000000000 ) ) ;
#156 = ORIENTED_EDGE ( 'NONE', *, *, #133, .F. ) ;
#157 = CARTESIAN_POINT ( 'NONE',  ( 0.04750000000000064587, 6.735557395310482421E-18, 1.500000000000000222 ) ) ;
#158 = EDGE_LOOP ( 'NONE', ( #63, #120, #23, #283 ) ) ;
#159 = EDGE_CURVE ( 'NONE', #29, #268, #311, .T. ) ;
#160 = CARTESIAN_POINT ( 'NONE',  ( 0.0000000000000000000, 0.0000000000000000000, 0.009999999999999995004 ) ) ;
#161 = DIRECTION ( 'NONE',  ( -1.000000000000000000, 0.0000000000000000000, 0.0000000000000000000 ) ) ;
#162 = LINE ( 'NONE', #249, #192 ) ;
#163 = ADVANCED_FACE ( 'NONE', ( #378 ), #22, .T. ) ;
#164 = AXIS2_PLACEMENT_3D ( 'NONE', #132, #368, #106 ) ;
#165 = VECTOR ( 'NONE', #326, 39.37007874015748854 ) ;
#166 = DIRECTION ( 'NONE',  ( -0.0000000000000000000, -0.0000000000000000000, -1.000000000000000000 ) ) ;
#167 = LINE ( 'NONE', #18, #154 ) ;
#168 = ORIENTED_EDGE ( 'NONE', *, *, #84, .F. ) ;
#169 = DIRECTION ( 'NONE',  ( 0.0000000000000000000, 0.0000000000000000000, -1.000000000000000000 ) ) ;
#170 = CIRCLE ( 'NONE', #137, 0.02350000000000001046 ) ;
#171 = EDGE_CURVE ( 'NONE', #118, #29, #82, .T. ) ;
#172 = LINE ( 'NONE', #259, #264 ) ;
#173 = DIRECTION ( 'NONE',  ( -0.0000000000000000000, -0.0000000000000000000, -1.000000000000000000 ) ) ;
#174 = ADVANCED_FACE ( 'NONE', ( #227 ), #256, .T. ) ;
#175 = CYLINDRICAL_SURFACE ( 'NONE', #340, 0.06250000000000000000 ) ;
#176 = ORIENTED_EDGE ( 'NONE', *, *, #345, .F. ) ;
#177 = DIRECTION ( 'NONE',  ( 1.000000000000000000, 0.0000000000000000000, 0.0000000000000000000 ) ) ;
#178 = ORIENTED_EDGE ( 'NONE', *, *, #97, .F. ) ;
#179 = DIMENSIONAL_EXPONENTS ( 1.000000000000000000, 0.0000000000000000000, 0.0000000000000000000, 0.0000000000000000000, 0.0000000000000000000, 0.0000000000000000000, 0.0000000000000000000 ) ;
#180 = DIRECTION ( 'NONE',  ( 0.7071067811865493491, 0.0000000000000000000, 0.7071067811865454633 ) ) ;
#181 = ORIENTED_EDGE ( 'NONE', *, *, #159, .T. ) ;
#182 = CARTESIAN_POINT ( 'NONE',  ( 0.0000000000000000000, 0.0000000000000000000, 1.485000000000000764 ) ) ;
#183 = CONICAL_SURFACE ( 'NONE', #64, 0.02350000000000002781, 0.7853981633974510546 ) ;
#184 = CARTESIAN_POINT ( 'NONE',  ( 0.0000000000000000000, 0.0000000000000000000, 0.1400000000000000133 ) ) ;
#185 = VECTOR ( 'NONE', #186, 39.37007874015748143 ) ;
#186 = DIRECTION ( 'NONE',  ( -0.0000000000000000000, -0.0000000000000000000, -1.000000000000000000 ) ) ;
#187 = ORIENTED_EDGE ( 'NONE', *, *, #116, .T. ) ;
#188 = ADVANCED_FACE ( 'NONE', ( #284 ), #367, .T. ) ;
#189 = SURFACE_STYLE_USAGE ( .BOTH. , #121 ) ;
#190 = DIRECTION ( 'NONE',  ( -0.0000000000000000000, -0.0000000000000000000, -1.000000000000000000 ) ) ;
#191 = DIRECTION ( 'NONE',  ( -0.0000000000000000000, -0.0000000000000000000, -1.000000000000000000 ) ) ;
#192 = VECTOR ( 'NONE', #190, 39.37007874015748143 ) ;
#193 =( NAMED_UNIT ( * ) PLANE_ANGLE_UNIT ( ) SI_UNIT ( $, .RADIAN. ) );
#194 = DIRECTION ( 'NONE',  ( -1.000000000000000000, 0.0000000000000000000, 0.0000000000000000000 ) ) ;
#195 = DIRECTION ( 'NONE',  ( 0.0000000000000000000, 0.0000000000000000000, 1.000000000000000000 ) ) ;
#196 = FACE_OUTER_BOUND ( 'NONE', #239, .T. ) ;
#197 = CYLINDRICAL_SURFACE ( 'NONE', #131, 0.02350000000000001740 ) ;
#198 = CARTESIAN_POINT ( 'NONE',  ( 0.0000000000000000000, 0.0000000000000000000, 0.0000000000000000000 ) ) ;
#199 = AXIS2_PLACEMENT_3D ( 'NONE', #217, #360, #93 ) ;
#200 = COLOUR_RGB ( '',0.7921568627450980005, 0.8196078431372548767, 0.9333333333333333481 ) ;
#201 = EDGE_LOOP ( 'NONE', ( #156, #372, #290, #176 ) ) ;
#202 = ADVANCED_FACE ( 'NONE', ( #314 ), #257, .T. ) ;
#203 = CARTESIAN_POINT ( 'NONE',  ( 0.0000000000000000000, 0.0000000000000000000, 1.500000000000000222 ) ) ;
#204 = ORIENTED_EDGE ( 'NONE', *, *, #92, .T. ) ;
#205 = CARTESIAN_POINT ( 'NONE',  ( 0.0000000000000000000, 0.0000000000000000000, 1.500000000000000222 ) ) ;
#206 =( NAMED_UNIT ( * ) PLANE_ANGLE_UNIT ( ) SI_UNIT ( $, .RADIAN. ) );
#207 = PRODUCT_DEFINITION ( 'UNKNOWN', '', #53, #375 ) ;
#208 = EDGE_LOOP ( 'NONE', ( #317, #89, #83, #5 ) ) ;
#209 = VECTOR ( 'NONE', #135, 39.37007874015748143 ) ;
#210 = LINE ( 'NONE', #236, #185 ) ;
#211 = ORIENTED_EDGE ( 'NONE', *, *, #325, .T. ) ;
#212 = CARTESIAN_POINT ( 'NONE',  ( 0.0000000000000000000, 0.0000000000000000000, 0.1400000000000000133 ) ) ;
#213 = FACE_OUTER_BOUND ( 'NONE', #285, .T. ) ;
#214 = FACE_OUTER_BOUND ( 'NONE', #158, .T. ) ;
#215 = STYLED_ITEM ( 'NONE', ( #301 ), #56 ) ;
#216 = CIRCLE ( 'NONE', #144, 0.02350000000000002781 ) ;
#217 = CARTESIAN_POINT ( 'NONE',  ( 0.0000000000000000000, 0.0000000000000000000, 0.1789999999999997982 ) ) ;
#218 = EDGE_CURVE ( 'NONE', #292, #270, #104, .T. ) ;
#219 = CARTESIAN_POINT ( 'NONE',  ( 0.0000000000000000000, 0.0000000000000000000, 0.009999999999999995004 ) ) ;
#220 = FACE_OUTER_BOUND ( 'NONE', #316, .T. ) ;
#221 = AXIS2_PLACEMENT_3D ( 'NONE', #203, #315, #24 ) ;
#222 = DIRECTION ( 'NONE',  ( -1.000000000000000000, 0.0000000000000000000, 0.0000000000000000000 ) ) ;
#223 = CARTESIAN_POINT ( 'NONE',  ( 0.0000000000000000000, 0.0000000000000000000, 0.0000000000000000000 ) ) ;
#224 = EDGE_CURVE ( 'NONE', #118, #287, #321, .T. ) ;
#225 = CARTESIAN_POINT ( 'NONE',  ( 0.0000000000000000000, 0.0000000000000000000, 1.500000000000000222 ) ) ;
#226 = VECTOR ( 'NONE', #180, 39.37007874015748854 ) ;
#227 = FACE_OUTER_BOUND ( 'NONE', #201, .T. ) ;
#228 = DIRECTION ( 'NONE',  ( -1.000000000000000000, 0.0000000000000000000, 0.0000000000000000000 ) ) ;
#229 = EDGE_CURVE ( 'NONE', #350, #19, #167, .T. ) ;
#230 = ORIENTED_EDGE ( 'NONE', *, *, #218, .T. ) ;
#231 = DIRECTION ( 'NONE',  ( 1.000000000000000000, 0.0000000000000000000, -0.0000000000000000000 ) ) ;
#232 = DIRECTION ( 'NONE',  ( -0.0000000000000000000, -0.0000000000000000000, -1.000000000000000000 ) ) ;
#233 = AXIS2_PLACEMENT_3D ( 'NONE', #305, #335, #68 ) ;
#234 = ORIENTED_EDGE ( 'NONE', *, *, #84, .T. ) ;
#235 = VERTEX_POINT ( 'NONE', #142 ) ;
#236 = CARTESIAN_POINT ( 'NONE',  ( 0.04690000000000001806, 5.743593488001088307E-18, 0.0000000000000000000 ) ) ;
#237 = ORIENTED_EDGE ( 'NONE', *, *, #293, .F. ) ;
#238 = DIRECTION ( 'NONE',  ( 0.0000000000000000000, 0.0000000000000000000, 1.000000000000000000 ) ) ;
#239 = EDGE_LOOP ( 'NONE', ( #260, #35, #294, #110 ) ) ;
#240 = EDGE_CURVE ( 'NONE', #17, #270, #75, .T. ) ;
#241 = DIRECTION ( 'NONE',  ( 0.0000000000000000000, 0.0000000000000000000, -1.000000000000000000 ) ) ;
#242 = DIRECTION ( 'NONE',  ( 1.000000000000000000, 0.0000000000000000000, 0.0000000000000000000 ) ) ;
#243 = CARTESIAN_POINT ( 'NONE',  ( -0.06250000000000000000, 0.0000000000000000000, 1.485000000000000764 ) ) ;
#244 = MECHANICAL_DESIGN_GEOMETRIC_PRESENTATION_REPRESENTATION (  '', ( #215 ), #329 ) ;
#245 = AXIS2_PLACEMENT_3D ( 'NONE', #376, #374, #113 ) ;
#246 = SURFACE_SIDE_STYLE ('',( #332 ) ) ;
#247 = UNCERTAINTY_MEASURE_WITH_UNIT (LENGTH_MEASURE( 1.000000000000000082E-05 ), #149, 'distance_accuracy_value', 'NONE');
#248 = DIRECTION ( 'NONE',  ( -0.0000000000000000000, -0.0000000000000000000, -1.000000000000000000 ) ) ;
#249 = CARTESIAN_POINT ( 'NONE',  ( 0.06250000000000000000, 7.654042494670956004E-18, 1.500000000000000222 ) ) ;
#250 = AXIS2_PLACEMENT_3D ( 'NONE', #130, #100, #361 ) ;
#251 =( GEOMETRIC_REPRESENTATION_CONTEXT ( 3 ) GLOBAL_UNCERTAINTY_ASSIGNED_CONTEXT ( ( #145 ) ) GLOBAL_UNIT_ASSIGNED_CONTEXT ( ( #105, #193, #273 ) ) REPRESENTATION_CONTEXT ( 'NONE', 'WORKASPACE' ) );
#252 = PRODUCT_CONTEXT ( 'NONE', #112, 'mechanical' ) ;
#253 = LINE ( 'NONE', #371, #165 ) ;
#254 = EDGE_LOOP ( 'NONE', ( #211, #312, #168, #342 ) ) ;
#255 = CIRCLE ( 'NONE', #303, 0.04690000000000001806 ) ;
#256 = CONICAL_SURFACE ( 'NONE', #109, 0.04750000000000064587, 0.7853981633974457255 ) ;
#257 = PLANE ( 'NONE',  #74 ) ;
#258 = ORIENTED_EDGE ( 'NONE', *, *, #377, .F. ) ;
#259 = CARTESIAN_POINT ( 'NONE',  ( 0.04750000000000064587, 5.817072295950006528E-18, 1.500000000000000222 ) ) ;
#260 = ORIENTED_EDGE ( 'NONE', *, *, #229, .F. ) ;
#261 = DIRECTION ( 'NONE',  ( -0.7071067811865456854, 0.0000000000000000000, -0.7071067811865493491 ) ) ;
#262 = PRESENTATION_LAYER_ASSIGNMENT (  '', '', ( #215 ) ) ;
#263 = DIRECTION ( 'NONE',  ( -1.000000000000000000, 0.0000000000000000000, 0.0000000000000000000 ) ) ;
#264 = VECTOR ( 'NONE', #341, 39.37007874015748143 ) ;
#265 = DIRECTION ( 'NONE',  ( -1.000000000000000000, 0.0000000000000000000, 0.0000000000000000000 ) ) ;
#266 = ORIENTED_EDGE ( 'NONE', *, *, #377, .T. ) ;
#267 = FILL_AREA_STYLE ('',( #30 ) ) ;
#268 = VERTEX_POINT ( 'NONE', #72 ) ;
#269 =( LENGTH_UNIT ( ) NAMED_UNIT ( * ) SI_UNIT ( $, .METRE. ) );
#270 = VERTEX_POINT ( 'NONE', #309 ) ;
#271 = EDGE_CURVE ( 'NONE', #26, #67, #49, .T. ) ;
#272 = ORIENTED_EDGE ( 'NONE', *, *, #370, .T. ) ;
#273 =( NAMED_UNIT ( * ) SI_UNIT ( $, .STERADIAN. ) SOLID_ANGLE_UNIT ( ) );
#274 = FACE_OUTER_BOUND ( 'NONE', #124, .T. ) ;
#275 = CIRCLE ( 'NONE', #81, 0.04690000000000001806 ) ;
#276 = EDGE_CURVE ( 'NONE', #26, #268, #253, .T. ) ;
#277 = FACE_OUTER_BOUND ( 'NONE', #122, .T. ) ;
#278 = CARTESIAN_POINT ( 'NONE',  ( -0.02350000000000001046, 0.0000000000000000000, 0.009999999999999995004 ) ) ;
#279 = STYLED_ITEM ( 'NONE', ( #363 ), #90 ) ;
#280 = LENGTH_MEASURE_WITH_UNIT ( LENGTH_MEASURE( 0.02539999999999999897 ), #134 );
#281 = EDGE_CURVE ( 'NONE', #235, #292, #210, .T. ) ;
#282 = DIRECTION ( 'NONE',  ( -1.000000000000000000, 0.0000000000000000000, 0.0000000000000000000 ) ) ;
#283 = ORIENTED_EDGE ( 'NONE', *, *, #240, .F. ) ;
#284 = FACE_OUTER_BOUND ( 'NONE', #322, .T. ) ;
#285 = EDGE_LOOP ( 'NONE', ( #119, #114, #272, #258 ) ) ;
#286 = DIRECTION ( 'NONE',  ( -0.0000000000000000000, -0.0000000000000000000, -1.000000000000000000 ) ) ;
#287 = VERTEX_POINT ( 'NONE', #157 ) ;
#288 = DIRECTION ( 'NONE',  ( -0.0000000000000000000, -0.0000000000000000000, -1.000000000000000000 ) ) ;
#289 = CIRCLE ( 'NONE', #126, 0.06250000000000000000 ) ;
#290 = ORIENTED_EDGE ( 'NONE', *, *, #171, .T. ) ;
#291 = DIMENSIONAL_EXPONENTS ( 1.000000000000000000, 0.0000000000000000000, 0.0000000000000000000, 0.0000000000000000000, 0.0000000000000000000, 0.0000000000000000000, 0.0000000000000000000 ) ;
#292 = VERTEX_POINT ( 'NONE', #328 ) ;
#293 = EDGE_CURVE ( 'NONE', #29, #60, #336, .T. ) ;
#294 = ORIENTED_EDGE ( 'NONE', *, *, #271, .T. ) ;
#295 = CARTESIAN_POINT ( 'NONE',  ( 0.0000000000000000000, 0.0000000000000000000, 0.1400000000000000133 ) ) ;
#296 = DIRECTION ( 'NONE',  ( 0.0000000000000000000, 0.0000000000000000000, 1.000000000000000000 ) ) ;
#297 = AXIS2_PLACEMENT_3D ( 'NONE', #198, #232, #347 ) ;
#298 = UNCERTAINTY_MEASURE_WITH_UNIT (LENGTH_MEASURE( 1.000000000000000082E-05 ), #98, 'distance_accuracy_value', 'NONE');
#299 = APPLICATION_PROTOCOL_DEFINITION ( 'draft international standard', 'automotive_design', 1998, #112 ) ;
#300 = ORIENTED_EDGE ( 'NONE', *, *, #281, .F. ) ;
#301 = PRESENTATION_STYLE_ASSIGNMENT (( #302 ) ) ;
#302 = SURFACE_STYLE_USAGE ( .BOTH. , #246 ) ;
#303 = AXIS2_PLACEMENT_3D ( 'NONE', #219, #334, #222 ) ;
#304 = AXIS2_PLACEMENT_3D ( 'NONE', #108, #344, #55 ) ;
#305 = CARTESIAN_POINT ( 'NONE',  ( 0.0000000000000000000, 0.0000000000000000000, 0.0000000000000000000 ) ) ;
#306 = EDGE_CURVE ( 'NONE', #350, #26, #11, .T. ) ;
#307 = FILL_AREA_STYLE_COLOUR ( '', #94 ) ;
#308 = CIRCLE ( 'NONE', #354, 0.06250000000000000000 ) ;
#309 = CARTESIAN_POINT ( 'NONE',  ( -0.04690000000000001806, 0.0000000000000000000, 0.0000000000000000000 ) ) ;
#310 = CARTESIAN_POINT ( 'NONE',  ( 0.0000000000000000000, 0.0000000000000000000, 1.500000000000000222 ) ) ;
#311 = LINE ( 'NONE', #343, #346 ) ;
#312 = ORIENTED_EDGE ( 'NONE', *, *, #229, .T. ) ;
#313 = AXIS2_PLACEMENT_3D ( 'NONE', #57, #191, #39 ) ;
#314 = FACE_OUTER_BOUND ( 'NONE', #9, .T. ) ;
#315 = DIRECTION ( 'NONE',  ( 0.0000000000000000000, 0.0000000000000000000, 1.000000000000000000 ) ) ;
#316 = EDGE_LOOP ( 'NONE', ( #300, #355, #8, #324 ) ) ;
#317 = ORIENTED_EDGE ( 'NONE', *, *, #293, .T. ) ;
#318 = CLOSED_SHELL ( 'NONE', ( #148, #45, #27, #188, #364, #163, #202, #174, #66, #99, #123, #348, #107 ) ) ;
#319 = CONICAL_SURFACE ( 'NONE', #73, 0.02350000000000002781, 0.7853981633974510546 ) ;
#320 = PLANE ( 'NONE',  #138 ) ;
#321 = CIRCLE ( 'NONE', #221, 0.04750000000000064587 ) ;
#322 = EDGE_LOOP ( 'NONE', ( #150, #3, #237, #359 ) ) ;
#323 = DIRECTION ( 'NONE',  ( -0.0000000000000000000, -0.0000000000000000000, -1.000000000000000000 ) ) ;
#324 = ORIENTED_EDGE ( 'NONE', *, *, #218, .F. ) ;
#325 = EDGE_CURVE ( 'NONE', #26, #350, #216, .T. ) ;
#326 = DIRECTION ( 'NONE',  ( -0.7071067811865493491, 8.659560562354955045E-17, 0.7071067811865454633 ) ) ;
#327 = ORIENTED_EDGE ( 'NONE', *, *, #78, .F. ) ;
#328 = CARTESIAN_POINT ( 'NONE',  ( 0.04690000000000001806, 5.743593488001088307E-18, 0.0000000000000000000 ) ) ;
#329 =( GEOMETRIC_REPRESENTATION_CONTEXT ( 3 ) GLOBAL_UNCERTAINTY_ASSIGNED_CONTEXT ( ( #298 ) ) GLOBAL_UNIT_ASSIGNED_CONTEXT ( ( #98, #69, #15 ) ) REPRESENTATION_CONTEXT ( 'NONE', 'WORKASPACE' ) );
#330 = CYLINDRICAL_SURFACE ( 'NONE', #313, 0.04690000000000001806 ) ;
#331 = PRESENTATION_LAYER_ASSIGNMENT (  '', '', ( #279 ) ) ;
#332 = SURFACE_STYLE_FILL_AREA ( #46 ) ;
#333 = PRODUCT ( 'Micro_KC-093-140-010', 'Micro_KC-093-140-010', '', ( #252 ) ) ;
#334 = DIRECTION ( 'NONE',  ( -0.0000000000000000000, -0.0000000000000000000, -1.000000000000000000 ) ) ;
#335 = DIRECTION ( 'NONE',  ( -0.0000000000000000000, -0.0000000000000000000, -1.000000000000000000 ) ) ;
#336 = CIRCLE ( 'NONE', #40, 0.06250000000000000000 ) ;
#337 = DIRECTION ( 'NONE',  ( -0.0000000000000000000, -0.0000000000000000000, -1.000000000000000000 ) ) ;
#338 = CARTESIAN_POINT ( 'NONE',  ( 0.0000000000000000000, 0.0000000000000000000, 0.009999999999999995004 ) ) ;
#339 = CARTESIAN_POINT ( 'NONE',  ( -0.04690000000000001806, 0.0000000000000000000, 0.0000000000000000000 ) ) ;
#340 = AXIS2_PLACEMENT_3D ( 'NONE', #205, #146, #59 ) ;
#341 = DIRECTION ( 'NONE',  ( 0.7071067811865456854, 8.659560562354911904E-17, -0.7071067811865493491 ) ) ;
#342 = ORIENTED_EDGE ( 'NONE', *, *, #271, .F. ) ;
#343 = CARTESIAN_POINT ( 'NONE',  ( -0.06250000000000000000, 0.0000000000000000000, 1.500000000000000222 ) ) ;
#344 = DIRECTION ( 'NONE',  ( -0.0000000000000000000, -0.0000000000000000000, -1.000000000000000000 ) ) ;
#345 = EDGE_CURVE ( 'NONE', #60, #29, #289, .T. ) ;
#346 = VECTOR ( 'NONE', #288, 39.37007874015748143 ) ;
#347 = DIRECTION ( 'NONE',  ( -1.000000000000000000, 0.0000000000000000000, 0.0000000000000000000 ) ) ;
#348 = ADVANCED_FACE ( 'NONE', ( #85, #88 ), #320, .T. ) ;
#349 = DIRECTION ( 'NONE',  ( 1.000000000000000000, 0.0000000000000000000, 0.0000000000000000000 ) ) ;
#350 = VERTEX_POINT ( 'NONE', #86 ) ;
#351 = ORIENTED_EDGE ( 'NONE', *, *, #37, .T. ) ;
#352 = AXIS2_PLACEMENT_3D ( 'NONE', #12, #41, #43 ) ;
#353 = DIRECTION ( 'NONE',  ( -0.0000000000000000000, -0.0000000000000000000, -1.000000000000000000 ) ) ;
#354 = AXIS2_PLACEMENT_3D ( 'NONE', #61, #323, #155 ) ;
#355 = ORIENTED_EDGE ( 'NONE', *, *, #97, .T. ) ;
#356 = DIRECTION ( 'NONE',  ( 0.0000000000000000000, 0.0000000000000000000, -1.000000000000000000 ) ) ;
#357 = EDGE_LOOP ( 'NONE', ( #327, #178 ) ) ;
#358 = DIRECTION ( 'NONE',  ( -1.000000000000000000, 0.0000000000000000000, 0.0000000000000000000 ) ) ;
#359 = ORIENTED_EDGE ( 'NONE', *, *, #171, .F. ) ;
#360 = DIRECTION ( 'NONE',  ( -0.0000000000000000000, -0.0000000000000000000, -1.000000000000000000 ) ) ;
#361 = DIRECTION ( 'NONE',  ( 1.000000000000000000, 0.0000000000000000000, 0.0000000000000000000 ) ) ;
#362 = DIRECTION ( 'NONE',  ( 1.000000000000000000, 0.0000000000000000000, 0.0000000000000000000 ) ) ;
#363 = PRESENTATION_STYLE_ASSIGNMENT (( #189 ) ) ;
#364 = ADVANCED_FACE ( 'NONE', ( #151 ), #175, .T. ) ;
#365 = DIRECTION ( 'NONE',  ( -1.000000000000000000, 0.0000000000000000000, 0.0000000000000000000 ) ) ;
#366 = CIRCLE ( 'NONE', #20, 0.04690000000000001806 ) ;
#367 = CONICAL_SURFACE ( 'NONE', #245, 0.04750000000000064587, 0.7853981633974457255 ) ;
#368 = DIRECTION ( 'NONE',  ( 0.0000000000000000000, 0.0000000000000000000, 1.000000000000000000 ) ) ;
#369 = DIRECTION ( 'NONE',  ( -0.0000000000000000000, -0.0000000000000000000, -1.000000000000000000 ) ) ;
#370 = EDGE_CURVE ( 'NONE', #268, #91, #308, .T. ) ;
#371 = CARTESIAN_POINT ( 'NONE',  ( -0.02350000000000002781, 2.877919977996283294E-18, 0.1400000000000000133 ) ) ;
#372 = ORIENTED_EDGE ( 'NONE', *, *, #224, .F. ) ;
#373 = VECTOR ( 'NONE', #261, 39.37007874015748143 ) ;
#374 = DIRECTION ( 'NONE',  ( 0.0000000000000000000, 0.0000000000000000000, -1.000000000000000000 ) ) ;
#375 = PRODUCT_DEFINITION_CONTEXT ( 'detailed design', #129, 'design' ) ;
#376 = CARTESIAN_POINT ( 'NONE',  ( 0.0000000000000000000, 0.0000000000000000000, 1.500000000000000222 ) ) ;
#377 = EDGE_CURVE ( 'NONE', #350, #91, #34, .T. ) ;
#378 = FACE_OUTER_BOUND ( 'NONE', #62, .T. ) ;
#379 = CARTESIAN_POINT ( 'NONE',  ( 0.04690000000000001806, 0.0000000000000000000, 0.009999999999999995004 ) ) ;
ENDSEC;
END-ISO-10303-21;
