ISO-10303-21;
HEADER;
FILE_DESCRIPTION (( 'STEP AP214' ),
    '1' );
FILE_NAME ('82647.STEP',
    '2023-06-23T06:28:32',
    ( '' ),
    ( '' ),
    'SwSTEP 2.0',
    'SolidWorks 2023',
    '' );
FILE_SCHEMA (( 'AUTOMOTIVE_DESIGN' ));
ENDSEC;

DATA;
#1 = LENGTH_MEASURE_WITH_UNIT ( LENGTH_MEASURE( 0.02539999999999999897 ), #86 );
#2 = EDGE_CURVE ( 'NONE', #237, #33, #297, .T. ) ;
#3 = ORIENTED_EDGE ( 'NONE', *, *, #9, .F. ) ;
#4 = CIRCLE ( 'NONE', #36, 0.1250000000000000000 ) ;
#5 = CARTESIAN_POINT ( 'NONE',  ( 0.000000000000000000, 0.000000000000000000, 0.000000000000000000 ) ) ;
#6 = CARTESIAN_POINT ( 'NONE',  ( 2.449293598294705921E-16, 3.000000000000000444, 0.000000000000000000 ) ) ;
#7 = DIRECTION ( 'NONE',  ( -1.000000000000000000, 0.000000000000000000, 0.000000000000000000 ) ) ;
#8 = VERTEX_POINT ( 'NONE', #190 ) ;
#9 = EDGE_CURVE ( 'NONE', #73, #8, #10, .T. ) ;
#10 = LINE ( 'NONE', #56, #186 ) ;
#11 = DIRECTION ( 'NONE',  ( -0.000000000000000000, -1.000000000000000000, -0.000000000000000000 ) ) ;
#12 = AXIS2_PLACEMENT_3D ( 'NONE', #5, #227, #59 ) ;
#13 = MECHANICAL_DESIGN_GEOMETRIC_PRESENTATION_REPRESENTATION (  '', ( #49 ), #95 ) ;
#14 = SURFACE_SIDE_STYLE ('',( #44 ) ) ;
#15 = CARTESIAN_POINT ( 'NONE',  ( 2.449293598294705921E-16, 3.000000000000000444, 0.000000000000000000 ) ) ;
#16 = CARTESIAN_POINT ( 'NONE',  ( 0.000000000000000000, 0.000000000000000000, -0.1250000000000000000 ) ) ;
#17 =( CONVERSION_BASED_UNIT ( 'INCH', #197 ) LENGTH_UNIT ( ) NAMED_UNIT ( #178 ) );
#18 = PLANE ( 'NONE',  #230 ) ;
#19 = DIRECTION ( 'NONE',  ( -1.399596341882688851E-16, -1.000000000000000000, 0.000000000000000000 ) ) ;
#20 = CARTESIAN_POINT ( 'NONE',  ( 0.000000000000000000, 0.000000000000000000, 0.000000000000000000 ) ) ;
#21 = ORIENTED_EDGE ( 'NONE', *, *, #142, .T. ) ;
#22 = ADVANCED_FACE ( 'NONE', ( #112 ), #169, .T. ) ;
#23 = APPLICATION_CONTEXT ( 'automotive_design' ) ;
#24 =( NAMED_UNIT ( * ) SI_UNIT ( $, .STERADIAN. ) SOLID_ANGLE_UNIT ( ) );
#25 = STYLED_ITEM ( 'NONE', ( #294 ), #185 ) ;
#26 = ORIENTED_EDGE ( 'NONE', *, *, #288, .F. ) ;
#27 = FILL_AREA_STYLE ('',( #184 ) ) ;
#28 = SURFACE_STYLE_USAGE ( .BOTH. , #256 ) ;
#29 = CARTESIAN_POINT ( 'NONE',  ( 0.000000000000000000, 0.000000000000000000, 0.000000000000000000 ) ) ;
#30 = CARTESIAN_POINT ( 'NONE',  ( 0.000000000000000000, 1.250000000000000000, 0.000000000000000000 ) ) ;
#31 = ADVANCED_FACE ( 'NONE', ( #267 ), #224, .T. ) ;
#32 = CARTESIAN_POINT ( 'NONE',  ( 2.449293598294705921E-16, 3.000000000000000444, 0.000000000000000000 ) ) ;
#33 = VERTEX_POINT ( 'NONE', #258 ) ;
#34 = DIMENSIONAL_EXPONENTS ( 1.000000000000000000, 0.000000000000000000, 0.000000000000000000, 0.000000000000000000, 0.000000000000000000, 0.000000000000000000, 0.000000000000000000 ) ;
#35 = STYLED_ITEM ( 'NONE', ( #271 ), #22 ) ;
#36 = AXIS2_PLACEMENT_3D ( 'NONE', #91, #89, #283 ) ;
#37 = DIRECTION ( 'NONE',  ( -0.000000000000000000, -1.000000000000000000, -0.000000000000000000 ) ) ;
#38 =( LENGTH_UNIT ( ) NAMED_UNIT ( * ) SI_UNIT ( $, .METRE. ) );
#39 = DIRECTION ( 'NONE',  ( -1.000000000000000000, 0.000000000000000000, 0.000000000000000000 ) ) ;
#40 = COLOUR_RGB ( '',1.000000000000000000, 0.000000000000000000, 0.000000000000000000 ) ;
#41 = CIRCLE ( 'NONE', #128, 0.1249999999999997363 ) ;
#42 = DIRECTION ( 'NONE',  ( -1.000000000000000000, 0.000000000000000000, 0.000000000000000000 ) ) ;
#43 = PRODUCT_CONTEXT ( 'NONE', #23, 'mechanical' ) ;
#44 = SURFACE_STYLE_FILL_AREA ( #62 ) ;
#45 = PRESENTATION_STYLE_ASSIGNMENT (( #302 ) ) ;
#46 = VERTEX_POINT ( 'NONE', #171 ) ;
#47 = ORIENTED_EDGE ( 'NONE', *, *, #242, .F. ) ;
#48 = STYLED_ITEM ( 'NONE', ( #245 ), #146 ) ;
#49 = STYLED_ITEM ( 'NONE', ( #257 ), #300 ) ;
#50 = ORIENTED_EDGE ( 'NONE', *, *, #243, .T. ) ;
#51 = EDGE_LOOP ( 'NONE', ( #199, #211 ) ) ;
#52 = PLANE ( 'NONE',  #172 ) ;
#53 =( GEOMETRIC_REPRESENTATION_CONTEXT ( 3 ) GLOBAL_UNCERTAINTY_ASSIGNED_CONTEXT ( ( #135 ) ) GLOBAL_UNIT_ASSIGNED_CONTEXT ( ( #291, #141, #24 ) ) REPRESENTATION_CONTEXT ( 'NONE', 'WORKASPACE' ) );
#54 = SURFACE_STYLE_USAGE ( .BOTH. , #265 ) ;
#55 = STYLED_ITEM ( 'NONE', ( #161 ), #138 ) ;
#56 = CARTESIAN_POINT ( 'NONE',  ( -0.1249999999999996253, 3.000000000000000444, 0.000000000000000000 ) ) ;
#57 = EDGE_LOOP ( 'NONE', ( #175, #174 ) ) ;
#58 = FILL_AREA_STYLE ('',( #97 ) ) ;
#59 = DIRECTION ( 'NONE',  ( 0.000000000000000000, 0.000000000000000000, -1.000000000000000000 ) ) ;
#60 = DIRECTION ( 'NONE',  ( 1.399596341882688851E-16, 1.000000000000000000, -0.000000000000000000 ) ) ;
#61 = CARTESIAN_POINT ( 'NONE',  ( 0.000000000000000000, 1.250000000000000000, 0.000000000000000000 ) ) ;
#62 = FILL_AREA_STYLE ('',( #187 ) ) ;
#63 = LENGTH_MEASURE_WITH_UNIT ( LENGTH_MEASURE( 0.02539999999999999897 ), #109 );
#64 = LENGTH_MEASURE_WITH_UNIT ( LENGTH_MEASURE( 0.02539999999999999897 ), #38 );
#65 = SURFACE_STYLE_FILL_AREA ( #193 ) ;
#66 = CARTESIAN_POINT ( 'NONE',  ( 2.449293598294705921E-16, 3.000000000000000444, 0.000000000000000000 ) ) ;
#67 = EDGE_CURVE ( 'NONE', #134, #229, #136, .T. ) ;
#68 = PRODUCT ( '82647', '82647', '', ( #43 ) ) ;
#69 =( GEOMETRIC_REPRESENTATION_CONTEXT ( 3 ) GLOBAL_UNCERTAINTY_ASSIGNED_CONTEXT ( ( #279 ) ) GLOBAL_UNIT_ASSIGNED_CONTEXT ( ( #223, #268, #133 ) ) REPRESENTATION_CONTEXT ( 'NONE', 'WORKASPACE' ) );
#70 = DIRECTION ( 'NONE',  ( 1.399596341882688851E-16, 1.000000000000000000, -0.000000000000000000 ) ) ;
#71 = FILL_AREA_STYLE_COLOUR ( '', #40 ) ;
#72 = EDGE_LOOP ( 'NONE', ( #148, #125 ) ) ;
#73 = VERTEX_POINT ( 'NONE', #299 ) ;
#74 = AXIS2_PLACEMENT_3D ( 'NONE', #154, #231, #118 ) ;
#75 = ORIENTED_EDGE ( 'NONE', *, *, #285, .F. ) ;
#76 = LENGTH_MEASURE_WITH_UNIT ( LENGTH_MEASURE( 0.02539999999999999897 ), #179 );
#77 = ADVANCED_FACE ( 'NONE', ( #143 ), #113, .T. ) ;
#78 = AXIS2_PLACEMENT_3D ( 'NONE', #30, #225, #105 ) ;
#79 = DIRECTION ( 'NONE',  ( -1.000000000000000000, 1.399596341882688851E-16, 0.000000000000000000 ) ) ;
#80 = SURFACE_STYLE_FILL_AREA ( #27 ) ;
#81 = UNCERTAINTY_MEASURE_WITH_UNIT (LENGTH_MEASURE( 1.000000000000000082E-05 ), #298, 'distance_accuracy_value', 'NONE');
#82 = DIRECTION ( 'NONE',  ( 0.000000000000000000, 0.000000000000000000, 1.000000000000000000 ) ) ;
#83 = DIRECTION ( 'NONE',  ( -0.000000000000000000, -1.000000000000000000, -0.000000000000000000 ) ) ;
#84 = SURFACE_STYLE_FILL_AREA ( #110 ) ;
#85 = UNCERTAINTY_MEASURE_WITH_UNIT (LENGTH_MEASURE( 1.000000000000000082E-05 ), #277, 'distance_accuracy_value', 'NONE');
#86 =( LENGTH_UNIT ( ) NAMED_UNIT ( * ) SI_UNIT ( $, .METRE. ) );
#87 = ORIENTED_EDGE ( 'NONE', *, *, #233, .T. ) ;
#88 = ADVANCED_BREP_SHAPE_REPRESENTATION ( '82647', ( #138, #146, #152 ), #201 ) ;
#89 = DIRECTION ( 'NONE',  ( 1.399596341882688851E-16, 1.000000000000000000, -0.000000000000000000 ) ) ;
#90 = ADVANCED_FACE ( 'NONE', ( #207 ), #122, .T. ) ;
#91 = CARTESIAN_POINT ( 'NONE',  ( 0.000000000000000000, 1.250000000000000000, 0.000000000000000000 ) ) ;
#92 = ORIENTED_EDGE ( 'NONE', *, *, #192, .F. ) ;
#93 = SURFACE_SIDE_STYLE ('',( #165 ) ) ;
#94 = COLOUR_RGB ( '',1.000000000000000000, 0.000000000000000000, 0.000000000000000000 ) ;
#95 =( GEOMETRIC_REPRESENTATION_CONTEXT ( 3 ) GLOBAL_UNCERTAINTY_ASSIGNED_CONTEXT ( ( #81 ) ) GLOBAL_UNIT_ASSIGNED_CONTEXT ( ( #298, #234, #254 ) ) REPRESENTATION_CONTEXT ( 'NONE', 'WORKASPACE' ) );
#96 =( NAMED_UNIT ( * ) PLANE_ANGLE_UNIT ( ) SI_UNIT ( $, .RADIAN. ) );
#97 = FILL_AREA_STYLE_COLOUR ( '', #94 ) ;
#98 = EDGE_CURVE ( 'NONE', #156, #73, #244, .T. ) ;
#99 = DIRECTION ( 'NONE',  ( 1.000000000000000000, -1.399596341882688851E-16, 0.000000000000000000 ) ) ;
#100 = ORIENTED_EDGE ( 'NONE', *, *, #2, .T. ) ;
#101 = MECHANICAL_DESIGN_GEOMETRIC_PRESENTATION_REPRESENTATION (  '', ( #55 ), #69 ) ;
#102 = UNCERTAINTY_MEASURE_WITH_UNIT (LENGTH_MEASURE( 1.000000000000000082E-05 ), #205, 'distance_accuracy_value', 'NONE');
#103 = AXIS2_PLACEMENT_3D ( 'NONE', #191, #11, #278 ) ;
#104 = COLOUR_RGB ( '',1.000000000000000000, 0.000000000000000000, 0.000000000000000000 ) ;
#105 = DIRECTION ( 'NONE',  ( -1.000000000000000000, 0.000000000000000000, 0.000000000000000000 ) ) ;
#106 = ORIENTED_EDGE ( 'NONE', *, *, #285, .T. ) ;
#107 =( LENGTH_UNIT ( ) NAMED_UNIT ( * ) SI_UNIT ( $, .METRE. ) );
#108 = FILL_AREA_STYLE_COLOUR ( '', #104 ) ;
#109 =( LENGTH_UNIT ( ) NAMED_UNIT ( * ) SI_UNIT ( $, .METRE. ) );
#110 = FILL_AREA_STYLE ('',( #292 ) ) ;
#111 = CARTESIAN_POINT ( 'NONE',  ( 1.530808498934191509E-17, 1.250000000000000000, 0.1250000000000000000 ) ) ;
#112 = FACE_OUTER_BOUND ( 'NONE', #296, .T. ) ;
#113 = CYLINDRICAL_SURFACE ( 'NONE', #209, 0.1249999999999998612 ) ;
#114 = ORIENTED_EDGE ( 'NONE', *, *, #67, .T. ) ;
#115 = SURFACE_STYLE_USAGE ( .BOTH. , #14 ) ;
#116 = SURFACE_STYLE_USAGE ( .BOTH. , #93 ) ;
#117 = CLOSED_SHELL ( 'NONE', ( #90, #185, #22, #300 ) ) ;
#118 = DIRECTION ( 'NONE',  ( 0.000000000000000000, 0.000000000000000000, -1.000000000000000000 ) ) ;
#119 = DIRECTION ( 'NONE',  ( 1.399596341882688851E-16, 1.000000000000000000, -0.000000000000000000 ) ) ;
#120 = ORIENTED_EDGE ( 'NONE', *, *, #2, .F. ) ;
#121 = DIRECTION ( 'NONE',  ( -0.000000000000000000, -1.000000000000000000, -0.000000000000000000 ) ) ;
#122 = CYLINDRICAL_SURFACE ( 'NONE', #220, 0.1250000000000000000 ) ;
#123 = CIRCLE ( 'NONE', #249, 0.1250000000000000000 ) ;
#124 =( NAMED_UNIT ( * ) SI_UNIT ( $, .STERADIAN. ) SOLID_ANGLE_UNIT ( ) );
#125 = ORIENTED_EDGE ( 'NONE', *, *, #98, .F. ) ;
#126 =( CONVERSION_BASED_UNIT ( 'INCH', #76 ) LENGTH_UNIT ( ) NAMED_UNIT ( #235 ) );
#127 = AXIS2_PLACEMENT_3D ( 'NONE', #218, #19, #99 ) ;
#128 = AXIS2_PLACEMENT_3D ( 'NONE', #66, #188, #173 ) ;
#129 = DIRECTION ( 'NONE',  ( 1.399596341882688851E-16, 1.000000000000000000, -0.000000000000000000 ) ) ;
#130 = APPLICATION_CONTEXT ( 'automotive_design' ) ;
#131 =( NAMED_UNIT ( * ) SI_UNIT ( $, .STERADIAN. ) SOLID_ANGLE_UNIT ( ) );
#132 = MECHANICAL_DESIGN_GEOMETRIC_PRESENTATION_REPRESENTATION (  '', ( #35 ), #151 ) ;
#133 =( NAMED_UNIT ( * ) SI_UNIT ( $, .STERADIAN. ) SOLID_ANGLE_UNIT ( ) );
#134 = VERTEX_POINT ( 'NONE', #232 ) ;
#135 = UNCERTAINTY_MEASURE_WITH_UNIT (LENGTH_MEASURE( 1.000000000000000082E-05 ), #291, 'distance_accuracy_value', 'NONE');
#136 = CIRCLE ( 'NONE', #103, 0.1250000000000000000 ) ;
#137 =( NAMED_UNIT ( * ) PLANE_ANGLE_UNIT ( ) SI_UNIT ( $, .RADIAN. ) );
#138 = MANIFOLD_SOLID_BREP ( 'Revolve - Cutting Edge', #117 ) ;
#139 = CARTESIAN_POINT ( 'NONE',  ( 0.000000000000000000, 0.000000000000000000, 0.000000000000000000 ) ) ;
#140 = DIRECTION ( 'NONE',  ( -0.000000000000000000, -1.000000000000000000, -0.000000000000000000 ) ) ;
#141 =( NAMED_UNIT ( * ) PLANE_ANGLE_UNIT ( ) SI_UNIT ( $, .RADIAN. ) );
#142 = EDGE_CURVE ( 'NONE', #229, #134, #123, .T. ) ;
#143 = FACE_OUTER_BOUND ( 'NONE', #177, .T. ) ;
#144 = PRESENTATION_LAYER_ASSIGNMENT (  '', '', ( #48 ) ) ;
#145 = CARTESIAN_POINT ( 'NONE',  ( 0.1250000000000001110, 3.000000000000000444, 1.530808498934189660E-17 ) ) ;
#146 = MANIFOLD_SOLID_BREP ( 'Revolve - Tool Body (Straight Shanked)', #159 ) ;
#147 = CARTESIAN_POINT ( 'NONE',  ( 0.000000000000000000, 0.000000000000000000, -0.1250000000000000000 ) ) ;
#148 = ORIENTED_EDGE ( 'NONE', *, *, #196, .F. ) ;
#149 = DIRECTION ( 'NONE',  ( 0.000000000000000000, 0.000000000000000000, -1.000000000000000000 ) ) ;
#150 = ORIENTED_EDGE ( 'NONE', *, *, #192, .T. ) ;
#151 =( GEOMETRIC_REPRESENTATION_CONTEXT ( 3 ) GLOBAL_UNCERTAINTY_ASSIGNED_CONTEXT ( ( #102 ) ) GLOBAL_UNIT_ASSIGNED_CONTEXT ( ( #205, #137, #295 ) ) REPRESENTATION_CONTEXT ( 'NONE', 'WORKASPACE' ) );
#152 = AXIS2_PLACEMENT_3D ( 'NONE', #29, #82, #194 ) ;
#153 = ORIENTED_EDGE ( 'NONE', *, *, #98, .T. ) ;
#154 = CARTESIAN_POINT ( 'NONE',  ( 0.000000000000000000, 0.000000000000000000, 0.000000000000000000 ) ) ;
#155 = DIMENSIONAL_EXPONENTS ( 1.000000000000000000, 0.000000000000000000, 0.000000000000000000, 0.000000000000000000, 0.000000000000000000, 0.000000000000000000, 0.000000000000000000 ) ;
#156 = VERTEX_POINT ( 'NONE', #202 ) ;
#157 = CARTESIAN_POINT ( 'NONE',  ( 1.224293700132127626E-33, 1.250000000000000000, 0.000000000000000000 ) ) ;
#158 = ORIENTED_EDGE ( 'NONE', *, *, #196, .T. ) ;
#159 = CLOSED_SHELL ( 'NONE', ( #31, #183, #77, #170 ) ) ;
#160 =( NAMED_UNIT ( * ) PLANE_ANGLE_UNIT ( ) SI_UNIT ( $, .RADIAN. ) );
#161 = PRESENTATION_STYLE_ASSIGNMENT (( #162 ) ) ;
#162 = SURFACE_STYLE_USAGE ( .BOTH. , #290 ) ;
#163 = PRESENTATION_LAYER_ASSIGNMENT (  '', '', ( #35 ) ) ;
#164 = FILL_AREA_STYLE ('',( #108 ) ) ;
#165 = SURFACE_STYLE_FILL_AREA ( #164 ) ;
#166 = LENGTH_MEASURE_WITH_UNIT ( LENGTH_MEASURE( 0.02539999999999999897 ), #236 );
#167 = COLOUR_RGB ( '',0.7921568627450980005, 0.8196078431372548767, 0.9333333333333333481 ) ;
#168 =( NAMED_UNIT ( * ) SI_UNIT ( $, .STERADIAN. ) SOLID_ANGLE_UNIT ( ) );
#169 = CYLINDRICAL_SURFACE ( 'NONE', #74, 0.1250000000000000000 ) ;
#170 = ADVANCED_FACE ( 'NONE', ( #238 ), #260, .F. ) ;
#171 = CARTESIAN_POINT ( 'NONE',  ( 0.1249999999999999861, 3.000000000000000444, 1.530808498934190585E-17 ) ) ;
#172 = AXIS2_PLACEMENT_3D ( 'NONE', #157, #129, #79 ) ;
#173 = DIRECTION ( 'NONE',  ( -1.000000000000000000, 0.000000000000000000, 0.000000000000000000 ) ) ;
#174 = ORIENTED_EDGE ( 'NONE', *, *, #142, .F. ) ;
#175 = ORIENTED_EDGE ( 'NONE', *, *, #67, .F. ) ;
#176 = PRODUCT_DEFINITION_FORMATION_WITH_SPECIFIED_SOURCE ( 'ANY', '', #68, .NOT_KNOWN. ) ;
#177 = EDGE_LOOP ( 'NONE', ( #92, #153, #307, #47 ) ) ;
#178 = DIMENSIONAL_EXPONENTS ( 1.000000000000000000, 0.000000000000000000, 0.000000000000000000, 0.000000000000000000, 0.000000000000000000, 0.000000000000000000, 0.000000000000000000 ) ;
#179 =( LENGTH_UNIT ( ) NAMED_UNIT ( * ) SI_UNIT ( $, .METRE. ) );
#180 = DIRECTION ( 'NONE',  ( -0.000000000000000000, -1.000000000000000000, -0.000000000000000000 ) ) ;
#181 = MECHANICAL_DESIGN_GEOMETRIC_PRESENTATION_REPRESENTATION (  '', ( #200 ), #272 ) ;
#182 = DIRECTION ( 'NONE',  ( 0.000000000000000000, 0.000000000000000000, -1.000000000000000000 ) ) ;
#183 = ADVANCED_FACE ( 'NONE', ( #262 ), #52, .F. ) ;
#184 = FILL_AREA_STYLE_COLOUR ( '', #189 ) ;
#185 = ADVANCED_FACE ( 'NONE', ( #264 ), #18, .T. ) ;
#186 = VECTOR ( 'NONE', #275, 39.37007874015748143 ) ;
#187 = FILL_AREA_STYLE_COLOUR ( '', #241 ) ;
#188 = DIRECTION ( 'NONE',  ( 1.399596341882688851E-16, 1.000000000000000000, -0.000000000000000000 ) ) ;
#189 = COLOUR_RGB ( '',0.7921568627450980005, 0.8196078431372548767, 0.9333333333333333481 ) ;
#190 = CARTESIAN_POINT ( 'NONE',  ( -0.1249999999999995004, 3.000000000000000444, 0.000000000000000000 ) ) ;
#191 = CARTESIAN_POINT ( 'NONE',  ( 0.000000000000000000, 1.250000000000000000, 0.000000000000000000 ) ) ;
#192 = EDGE_CURVE ( 'NONE', #156, #46, #270, .T. ) ;
#193 = FILL_AREA_STYLE ('',( #71 ) ) ;
#194 = DIRECTION ( 'NONE',  ( 1.000000000000000000, 0.000000000000000000, 0.000000000000000000 ) ) ;
#195 = DIRECTION ( 'NONE',  ( 0.000000000000000000, -0.000000000000000000, 1.000000000000000000 ) ) ;
#196 = EDGE_CURVE ( 'NONE', #73, #156, #4, .T. ) ;
#197 = LENGTH_MEASURE_WITH_UNIT ( LENGTH_MEASURE( 0.02539999999999999897 ), #276 );
#198 = SURFACE_STYLE_FILL_AREA ( #58 ) ;
#199 = ORIENTED_EDGE ( 'NONE', *, *, #288, .T. ) ;
#200 = STYLED_ITEM ( 'NONE', ( #45 ), #90 ) ;
#201 =( GEOMETRIC_REPRESENTATION_CONTEXT ( 3 ) GLOBAL_UNCERTAINTY_ASSIGNED_CONTEXT ( ( #287 ) ) GLOBAL_UNIT_ASSIGNED_CONTEXT ( ( #126, #160, #131 ) ) REPRESENTATION_CONTEXT ( 'NONE', 'WORKASPACE' ) );
#202 = CARTESIAN_POINT ( 'NONE',  ( 0.1249999999999999861, 1.250000000000000000, 1.530808498934190585E-17 ) ) ;
#203 = LENGTH_MEASURE_WITH_UNIT ( LENGTH_MEASURE( 0.02539999999999999897 ), #107 );
#204 = PRESENTATION_LAYER_ASSIGNMENT (  '', '', ( #25 ) ) ;
#205 =( CONVERSION_BASED_UNIT ( 'INCH', #63 ) LENGTH_UNIT ( ) NAMED_UNIT ( #155 ) );
#206 = LINE ( 'NONE', #147, #273 ) ;
#207 = FACE_OUTER_BOUND ( 'NONE', #259, .T. ) ;
#208 = CARTESIAN_POINT ( 'NONE',  ( 1.530808498934191509E-17, 0.000000000000000000, 0.1250000000000000000 ) ) ;
#209 = AXIS2_PLACEMENT_3D ( 'NONE', #15, #119, #42 ) ;
#210 = AXIS2_PLACEMENT_3D ( 'NONE', #20, #286, #149 ) ;
#211 = ORIENTED_EDGE ( 'NONE', *, *, #242, .T. ) ;
#212 =( NAMED_UNIT ( * ) PLANE_ANGLE_UNIT ( ) SI_UNIT ( $, .RADIAN. ) );
#213 = DIMENSIONAL_EXPONENTS ( 1.000000000000000000, 0.000000000000000000, 0.000000000000000000, 0.000000000000000000, 0.000000000000000000, 0.000000000000000000, 0.000000000000000000 ) ;
#214 = LINE ( 'NONE', #208, #246 ) ;
#215 = CIRCLE ( 'NONE', #255, 0.1249999999999997363 ) ;
#216 = EDGE_LOOP ( 'NONE', ( #100, #87 ) ) ;
#217 = APPLICATION_PROTOCOL_DEFINITION ( 'draft international standard', 'automotive_design', 1998, #130 ) ;
#218 = CARTESIAN_POINT ( 'NONE',  ( 0.1249999999999999861, 3.000000000000000444, 0.000000000000000000 ) ) ;
#219 = DIMENSIONAL_EXPONENTS ( 1.000000000000000000, 0.000000000000000000, 0.000000000000000000, 0.000000000000000000, 0.000000000000000000, 0.000000000000000000, 0.000000000000000000 ) ;
#220 = AXIS2_PLACEMENT_3D ( 'NONE', #309, #180, #228 ) ;
#221 = CIRCLE ( 'NONE', #282, 0.1250000000000000000 ) ;
#222 = PRODUCT_RELATED_PRODUCT_CATEGORY ( 'part', '', ( #68 ) ) ;
#223 =( CONVERSION_BASED_UNIT ( 'INCH', #1 ) LENGTH_UNIT ( ) NAMED_UNIT ( #219 ) );
#224 = CYLINDRICAL_SURFACE ( 'NONE', #239, 0.1249999999999998612 ) ;
#225 = DIRECTION ( 'NONE',  ( 1.399596341882688851E-16, 1.000000000000000000, -0.000000000000000000 ) ) ;
#226 = UNCERTAINTY_MEASURE_WITH_UNIT (LENGTH_MEASURE( 1.000000000000000082E-05 ), #17, 'distance_accuracy_value', 'NONE');
#227 = DIRECTION ( 'NONE',  ( -0.000000000000000000, -1.000000000000000000, -0.000000000000000000 ) ) ;
#228 = DIRECTION ( 'NONE',  ( 0.000000000000000000, 0.000000000000000000, -1.000000000000000000 ) ) ;
#229 = VERTEX_POINT ( 'NONE', #111 ) ;
#230 = AXIS2_PLACEMENT_3D ( 'NONE', #61, #280, #195 ) ;
#231 = DIRECTION ( 'NONE',  ( -0.000000000000000000, -1.000000000000000000, -0.000000000000000000 ) ) ;
#232 = CARTESIAN_POINT ( 'NONE',  ( 0.000000000000000000, 1.250000000000000000, -0.1250000000000000000 ) ) ;
#233 = EDGE_CURVE ( 'NONE', #33, #237, #221, .T. ) ;
#234 =( NAMED_UNIT ( * ) PLANE_ANGLE_UNIT ( ) SI_UNIT ( $, .RADIAN. ) );
#235 = DIMENSIONAL_EXPONENTS ( 1.000000000000000000, 0.000000000000000000, 0.000000000000000000, 0.000000000000000000, 0.000000000000000000, 0.000000000000000000, 0.000000000000000000 ) ;
#236 =( LENGTH_UNIT ( ) NAMED_UNIT ( * ) SI_UNIT ( $, .METRE. ) );
#237 = VERTEX_POINT ( 'NONE', #16 ) ;
#238 = FACE_OUTER_BOUND ( 'NONE', #51, .T. ) ;
#239 = AXIS2_PLACEMENT_3D ( 'NONE', #32, #60, #7 ) ;
#240 = PRESENTATION_LAYER_ASSIGNMENT (  '', '', ( #200 ) ) ;
#241 = COLOUR_RGB ( '',1.000000000000000000, 0.000000000000000000, 0.000000000000000000 ) ;
#242 = EDGE_CURVE ( 'NONE', #46, #8, #215, .T. ) ;
#243 = EDGE_CURVE ( 'NONE', #134, #237, #206, .T. ) ;
#244 = CIRCLE ( 'NONE', #78, 0.1250000000000000000 ) ;
#245 = PRESENTATION_STYLE_ASSIGNMENT (( #54 ) ) ;
#246 = VECTOR ( 'NONE', #140, 39.37007874015748143 ) ;
#247 = PRODUCT_DEFINITION ( 'UNKNOWN', '', #176, #266 ) ;
#248 = CARTESIAN_POINT ( 'NONE',  ( 0.000000000000000000, 1.250000000000000000, 0.000000000000000000 ) ) ;
#249 = AXIS2_PLACEMENT_3D ( 'NONE', #248, #83, #182 ) ;
#250 = DIRECTION ( 'NONE',  ( 1.399596341882688851E-16, 1.000000000000000000, -0.000000000000000000 ) ) ;
#251 = SURFACE_SIDE_STYLE ('',( #65 ) ) ;
#252 = DIMENSIONAL_EXPONENTS ( 1.000000000000000000, 0.000000000000000000, 0.000000000000000000, 0.000000000000000000, 0.000000000000000000, 0.000000000000000000, 0.000000000000000000 ) ;
#253 = DIRECTION ( 'NONE',  ( 0.000000000000000000, 0.000000000000000000, -1.000000000000000000 ) ) ;
#254 =( NAMED_UNIT ( * ) SI_UNIT ( $, .STERADIAN. ) SOLID_ANGLE_UNIT ( ) );
#255 = AXIS2_PLACEMENT_3D ( 'NONE', #6, #70, #39 ) ;
#256 = SURFACE_SIDE_STYLE ('',( #198 ) ) ;
#257 = PRESENTATION_STYLE_ASSIGNMENT (( #115 ) ) ;
#258 = CARTESIAN_POINT ( 'NONE',  ( 1.530808498934191509E-17, 0.000000000000000000, 0.1250000000000000000 ) ) ;
#259 = EDGE_LOOP ( 'NONE', ( #114, #106, #120, #306 ) ) ;
#260 = PLANE ( 'NONE',  #127 ) ;
#261 = PRESENTATION_LAYER_ASSIGNMENT (  '', '', ( #55 ) ) ;
#262 = FACE_OUTER_BOUND ( 'NONE', #72, .T. ) ;
#263 = MECHANICAL_DESIGN_GEOMETRIC_PRESENTATION_REPRESENTATION (  '', ( #25 ), #284 ) ;
#264 = FACE_OUTER_BOUND ( 'NONE', #57, .T. ) ;
#265 = SURFACE_SIDE_STYLE ('',( #80 ) ) ;
#266 = PRODUCT_DEFINITION_CONTEXT ( 'detailed design', #130, 'design' ) ;
#267 = FACE_OUTER_BOUND ( 'NONE', #293, .T. ) ;
#268 =( NAMED_UNIT ( * ) PLANE_ANGLE_UNIT ( ) SI_UNIT ( $, .RADIAN. ) );
#269 = ORIENTED_EDGE ( 'NONE', *, *, #233, .F. ) ;
#270 = LINE ( 'NONE', #145, #304 ) ;
#271 = PRESENTATION_STYLE_ASSIGNMENT (( #116 ) ) ;
#272 =( GEOMETRIC_REPRESENTATION_CONTEXT ( 3 ) GLOBAL_UNCERTAINTY_ASSIGNED_CONTEXT ( ( #226 ) ) GLOBAL_UNIT_ASSIGNED_CONTEXT ( ( #17, #96, #124 ) ) REPRESENTATION_CONTEXT ( 'NONE', 'WORKASPACE' ) );
#273 = VECTOR ( 'NONE', #121, 39.37007874015748143 ) ;
#274 = FACE_OUTER_BOUND ( 'NONE', #216, .T. ) ;
#275 = DIRECTION ( 'NONE',  ( 1.399596341882688851E-16, 1.000000000000000000, -0.000000000000000000 ) ) ;
#276 =( LENGTH_UNIT ( ) NAMED_UNIT ( * ) SI_UNIT ( $, .METRE. ) );
#277 =( CONVERSION_BASED_UNIT ( 'INCH', #166 ) LENGTH_UNIT ( ) NAMED_UNIT ( #252 ) );
#278 = DIRECTION ( 'NONE',  ( 0.000000000000000000, 0.000000000000000000, -1.000000000000000000 ) ) ;
#279 = UNCERTAINTY_MEASURE_WITH_UNIT (LENGTH_MEASURE( 1.000000000000000082E-05 ), #223, 'distance_accuracy_value', 'NONE');
#280 = DIRECTION ( 'NONE',  ( 0.000000000000000000, 1.000000000000000000, 0.000000000000000000 ) ) ;
#281 = APPLICATION_PROTOCOL_DEFINITION ( 'draft international standard', 'automotive_design', 1998, #23 ) ;
#282 = AXIS2_PLACEMENT_3D ( 'NONE', #139, #37, #253 ) ;
#283 = DIRECTION ( 'NONE',  ( -1.000000000000000000, 0.000000000000000000, 0.000000000000000000 ) ) ;
#284 =( GEOMETRIC_REPRESENTATION_CONTEXT ( 3 ) GLOBAL_UNCERTAINTY_ASSIGNED_CONTEXT ( ( #85 ) ) GLOBAL_UNIT_ASSIGNED_CONTEXT ( ( #277, #212, #168 ) ) REPRESENTATION_CONTEXT ( 'NONE', 'WORKASPACE' ) );
#285 = EDGE_CURVE ( 'NONE', #229, #33, #214, .T. ) ;
#286 = DIRECTION ( 'NONE',  ( 0.000000000000000000, -1.000000000000000000, -0.000000000000000000 ) ) ;
#287 = UNCERTAINTY_MEASURE_WITH_UNIT (LENGTH_MEASURE( 1.000000000000000082E-05 ), #126, 'distance_accuracy_value', 'NONE');
#288 = EDGE_CURVE ( 'NONE', #8, #46, #41, .T. ) ;
#289 = SHAPE_DEFINITION_REPRESENTATION ( #303, #88 ) ;
#290 = SURFACE_SIDE_STYLE ('',( #84 ) ) ;
#291 =( CONVERSION_BASED_UNIT ( 'INCH', #203 ) LENGTH_UNIT ( ) NAMED_UNIT ( #34 ) );
#292 = FILL_AREA_STYLE_COLOUR ( '', #167 ) ;
#293 = EDGE_LOOP ( 'NONE', ( #158, #150, #26, #3 ) ) ;
#294 = PRESENTATION_STYLE_ASSIGNMENT (( #28 ) ) ;
#295 =( NAMED_UNIT ( * ) SI_UNIT ( $, .STERADIAN. ) SOLID_ANGLE_UNIT ( ) );
#296 = EDGE_LOOP ( 'NONE', ( #75, #21, #50, #269 ) ) ;
#297 = CIRCLE ( 'NONE', #12, 0.1250000000000000000 ) ;
#298 =( CONVERSION_BASED_UNIT ( 'INCH', #64 ) LENGTH_UNIT ( ) NAMED_UNIT ( #213 ) );
#299 = CARTESIAN_POINT ( 'NONE',  ( -0.1250000000000000000, 1.250000000000000000, 0.000000000000000000 ) ) ;
#300 = ADVANCED_FACE ( 'NONE', ( #274 ), #301, .T. ) ;
#301 = PLANE ( 'NONE',  #210 ) ;
#302 = SURFACE_STYLE_USAGE ( .BOTH. , #251 ) ;
#303 = PRODUCT_DEFINITION_SHAPE ( 'NONE', 'NONE',  #247 ) ;
#304 = VECTOR ( 'NONE', #250, 39.37007874015748143 ) ;
#305 = PRESENTATION_LAYER_ASSIGNMENT (  '', '', ( #49 ) ) ;
#306 = ORIENTED_EDGE ( 'NONE', *, *, #243, .F. ) ;
#307 = ORIENTED_EDGE ( 'NONE', *, *, #9, .T. ) ;
#308 = MECHANICAL_DESIGN_GEOMETRIC_PRESENTATION_REPRESENTATION (  '', ( #48 ), #53 ) ;
#309 = CARTESIAN_POINT ( 'NONE',  ( 0.000000000000000000, 0.000000000000000000, 0.000000000000000000 ) ) ;
ENDSEC;
END-ISO-10303-21;
