ISO-10303-21;
HEADER;
FILE_DESCRIPTION (( 'STEP AP214' ),
    '1' );
FILE_NAME ('26377.STEP',
    '2023-06-22T17:45:00',
    ( '' ),
    ( '' ),
    'SwSTEP 2.0',
    'SolidWorks 2023',
    '' );
FILE_SCHEMA (( 'AUTOMOTIVE_DESIGN' ));
ENDSEC;

DATA;
#1 =( LENGTH_UNIT ( ) NAMED_UNIT ( * ) SI_UNIT ( $, .METRE. ) );
#2 = FILL_AREA_STYLE ('',( #290 ) ) ;
#3 =( GEOMETRIC_REPRESENTATION_CONTEXT ( 3 ) GLOBAL_UNCERTAINTY_ASSIGNED_CONTEXT ( ( #228 ) ) GLOBAL_UNIT_ASSIGNED_CONTEXT ( ( #185, #211, #235 ) ) REPRESENTATION_CONTEXT ( 'NONE', 'WORKASPACE' ) );
#4 = CARTESIAN_POINT ( 'NONE',  ( 0.000000000000000000, 1.625000000000000000, 0.000000000000000000 ) ) ;
#5 = FACE_OUTER_BOUND ( 'NONE', #303, .T. ) ;
#6 = DIRECTION ( 'NONE',  ( -0.000000000000000000, -1.000000000000000000, -0.000000000000000000 ) ) ;
#7 = PRESENTATION_STYLE_ASSIGNMENT (( #227 ) ) ;
#8 = CIRCLE ( 'NONE', #223, 0.3750000000000000555 ) ;
#9 = DIRECTION ( 'NONE',  ( 0.000000000000000000, 1.000000000000000000, 0.000000000000000000 ) ) ;
#10 = VERTEX_POINT ( 'NONE', #261 ) ;
#11 = DIRECTION ( 'NONE',  ( -0.000000000000000000, -1.000000000000000000, -0.000000000000000000 ) ) ;
#12 = DIRECTION ( 'NONE',  ( -2.578203787678638882E-17, 1.000000000000000000, -0.000000000000000000 ) ) ;
#13 = DIRECTION ( 'NONE',  ( -1.000000000000000000, 0.000000000000000000, 0.000000000000000000 ) ) ;
#14 = STYLED_ITEM ( 'NONE', ( #270 ), #273 ) ;
#15 = SURFACE_STYLE_FILL_AREA ( #159 ) ;
#16 = ADVANCED_FACE ( 'NONE', ( #234 ), #102, .T. ) ;
#17 = UNCERTAINTY_MEASURE_WITH_UNIT (LENGTH_MEASURE( 1.000000000000000082E-05 ), #87, 'distance_accuracy_value', 'NONE');
#18 = AXIS2_PLACEMENT_3D ( 'NONE', #282, #72, #143 ) ;
#19 = CARTESIAN_POINT ( 'NONE',  ( 0.000000000000000000, 0.000000000000000000, 0.000000000000000000 ) ) ;
#20 = EDGE_CURVE ( 'NONE', #264, #191, #241, .T. ) ;
#21 = ORIENTED_EDGE ( 'NONE', *, *, #247, .T. ) ;
#22 = MECHANICAL_DESIGN_GEOMETRIC_PRESENTATION_REPRESENTATION (  '', ( #304 ), #55 ) ;
#23 = CARTESIAN_POINT ( 'NONE',  ( 0.000000000000000000, 0.000000000000000000, 0.000000000000000000 ) ) ;
#24 = ORIENTED_EDGE ( 'NONE', *, *, #199, .F. ) ;
#25 = UNCERTAINTY_MEASURE_WITH_UNIT (LENGTH_MEASURE( 1.000000000000000082E-05 ), #171, 'distance_accuracy_value', 'NONE');
#26 = SURFACE_STYLE_USAGE ( .BOTH. , #253 ) ;
#27 =( LENGTH_UNIT ( ) NAMED_UNIT ( * ) SI_UNIT ( $, .METRE. ) );
#28 = CYLINDRICAL_SURFACE ( 'NONE', #200, 0.3750000000000001110 ) ;
#29 = DIRECTION ( 'NONE',  ( 1.000000000000000000, 0.000000000000000000, 0.000000000000000000 ) ) ;
#30 = EDGE_LOOP ( 'NONE', ( #196, #128, #166, #24 ) ) ;
#31 = COLOUR_RGB ( '',1.000000000000000000, 0.000000000000000000, 0.000000000000000000 ) ;
#32 = AXIS2_PLACEMENT_3D ( 'NONE', #301, #203, #116 ) ;
#33 = CIRCLE ( 'NONE', #189, 0.3750000000000000555 ) ;
#34 = FACE_OUTER_BOUND ( 'NONE', #30, .T. ) ;
#35 = CARTESIAN_POINT ( 'NONE',  ( 0.000000000000000000, 0.000000000000000000, 0.000000000000000000 ) ) ;
#36 = ADVANCED_FACE ( 'NONE', ( #242 ), #157, .T. ) ;
#37 = CARTESIAN_POINT ( 'NONE',  ( 1.516480271171051896E-32, 1.625000000000000000, 0.000000000000000000 ) ) ;
#38 = FACE_OUTER_BOUND ( 'NONE', #283, .T. ) ;
#39 = COLOUR_RGB ( '',1.000000000000000000, 0.000000000000000000, 0.000000000000000000 ) ;
#40 = LENGTH_MEASURE_WITH_UNIT ( LENGTH_MEASURE( 0.02539999999999999897 ), #1 );
#41 = DIRECTION ( 'NONE',  ( 0.000000000000000000, 0.000000000000000000, -1.000000000000000000 ) ) ;
#42 = ORIENTED_EDGE ( 'NONE', *, *, #251, .F. ) ;
#43 = STYLED_ITEM ( 'NONE', ( #7 ), #16 ) ;
#44 = AXIS2_PLACEMENT_3D ( 'NONE', #150, #260, #174 ) ;
#45 =( NAMED_UNIT ( * ) PLANE_ANGLE_UNIT ( ) SI_UNIT ( $, .RADIAN. ) );
#46 = CARTESIAN_POINT ( 'NONE',  ( 0.3750000000000000555, 4.000000000000000000, 4.592425496802576068E-17 ) ) ;
#47 = EDGE_CURVE ( 'NONE', #179, #249, #252, .T. ) ;
#48 = SURFACE_STYLE_FILL_AREA ( #259 ) ;
#49 = ORIENTED_EDGE ( 'NONE', *, *, #169, .F. ) ;
#50 = MECHANICAL_DESIGN_GEOMETRIC_PRESENTATION_REPRESENTATION (  '', ( #14 ), #3 ) ;
#51 = LENGTH_MEASURE_WITH_UNIT ( LENGTH_MEASURE( 0.02539999999999999897 ), #176 );
#52 =( NAMED_UNIT ( * ) SI_UNIT ( $, .STERADIAN. ) SOLID_ANGLE_UNIT ( ) );
#53 = DIRECTION ( 'NONE',  ( -2.578203787678638882E-17, 1.000000000000000000, 0.000000000000000000 ) ) ;
#54 = COLOUR_RGB ( '',0.7921568627450980005, 0.8196078431372548767, 0.9333333333333333481 ) ;
#55 =( GEOMETRIC_REPRESENTATION_CONTEXT ( 3 ) GLOBAL_UNCERTAINTY_ASSIGNED_CONTEXT ( ( #17 ) ) GLOBAL_UNIT_ASSIGNED_CONTEXT ( ( #87, #117, #93 ) ) REPRESENTATION_CONTEXT ( 'NONE', 'WORKASPACE' ) );
#56 = SURFACE_SIDE_STYLE ('',( #154 ) ) ;
#57 = PLANE ( 'NONE',  #113 ) ;
#58 = CARTESIAN_POINT ( 'NONE',  ( 0.000000000000000000, 0.000000000000000000, -0.3750000000000000555 ) ) ;
#59 =( GEOMETRIC_REPRESENTATION_CONTEXT ( 3 ) GLOBAL_UNCERTAINTY_ASSIGNED_CONTEXT ( ( #109 ) ) GLOBAL_UNIT_ASSIGNED_CONTEXT ( ( #101, #124, #52 ) ) REPRESENTATION_CONTEXT ( 'NONE', 'WORKASPACE' ) );
#60 =( GEOMETRIC_REPRESENTATION_CONTEXT ( 3 ) GLOBAL_UNCERTAINTY_ASSIGNED_CONTEXT ( ( #190 ) ) GLOBAL_UNIT_ASSIGNED_CONTEXT ( ( #250, #45, #136 ) ) REPRESENTATION_CONTEXT ( 'NONE', 'WORKASPACE' ) );
#61 = ORIENTED_EDGE ( 'NONE', *, *, #20, .F. ) ;
#62 = AXIS2_PLACEMENT_3D ( 'NONE', #132, #12, #13 ) ;
#63 = SURFACE_STYLE_FILL_AREA ( #209 ) ;
#64 = EDGE_CURVE ( 'NONE', #151, #144, #219, .T. ) ;
#65 = LENGTH_MEASURE_WITH_UNIT ( LENGTH_MEASURE( 0.02539999999999999897 ), #73 );
#66 = AXIS2_PLACEMENT_3D ( 'NONE', #172, #233, #95 ) ;
#67 = CARTESIAN_POINT ( 'NONE',  ( 0.000000000000000000, 1.625000000000000000, 0.000000000000000000 ) ) ;
#68 =( GEOMETRIC_REPRESENTATION_CONTEXT ( 3 ) GLOBAL_UNCERTAINTY_ASSIGNED_CONTEXT ( ( #69 ) ) GLOBAL_UNIT_ASSIGNED_CONTEXT ( ( #177, #300, #297 ) ) REPRESENTATION_CONTEXT ( 'NONE', 'WORKASPACE' ) );
#69 = UNCERTAINTY_MEASURE_WITH_UNIT (LENGTH_MEASURE( 1.000000000000000082E-05 ), #177, 'distance_accuracy_value', 'NONE');
#70 = LENGTH_MEASURE_WITH_UNIT ( LENGTH_MEASURE( 0.02539999999999999897 ), #120 );
#71 = EDGE_LOOP ( 'NONE', ( #187, #175, #86, #42 ) ) ;
#72 = DIRECTION ( 'NONE',  ( 2.578203787678638882E-17, -1.000000000000000000, 0.000000000000000000 ) ) ;
#73 =( LENGTH_UNIT ( ) NAMED_UNIT ( * ) SI_UNIT ( $, .METRE. ) );
#74 = MANIFOLD_SOLID_BREP ( 'Revolve - Cutting Edge', #155 ) ;
#75 = FILL_AREA_STYLE_COLOUR ( '', #39 ) ;
#76 = CLOSED_SHELL ( 'NONE', ( #178, #298, #184, #133 ) ) ;
#77 = MECHANICAL_DESIGN_GEOMETRIC_PRESENTATION_REPRESENTATION (  '', ( #266 ), #237 ) ;
#78 =( GEOMETRIC_REPRESENTATION_CONTEXT ( 3 ) GLOBAL_UNCERTAINTY_ASSIGNED_CONTEXT ( ( #279 ) ) GLOBAL_UNIT_ASSIGNED_CONTEXT ( ( #229, #91, #299 ) ) REPRESENTATION_CONTEXT ( 'NONE', 'WORKASPACE' ) );
#79 = DIRECTION ( 'NONE',  ( -2.578203787678638882E-17, 1.000000000000000000, -0.000000000000000000 ) ) ;
#80 = PRESENTATION_STYLE_ASSIGNMENT (( #156 ) ) ;
#81 =( LENGTH_UNIT ( ) NAMED_UNIT ( * ) SI_UNIT ( $, .METRE. ) );
#82 = ORIENTED_EDGE ( 'NONE', *, *, #47, .F. ) ;
#83 = ORIENTED_EDGE ( 'NONE', *, *, #251, .T. ) ;
#84 = DIMENSIONAL_EXPONENTS ( 1.000000000000000000, 0.000000000000000000, 0.000000000000000000, 0.000000000000000000, 0.000000000000000000, 0.000000000000000000, 0.000000000000000000 ) ;
#85 = EDGE_LOOP ( 'NONE', ( #161, #220 ) ) ;
#86 = ORIENTED_EDGE ( 'NONE', *, *, #64, .T. ) ;
#87 =( CONVERSION_BASED_UNIT ( 'INCH', #40 ) LENGTH_UNIT ( ) NAMED_UNIT ( #84 ) );
#88 = STYLED_ITEM ( 'NONE', ( #135 ), #36 ) ;
#89 = VECTOR ( 'NONE', #11, 39.37007874015748143 ) ;
#90 = SURFACE_SIDE_STYLE ('',( #248 ) ) ;
#91 =( NAMED_UNIT ( * ) PLANE_ANGLE_UNIT ( ) SI_UNIT ( $, .RADIAN. ) );
#92 = EDGE_CURVE ( 'NONE', #10, #151, #33, .T. ) ;
#93 =( NAMED_UNIT ( * ) SI_UNIT ( $, .STERADIAN. ) SOLID_ANGLE_UNIT ( ) );
#94 = DIRECTION ( 'NONE',  ( -2.578203787678638882E-17, 1.000000000000000000, -0.000000000000000000 ) ) ;
#95 = DIRECTION ( 'NONE',  ( -1.000000000000000000, 0.000000000000000000, 0.000000000000000000 ) ) ;
#96 = CIRCLE ( 'NONE', #149, 0.3750000000000000555 ) ;
#97 = DIRECTION ( 'NONE',  ( 0.000000000000000000, 0.000000000000000000, -1.000000000000000000 ) ) ;
#98 = ORIENTED_EDGE ( 'NONE', *, *, #231, .T. ) ;
#99 = CARTESIAN_POINT ( 'NONE',  ( -0.3750000000000000555, 1.625000000000000000, 0.000000000000000000 ) ) ;
#100 = FILL_AREA_STYLE_COLOUR ( '', #54 ) ;
#101 =( CONVERSION_BASED_UNIT ( 'INCH', #295 ) LENGTH_UNIT ( ) NAMED_UNIT ( #134 ) );
#102 = CYLINDRICAL_SURFACE ( 'NONE', #32, 0.3750000000000000555 ) ;
#103 = DIRECTION ( 'NONE',  ( -0.000000000000000000, -1.000000000000000000, -0.000000000000000000 ) ) ;
#104 = LENGTH_MEASURE_WITH_UNIT ( LENGTH_MEASURE( 0.02539999999999999897 ), #263 );
#105 = FILL_AREA_STYLE_COLOUR ( '', #31 ) ;
#106 = DIRECTION ( 'NONE',  ( 0.000000000000000000, 0.000000000000000000, -1.000000000000000000 ) ) ;
#107 = SURFACE_STYLE_USAGE ( .BOTH. , #208 ) ;
#108 = DIRECTION ( 'NONE',  ( -2.578203787678638882E-17, 1.000000000000000000, -0.000000000000000000 ) ) ;
#109 = UNCERTAINTY_MEASURE_WITH_UNIT (LENGTH_MEASURE( 1.000000000000000082E-05 ), #101, 'distance_accuracy_value', 'NONE');
#110 = CARTESIAN_POINT ( 'NONE',  ( 0.000000000000000000, 0.000000000000000000, 0.000000000000000000 ) ) ;
#111 = VECTOR ( 'NONE', #194, 39.37007874015748143 ) ;
#112 = DIRECTION ( 'NONE',  ( 0.000000000000000000, 0.000000000000000000, -1.000000000000000000 ) ) ;
#113 = AXIS2_PLACEMENT_3D ( 'NONE', #158, #53, #268 ) ;
#114 = DIRECTION ( 'NONE',  ( -0.000000000000000000, -1.000000000000000000, -0.000000000000000000 ) ) ;
#115 = CARTESIAN_POINT ( 'NONE',  ( -0.3750000000000001665, 4.000000000000000000, 0.000000000000000000 ) ) ;
#116 = DIRECTION ( 'NONE',  ( 0.000000000000000000, 0.000000000000000000, -1.000000000000000000 ) ) ;
#117 =( NAMED_UNIT ( * ) PLANE_ANGLE_UNIT ( ) SI_UNIT ( $, .RADIAN. ) );
#118 = SURFACE_SIDE_STYLE ('',( #63 ) ) ;
#119 = DIRECTION ( 'NONE',  ( 0.000000000000000000, -0.000000000000000000, 1.000000000000000000 ) ) ;
#120 =( LENGTH_UNIT ( ) NAMED_UNIT ( * ) SI_UNIT ( $, .METRE. ) );
#121 = EDGE_CURVE ( 'NONE', #249, #179, #96, .T. ) ;
#122 = CIRCLE ( 'NONE', #206, 0.3750000000000001110 ) ;
#123 = CYLINDRICAL_SURFACE ( 'NONE', #66, 0.3750000000000001110 ) ;
#124 =( NAMED_UNIT ( * ) PLANE_ANGLE_UNIT ( ) SI_UNIT ( $, .RADIAN. ) );
#125 = APPLICATION_PROTOCOL_DEFINITION ( 'draft international standard', 'automotive_design', 1998, #258 ) ;
#126 = FACE_OUTER_BOUND ( 'NONE', #71, .T. ) ;
#127 = SURFACE_STYLE_USAGE ( .BOTH. , #162 ) ;
#128 = ORIENTED_EDGE ( 'NONE', *, *, #188, .T. ) ;
#129 = COLOUR_RGB ( '',0.7921568627450980005, 0.8196078431372548767, 0.9333333333333333481 ) ;
#130 = DIMENSIONAL_EXPONENTS ( 1.000000000000000000, 0.000000000000000000, 0.000000000000000000, 0.000000000000000000, 0.000000000000000000, 0.000000000000000000, 0.000000000000000000 ) ;
#131 = DIRECTION ( 'NONE',  ( -0.000000000000000000, -1.000000000000000000, -0.000000000000000000 ) ) ;
#132 = CARTESIAN_POINT ( 'NONE',  ( -6.123233995736766036E-17, 4.000000000000000000, 0.000000000000000000 ) ) ;
#133 = ADVANCED_FACE ( 'NONE', ( #277 ), #202, .F. ) ;
#134 = DIMENSIONAL_EXPONENTS ( 1.000000000000000000, 0.000000000000000000, 0.000000000000000000, 0.000000000000000000, 0.000000000000000000, 0.000000000000000000, 0.000000000000000000 ) ;
#135 = PRESENTATION_STYLE_ASSIGNMENT (( #107 ) ) ;
#136 =( NAMED_UNIT ( * ) SI_UNIT ( $, .STERADIAN. ) SOLID_ANGLE_UNIT ( ) );
#137 = VECTOR ( 'NONE', #186, 39.37007874015748143 ) ;
#138 = VERTEX_POINT ( 'NONE', #46 ) ;
#139 = DIRECTION ( 'NONE',  ( 0.000000000000000000, -1.000000000000000000, -0.000000000000000000 ) ) ;
#140 = DIMENSIONAL_EXPONENTS ( 1.000000000000000000, 0.000000000000000000, 0.000000000000000000, 0.000000000000000000, 0.000000000000000000, 0.000000000000000000, 0.000000000000000000 ) ;
#141 = PRESENTATION_LAYER_ASSIGNMENT (  '', '', ( #14 ) ) ;
#142 = CARTESIAN_POINT ( 'NONE',  ( 4.592425496802575451E-17, 0.000000000000000000, 0.3750000000000000555 ) ) ;
#143 = DIRECTION ( 'NONE',  ( 1.000000000000000000, 2.578203787678638882E-17, 0.000000000000000000 ) ) ;
#144 = VERTEX_POINT ( 'NONE', #115 ) ;
#145 = CARTESIAN_POINT ( 'NONE',  ( -6.123233995736766036E-17, 4.000000000000000000, 0.000000000000000000 ) ) ;
#146 = EDGE_LOOP ( 'NONE', ( #216, #192, #271, #82 ) ) ;
#147 = APPLICATION_CONTEXT ( 'automotive_design' ) ;
#148 = DIRECTION ( 'NONE',  ( -1.000000000000000000, 0.000000000000000000, 0.000000000000000000 ) ) ;
#149 = AXIS2_PLACEMENT_3D ( 'NONE', #23, #6, #97 ) ;
#150 = CARTESIAN_POINT ( 'NONE',  ( 0.000000000000000000, 1.625000000000000000, 0.000000000000000000 ) ) ;
#151 = VERTEX_POINT ( 'NONE', #99 ) ;
#152 = APPLICATION_PROTOCOL_DEFINITION ( 'draft international standard', 'automotive_design', 1998, #147 ) ;
#153 = DIMENSIONAL_EXPONENTS ( 1.000000000000000000, 0.000000000000000000, 0.000000000000000000, 0.000000000000000000, 0.000000000000000000, 0.000000000000000000, 0.000000000000000000 ) ;
#154 = SURFACE_STYLE_FILL_AREA ( #183 ) ;
#155 = CLOSED_SHELL ( 'NONE', ( #273, #309, #16, #36 ) ) ;
#156 = SURFACE_STYLE_USAGE ( .BOTH. , #56 ) ;
#157 = PLANE ( 'NONE',  #288 ) ;
#158 = CARTESIAN_POINT ( 'NONE',  ( 1.246337769525090092E-34, 1.625000000000000000, 0.000000000000000000 ) ) ;
#159 = FILL_AREA_STYLE ('',( #105 ) ) ;
#160 = DIMENSIONAL_EXPONENTS ( 1.000000000000000000, 0.000000000000000000, 0.000000000000000000, 0.000000000000000000, 0.000000000000000000, 0.000000000000000000, 0.000000000000000000 ) ;
#161 = ORIENTED_EDGE ( 'NONE', *, *, #121, .T. ) ;
#162 = SURFACE_SIDE_STYLE ('',( #307 ) ) ;
#163 = PRESENTATION_LAYER_ASSIGNMENT (  '', '', ( #304 ) ) ;
#164 = DIRECTION ( 'NONE',  ( 0.000000000000000000, 0.000000000000000000, -1.000000000000000000 ) ) ;
#165 = ORIENTED_EDGE ( 'NONE', *, *, #221, .T. ) ;
#166 = ORIENTED_EDGE ( 'NONE', *, *, #121, .F. ) ;
#167 = CIRCLE ( 'NONE', #44, 0.3750000000000000555 ) ;
#168 = PRODUCT_DEFINITION ( 'UNKNOWN', '', #275, #232 ) ;
#169 = EDGE_CURVE ( 'NONE', #191, #264, #167, .T. ) ;
#170 = PRESENTATION_LAYER_ASSIGNMENT (  '', '', ( #293 ) ) ;
#171 =( CONVERSION_BASED_UNIT ( 'INCH', #65 ) LENGTH_UNIT ( ) NAMED_UNIT ( #153 ) );
#172 = CARTESIAN_POINT ( 'NONE',  ( -6.123233995736766036E-17, 4.000000000000000000, 0.000000000000000000 ) ) ;
#173 = ORIENTED_EDGE ( 'NONE', *, *, #247, .F. ) ;
#174 = DIRECTION ( 'NONE',  ( 0.000000000000000000, 0.000000000000000000, -1.000000000000000000 ) ) ;
#175 = ORIENTED_EDGE ( 'NONE', *, *, #92, .T. ) ;
#176 =( LENGTH_UNIT ( ) NAMED_UNIT ( * ) SI_UNIT ( $, .METRE. ) );
#177 =( CONVERSION_BASED_UNIT ( 'INCH', #70 ) LENGTH_UNIT ( ) NAMED_UNIT ( #130 ) );
#178 = ADVANCED_FACE ( 'NONE', ( #5 ), #28, .T. ) ;
#179 = VERTEX_POINT ( 'NONE', #142 ) ;
#180 = DIRECTION ( 'NONE',  ( 0.000000000000000000, 0.000000000000000000, 1.000000000000000000 ) ) ;
#181 = CARTESIAN_POINT ( 'NONE',  ( 0.000000000000000000, 0.000000000000000000, -0.3750000000000000555 ) ) ;
#182 = FILL_AREA_STYLE_COLOUR ( '', #280 ) ;
#183 = FILL_AREA_STYLE ('',( #75 ) ) ;
#184 = ADVANCED_FACE ( 'NONE', ( #126 ), #123, .T. ) ;
#185 =( CONVERSION_BASED_UNIT ( 'INCH', #104 ) LENGTH_UNIT ( ) NAMED_UNIT ( #272 ) );
#186 = DIRECTION ( 'NONE',  ( -0.000000000000000000, -1.000000000000000000, -0.000000000000000000 ) ) ;
#187 = ORIENTED_EDGE ( 'NONE', *, *, #231, .F. ) ;
#188 = EDGE_CURVE ( 'NONE', #264, #179, #302, .T. ) ;
#189 = AXIS2_PLACEMENT_3D ( 'NONE', #291, #226, #148 ) ;
#190 = UNCERTAINTY_MEASURE_WITH_UNIT (LENGTH_MEASURE( 1.000000000000000082E-05 ), #250, 'distance_accuracy_value', 'NONE');
#191 = VERTEX_POINT ( 'NONE', #201 ) ;
#192 = ORIENTED_EDGE ( 'NONE', *, *, #20, .T. ) ;
#193 = CARTESIAN_POINT ( 'NONE',  ( -0.3750000000000001665, 4.000000000000000000, 0.000000000000000000 ) ) ;
#194 = DIRECTION ( 'NONE',  ( -2.578203787678638882E-17, 1.000000000000000000, -0.000000000000000000 ) ) ;
#195 = MANIFOLD_SOLID_BREP ( 'Revolve - Tool Body (Straight Shanked)', #76 ) ;
#196 = ORIENTED_EDGE ( 'NONE', *, *, #169, .T. ) ;
#197 = SURFACE_STYLE_USAGE ( .BOTH. , #90 ) ;
#198 = CARTESIAN_POINT ( 'NONE',  ( 4.592425496802575451E-17, 0.000000000000000000, 0.3750000000000000555 ) ) ;
#199 = EDGE_CURVE ( 'NONE', #191, #249, #255, .T. ) ;
#200 = AXIS2_PLACEMENT_3D ( 'NONE', #145, #94, #224 ) ;
#201 = CARTESIAN_POINT ( 'NONE',  ( 0.000000000000000000, 1.625000000000000000, -0.3750000000000000555 ) ) ;
#202 = PLANE ( 'NONE',  #18 ) ;
#203 = DIRECTION ( 'NONE',  ( -0.000000000000000000, -1.000000000000000000, -0.000000000000000000 ) ) ;
#204 = PRESENTATION_STYLE_ASSIGNMENT (( #26 ) ) ;
#205 = COLOUR_RGB ( '',1.000000000000000000, 0.000000000000000000, 0.000000000000000000 ) ;
#206 = AXIS2_PLACEMENT_3D ( 'NONE', #285, #108, #265 ) ;
#207 = DIRECTION ( 'NONE',  ( -2.578203787678638882E-17, 1.000000000000000000, -0.000000000000000000 ) ) ;
#208 = SURFACE_SIDE_STYLE ('',( #15 ) ) ;
#209 = FILL_AREA_STYLE ('',( #238 ) ) ;
#210 = CARTESIAN_POINT ( 'NONE',  ( 0.000000000000000000, 0.000000000000000000, 0.000000000000000000 ) ) ;
#211 =( NAMED_UNIT ( * ) PLANE_ANGLE_UNIT ( ) SI_UNIT ( $, .RADIAN. ) );
#212 = CIRCLE ( 'NONE', #62, 0.3750000000000001110 ) ;
#213 = PLANE ( 'NONE',  #245 ) ;
#214 = ADVANCED_BREP_SHAPE_REPRESENTATION ( '26377', ( #74, #195, #281 ), #78 ) ;
#215 = CYLINDRICAL_SURFACE ( 'NONE', #218, 0.3750000000000000555 ) ;
#216 = ORIENTED_EDGE ( 'NONE', *, *, #188, .F. ) ;
#217 = AXIS2_PLACEMENT_3D ( 'NONE', #67, #131, #164 ) ;
#218 = AXIS2_PLACEMENT_3D ( 'NONE', #210, #103, #106 ) ;
#219 = LINE ( 'NONE', #193, #111 ) ;
#220 = ORIENTED_EDGE ( 'NONE', *, *, #47, .T. ) ;
#221 = EDGE_CURVE ( 'NONE', #151, #10, #8, .T. ) ;
#222 = ORIENTED_EDGE ( 'NONE', *, *, #92, .F. ) ;
#223 = AXIS2_PLACEMENT_3D ( 'NONE', #37, #207, #305 ) ;
#224 = DIRECTION ( 'NONE',  ( -1.000000000000000000, 0.000000000000000000, 0.000000000000000000 ) ) ;
#225 = PRODUCT_RELATED_PRODUCT_CATEGORY ( 'part', '', ( #262 ) ) ;
#226 = DIRECTION ( 'NONE',  ( -2.578203787678638882E-17, 1.000000000000000000, -0.000000000000000000 ) ) ;
#227 = SURFACE_STYLE_USAGE ( .BOTH. , #118 ) ;
#228 = UNCERTAINTY_MEASURE_WITH_UNIT (LENGTH_MEASURE( 1.000000000000000082E-05 ), #185, 'distance_accuracy_value', 'NONE');
#229 =( CONVERSION_BASED_UNIT ( 'INCH', #51 ) LENGTH_UNIT ( ) NAMED_UNIT ( #140 ) );
#230 = PRESENTATION_LAYER_ASSIGNMENT (  '', '', ( #266 ) ) ;
#231 = EDGE_CURVE ( 'NONE', #10, #138, #287, .T. ) ;
#232 = PRODUCT_DEFINITION_CONTEXT ( 'detailed design', #258, 'design' ) ;
#233 = DIRECTION ( 'NONE',  ( -2.578203787678638882E-17, 1.000000000000000000, -0.000000000000000000 ) ) ;
#234 = FACE_OUTER_BOUND ( 'NONE', #146, .T. ) ;
#235 =( NAMED_UNIT ( * ) SI_UNIT ( $, .STERADIAN. ) SOLID_ANGLE_UNIT ( ) );
#236 = MECHANICAL_DESIGN_GEOMETRIC_PRESENTATION_REPRESENTATION (  '', ( #43 ), #59 ) ;
#237 =( GEOMETRIC_REPRESENTATION_CONTEXT ( 3 ) GLOBAL_UNCERTAINTY_ASSIGNED_CONTEXT ( ( #25 ) ) GLOBAL_UNIT_ASSIGNED_CONTEXT ( ( #171, #254, #267 ) ) REPRESENTATION_CONTEXT ( 'NONE', 'WORKASPACE' ) );
#238 = FILL_AREA_STYLE_COLOUR ( '', #205 ) ;
#239 = FILL_AREA_STYLE ('',( #182 ) ) ;
#240 = CARTESIAN_POINT ( 'NONE',  ( 0.3750000000000000555, 4.000000000000000000, 4.592425496802576068E-17 ) ) ;
#241 = CIRCLE ( 'NONE', #217, 0.3750000000000000555 ) ;
#242 = FACE_OUTER_BOUND ( 'NONE', #85, .T. ) ;
#243 = CARTESIAN_POINT ( 'NONE',  ( 4.592425496802575451E-17, 1.625000000000000000, 0.3750000000000000555 ) ) ;
#244 = LENGTH_MEASURE_WITH_UNIT ( LENGTH_MEASURE( 0.02539999999999999897 ), #81 );
#245 = AXIS2_PLACEMENT_3D ( 'NONE', #4, #9, #119 ) ;
#246 = EDGE_LOOP ( 'NONE', ( #21, #83 ) ) ;
#247 = EDGE_CURVE ( 'NONE', #144, #138, #122, .T. ) ;
#248 = SURFACE_STYLE_FILL_AREA ( #2 ) ;
#249 = VERTEX_POINT ( 'NONE', #58 ) ;
#250 =( CONVERSION_BASED_UNIT ( 'INCH', #244 ) LENGTH_UNIT ( ) NAMED_UNIT ( #160 ) );
#251 = EDGE_CURVE ( 'NONE', #138, #144, #212, .T. ) ;
#252 = CIRCLE ( 'NONE', #296, 0.3750000000000000555 ) ;
#253 = SURFACE_SIDE_STYLE ('',( #48 ) ) ;
#254 =( NAMED_UNIT ( * ) PLANE_ANGLE_UNIT ( ) SI_UNIT ( $, .RADIAN. ) );
#255 = LINE ( 'NONE', #181, #137 ) ;
#256 = ORIENTED_EDGE ( 'NONE', *, *, #221, .F. ) ;
#257 = PRESENTATION_LAYER_ASSIGNMENT (  '', '', ( #88 ) ) ;
#258 = APPLICATION_CONTEXT ( 'automotive_design' ) ;
#259 = FILL_AREA_STYLE ('',( #100 ) ) ;
#260 = DIRECTION ( 'NONE',  ( -0.000000000000000000, -1.000000000000000000, -0.000000000000000000 ) ) ;
#261 = CARTESIAN_POINT ( 'NONE',  ( 0.3750000000000000555, 1.625000000000000000, 4.592425496802576068E-17 ) ) ;
#262 = PRODUCT ( '26377', '26377', '', ( #306 ) ) ;
#263 =( LENGTH_UNIT ( ) NAMED_UNIT ( * ) SI_UNIT ( $, .METRE. ) );
#264 = VERTEX_POINT ( 'NONE', #243 ) ;
#265 = DIRECTION ( 'NONE',  ( -1.000000000000000000, 0.000000000000000000, 0.000000000000000000 ) ) ;
#266 = STYLED_ITEM ( 'NONE', ( #204 ), #195 ) ;
#267 =( NAMED_UNIT ( * ) SI_UNIT ( $, .STERADIAN. ) SOLID_ANGLE_UNIT ( ) );
#268 = DIRECTION ( 'NONE',  ( -1.000000000000000000, -2.578203787678638882E-17, 0.000000000000000000 ) ) ;
#269 = EDGE_LOOP ( 'NONE', ( #256, #222 ) ) ;
#270 = PRESENTATION_STYLE_ASSIGNMENT (( #127 ) ) ;
#271 = ORIENTED_EDGE ( 'NONE', *, *, #199, .T. ) ;
#272 = DIMENSIONAL_EXPONENTS ( 1.000000000000000000, 0.000000000000000000, 0.000000000000000000, 0.000000000000000000, 0.000000000000000000, 0.000000000000000000, 0.000000000000000000 ) ;
#273 = ADVANCED_FACE ( 'NONE', ( #34 ), #215, .T. ) ;
#274 = VECTOR ( 'NONE', #79, 39.37007874015748143 ) ;
#275 = PRODUCT_DEFINITION_FORMATION_WITH_SPECIFIED_SOURCE ( 'ANY', '', #262, .NOT_KNOWN. ) ;
#276 = PRESENTATION_STYLE_ASSIGNMENT (( #197 ) ) ;
#277 = FACE_OUTER_BOUND ( 'NONE', #246, .T. ) ;
#278 = MECHANICAL_DESIGN_GEOMETRIC_PRESENTATION_REPRESENTATION (  '', ( #88 ), #60 ) ;
#279 = UNCERTAINTY_MEASURE_WITH_UNIT (LENGTH_MEASURE( 1.000000000000000082E-05 ), #229, 'distance_accuracy_value', 'NONE');
#280 = COLOUR_RGB ( '',1.000000000000000000, 0.000000000000000000, 0.000000000000000000 ) ;
#281 = AXIS2_PLACEMENT_3D ( 'NONE', #35, #180, #29 ) ;
#282 = CARTESIAN_POINT ( 'NONE',  ( 0.3750000000000000555, 4.000000000000000000, 0.000000000000000000 ) ) ;
#283 = EDGE_LOOP ( 'NONE', ( #49, #61 ) ) ;
#284 = SHAPE_DEFINITION_REPRESENTATION ( #289, #214 ) ;
#285 = CARTESIAN_POINT ( 'NONE',  ( -6.123233995736766036E-17, 4.000000000000000000, 0.000000000000000000 ) ) ;
#286 = FACE_OUTER_BOUND ( 'NONE', #269, .T. ) ;
#287 = LINE ( 'NONE', #240, #274 ) ;
#288 = AXIS2_PLACEMENT_3D ( 'NONE', #110, #139, #41 ) ;
#289 = PRODUCT_DEFINITION_SHAPE ( 'NONE', 'NONE',  #168 ) ;
#290 = FILL_AREA_STYLE_COLOUR ( '', #129 ) ;
#291 = CARTESIAN_POINT ( 'NONE',  ( 1.516480271171051896E-32, 1.625000000000000000, 0.000000000000000000 ) ) ;
#292 = PRESENTATION_LAYER_ASSIGNMENT (  '', '', ( #43 ) ) ;
#293 = STYLED_ITEM ( 'NONE', ( #276 ), #74 ) ;
#294 = ORIENTED_EDGE ( 'NONE', *, *, #64, .F. ) ;
#295 = LENGTH_MEASURE_WITH_UNIT ( LENGTH_MEASURE( 0.02539999999999999897 ), #27 );
#296 = AXIS2_PLACEMENT_3D ( 'NONE', #19, #114, #112 ) ;
#297 =( NAMED_UNIT ( * ) SI_UNIT ( $, .STERADIAN. ) SOLID_ANGLE_UNIT ( ) );
#298 = ADVANCED_FACE ( 'NONE', ( #286 ), #57, .F. ) ;
#299 =( NAMED_UNIT ( * ) SI_UNIT ( $, .STERADIAN. ) SOLID_ANGLE_UNIT ( ) );
#300 =( NAMED_UNIT ( * ) PLANE_ANGLE_UNIT ( ) SI_UNIT ( $, .RADIAN. ) );
#301 = CARTESIAN_POINT ( 'NONE',  ( 0.000000000000000000, 0.000000000000000000, 0.000000000000000000 ) ) ;
#302 = LINE ( 'NONE', #198, #89 ) ;
#303 = EDGE_LOOP ( 'NONE', ( #165, #98, #173, #294 ) ) ;
#304 = STYLED_ITEM ( 'NONE', ( #80 ), #309 ) ;
#305 = DIRECTION ( 'NONE',  ( -1.000000000000000000, 0.000000000000000000, 0.000000000000000000 ) ) ;
#306 = PRODUCT_CONTEXT ( 'NONE', #147, 'mechanical' ) ;
#307 = SURFACE_STYLE_FILL_AREA ( #239 ) ;
#308 = MECHANICAL_DESIGN_GEOMETRIC_PRESENTATION_REPRESENTATION (  '', ( #293 ), #68 ) ;
#309 = ADVANCED_FACE ( 'NONE', ( #38 ), #213, .T. ) ;
ENDSEC;
END-ISO-10303-21;
