ISO-10303-21;
HEADER;
FILE_DESCRIPTION (( 'STEP AP214' ),
    '1' );
FILE_NAME ('03587.STEP',
    '2023-06-22T15:30:30',
    ( '' ),
    ( '' ),
    'SwSTEP 2.0',
    'SolidWorks 2023',
    '' );
FILE_SCHEMA (( 'AUTOMOTIVE_DESIGN' ));
ENDSEC;

DATA;
#1 = VECTOR ( 'NONE', #271, 39.37007874015748143 ) ;
#2 = EDGE_LOOP ( 'NONE', ( #153, #268 ) ) ;
#3 = MECHANICAL_DESIGN_GEOMETRIC_PRESENTATION_REPRESENTATION (  '', ( #29 ), #204 ) ;
#4 = LINE ( 'NONE', #296, #1 ) ;
#5 = CIRCLE ( 'NONE', #211, 0.3125000000000000555 ) ;
#6 =( NAMED_UNIT ( * ) SI_UNIT ( $, .STERADIAN. ) SOLID_ANGLE_UNIT ( ) );
#7 = CYLINDRICAL_SURFACE ( 'NONE', #192, 0.3125000000000000000 ) ;
#8 = ORIENTED_EDGE ( 'NONE', *, *, #134, .T. ) ;
#9 = ADVANCED_FACE ( 'NONE', ( #292 ), #7, .T. ) ;
#10 = PRESENTATION_LAYER_ASSIGNMENT (  '', '', ( #69 ) ) ;
#11 = LINE ( 'NONE', #169, #30 ) ;
#12 = DIRECTION ( 'NONE',  ( -0.000000000000000000, -1.000000000000000000, -0.000000000000000000 ) ) ;
#13 = LENGTH_MEASURE_WITH_UNIT ( LENGTH_MEASURE( 0.02539999999999999897 ), #65 );
#14 = CYLINDRICAL_SURFACE ( 'NONE', #257, 0.3125000000000000000 ) ;
#15 = CARTESIAN_POINT ( 'NONE',  ( 0.000000000000000000, 0.000000000000000000, 0.000000000000000000 ) ) ;
#16 = DIRECTION ( 'NONE',  ( 0.000000000000000000, 0.000000000000000000, 1.000000000000000000 ) ) ;
#17 = UNCERTAINTY_MEASURE_WITH_UNIT (LENGTH_MEASURE( 1.000000000000000082E-05 ), #28, 'distance_accuracy_value', 'NONE');
#18 = CARTESIAN_POINT ( 'NONE',  ( 0.000000000000000000, 0.000000000000000000, 0.000000000000000000 ) ) ;
#19 = CIRCLE ( 'NONE', #110, 0.3125000000000000555 ) ;
#20 = DIRECTION ( 'NONE',  ( -1.000000000000000000, 0.000000000000000000, 0.000000000000000000 ) ) ;
#21 = CARTESIAN_POINT ( 'NONE',  ( 0.000000000000000000, 0.000000000000000000, 0.000000000000000000 ) ) ;
#22 = ORIENTED_EDGE ( 'NONE', *, *, #294, .T. ) ;
#23 = PRODUCT_DEFINITION_CONTEXT ( 'detailed design', #189, 'design' ) ;
#24 = PRODUCT ( '03587', '03587', '', ( #190 ) ) ;
#25 = VERTEX_POINT ( 'NONE', #84 ) ;
#26 = PRESENTATION_LAYER_ASSIGNMENT (  '', '', ( #127 ) ) ;
#27 = ORIENTED_EDGE ( 'NONE', *, *, #33, .F. ) ;
#28 =( CONVERSION_BASED_UNIT ( 'INCH', #77 ) LENGTH_UNIT ( ) NAMED_UNIT ( #136 ) );
#29 = STYLED_ITEM ( 'NONE', ( #138 ), #47 ) ;
#30 = VECTOR ( 'NONE', #48, 39.37007874015748143 ) ;
#31 = CARTESIAN_POINT ( 'NONE',  ( 0.000000000000000000, 0.000000000000000000, 0.000000000000000000 ) ) ;
#32 = PRESENTATION_STYLE_ASSIGNMENT (( #82 ) ) ;
#33 = EDGE_CURVE ( 'NONE', #25, #289, #4, .T. ) ;
#34 = DIRECTION ( 'NONE',  ( -3.265724797726275178E-17, 1.000000000000000000, -0.000000000000000000 ) ) ;
#35 = ORIENTED_EDGE ( 'NONE', *, *, #93, .F. ) ;
#36 = AXIS2_PLACEMENT_3D ( 'NONE', #155, #131, #55 ) ;
#37 = PRODUCT_DEFINITION_FORMATION_WITH_SPECIFIED_SOURCE ( 'ANY', '', #24, .NOT_KNOWN. ) ;
#38 = DIRECTION ( 'NONE',  ( 0.000000000000000000, 1.000000000000000000, 0.000000000000000000 ) ) ;
#39 = FILL_AREA_STYLE ('',( #255 ) ) ;
#40 = SURFACE_STYLE_USAGE ( .BOTH. , #304 ) ;
#41 = LINE ( 'NONE', #113, #210 ) ;
#42 = CARTESIAN_POINT ( 'NONE',  ( 0.000000000000000000, 2.125000000000000000, 0.000000000000000000 ) ) ;
#43 = PRESENTATION_LAYER_ASSIGNMENT (  '', '', ( #89 ) ) ;
#44 = CYLINDRICAL_SURFACE ( 'NONE', #194, 0.3125000000000000000 ) ;
#45 = PRODUCT_DEFINITION_SHAPE ( 'NONE', 'NONE',  #187 ) ;
#46 =( CONVERSION_BASED_UNIT ( 'INCH', #13 ) LENGTH_UNIT ( ) NAMED_UNIT ( #162 ) );
#47 = ADVANCED_FACE ( 'NONE', ( #267 ), #61, .T. ) ;
#48 = DIRECTION ( 'NONE',  ( -3.265724797726275178E-17, 1.000000000000000000, -0.000000000000000000 ) ) ;
#49 = PLANE ( 'NONE',  #149 ) ;
#50 = AXIS2_PLACEMENT_3D ( 'NONE', #99, #284, #75 ) ;
#51 = LINE ( 'NONE', #95, #280 ) ;
#52 = MANIFOLD_SOLID_BREP ( 'Revolve - Tool Body (Straight Shanked)', #264 ) ;
#53 = SURFACE_STYLE_USAGE ( .BOTH. , #151 ) ;
#54 = AXIS2_PLACEMENT_3D ( 'NONE', #18, #16, #116 ) ;
#55 = DIRECTION ( 'NONE',  ( 0.000000000000000000, 0.000000000000000000, -1.000000000000000000 ) ) ;
#56 =( NAMED_UNIT ( * ) PLANE_ANGLE_UNIT ( ) SI_UNIT ( $, .RADIAN. ) );
#57 = ORIENTED_EDGE ( 'NONE', *, *, #185, .F. ) ;
#58 = DIRECTION ( 'NONE',  ( -1.000000000000000000, 0.000000000000000000, 0.000000000000000000 ) ) ;
#59 = SURFACE_STYLE_FILL_AREA ( #133 ) ;
#60 = DIRECTION ( 'NONE',  ( -3.265724797726275178E-17, 1.000000000000000000, -0.000000000000000000 ) ) ;
#61 = CYLINDRICAL_SURFACE ( 'NONE', #36, 0.3125000000000000000 ) ;
#62 = MECHANICAL_DESIGN_GEOMETRIC_PRESENTATION_REPRESENTATION (  '', ( #69 ), #193 ) ;
#63 = CARTESIAN_POINT ( 'NONE',  ( -6.123233995736766036E-17, 4.000000000000000000, 0.000000000000000000 ) ) ;
#64 = PLANE ( 'NONE',  #198 ) ;
#65 =( LENGTH_UNIT ( ) NAMED_UNIT ( * ) SI_UNIT ( $, .METRE. ) );
#66 =( LENGTH_UNIT ( ) NAMED_UNIT ( * ) SI_UNIT ( $, .METRE. ) );
#67 = SURFACE_STYLE_FILL_AREA ( #298 ) ;
#68 = DIRECTION ( 'NONE',  ( -0.000000000000000000, -1.000000000000000000, -0.000000000000000000 ) ) ;
#69 = STYLED_ITEM ( 'NONE', ( #258 ), #150 ) ;
#70 = EDGE_CURVE ( 'NONE', #105, #244, #83, .T. ) ;
#71 = PRESENTATION_STYLE_ASSIGNMENT (( #278 ) ) ;
#72 = DIRECTION ( 'NONE',  ( 0.000000000000000000, 0.000000000000000000, -1.000000000000000000 ) ) ;
#73 = EDGE_LOOP ( 'NONE', ( #285, #102, #171, #57 ) ) ;
#74 = AXIS2_PLACEMENT_3D ( 'NONE', #109, #108, #297 ) ;
#75 = DIRECTION ( 'NONE',  ( 0.000000000000000000, 0.000000000000000000, -1.000000000000000000 ) ) ;
#76 = ORIENTED_EDGE ( 'NONE', *, *, #93, .T. ) ;
#77 = LENGTH_MEASURE_WITH_UNIT ( LENGTH_MEASURE( 0.02539999999999999897 ), #276 );
#78 = EDGE_LOOP ( 'NONE', ( #228, #201, #125, #195 ) ) ;
#79 = EDGE_CURVE ( 'NONE', #244, #105, #111, .T. ) ;
#80 = COLOUR_RGB ( '',1.000000000000000000, 0.000000000000000000, 0.000000000000000000 ) ;
#81 = ORIENTED_EDGE ( 'NONE', *, *, #70, .T. ) ;
#82 = SURFACE_STYLE_USAGE ( .BOTH. , #291 ) ;
#83 = CIRCLE ( 'NONE', #234, 0.3125000000000000000 ) ;
#84 = CARTESIAN_POINT ( 'NONE',  ( 0.000000000000000000, 2.125000000000000000, -0.3125000000000000000 ) ) ;
#85 = DIMENSIONAL_EXPONENTS ( 1.000000000000000000, 0.000000000000000000, 0.000000000000000000, 0.000000000000000000, 0.000000000000000000, 0.000000000000000000, 0.000000000000000000 ) ;
#86 = DIRECTION ( 'NONE',  ( -3.265724797726275178E-17, 1.000000000000000000, -0.000000000000000000 ) ) ;
#87 = DIRECTION ( 'NONE',  ( 0.000000000000000000, 0.000000000000000000, -1.000000000000000000 ) ) ;
#88 = DIRECTION ( 'NONE',  ( 0.000000000000000000, 0.000000000000000000, -1.000000000000000000 ) ) ;
#89 = STYLED_ITEM ( 'NONE', ( #243 ), #147 ) ;
#90 = SURFACE_STYLE_FILL_AREA ( #163 ) ;
#91 = SURFACE_STYLE_FILL_AREA ( #308 ) ;
#92 = CARTESIAN_POINT ( 'NONE',  ( -6.123233995736766036E-17, 4.000000000000000000, 0.000000000000000000 ) ) ;
#93 = EDGE_CURVE ( 'NONE', #289, #216, #104, .T. ) ;
#94 = FILL_AREA_STYLE ('',( #119 ) ) ;
#95 = CARTESIAN_POINT ( 'NONE',  ( 3.827021247335478926E-17, 0.000000000000000000, 0.3125000000000000000 ) ) ;
#96 =( NAMED_UNIT ( * ) SI_UNIT ( $, .STERADIAN. ) SOLID_ANGLE_UNIT ( ) );
#97 = COLOUR_RGB ( '',0.7921568627450980005, 0.8196078431372548767, 0.9333333333333333481 ) ;
#98 = ORIENTED_EDGE ( 'NONE', *, *, #294, .F. ) ;
#99 = CARTESIAN_POINT ( 'NONE',  ( 0.000000000000000000, 0.000000000000000000, 0.000000000000000000 ) ) ;
#100 = MECHANICAL_DESIGN_GEOMETRIC_PRESENTATION_REPRESENTATION (  '', ( #182 ), #287 ) ;
#101 =( NAMED_UNIT ( * ) SI_UNIT ( $, .STERADIAN. ) SOLID_ANGLE_UNIT ( ) );
#102 = ORIENTED_EDGE ( 'NONE', *, *, #286, .T. ) ;
#103 = EDGE_CURVE ( 'NONE', #172, #216, #51, .T. ) ;
#104 = CIRCLE ( 'NONE', #50, 0.3125000000000000000 ) ;
#105 = VERTEX_POINT ( 'NONE', #237 ) ;
#106 =( LENGTH_UNIT ( ) NAMED_UNIT ( * ) SI_UNIT ( $, .METRE. ) );
#107 = EDGE_LOOP ( 'NONE', ( #76, #221 ) ) ;
#108 = DIRECTION ( 'NONE',  ( -0.000000000000000000, -1.000000000000000000, -0.000000000000000000 ) ) ;
#109 = CARTESIAN_POINT ( 'NONE',  ( 0.000000000000000000, 2.125000000000000000, 0.000000000000000000 ) ) ;
#110 = AXIS2_PLACEMENT_3D ( 'NONE', #92, #60, #58 ) ;
#111 = CIRCLE ( 'NONE', #126, 0.3125000000000000000 ) ;
#112 = PRESENTATION_LAYER_ASSIGNMENT (  '', '', ( #242 ) ) ;
#113 = CARTESIAN_POINT ( 'NONE',  ( -0.3125000000000000555, 4.000000000000000000, 0.000000000000000000 ) ) ;
#114 = PLANE ( 'NONE',  #140 ) ;
#115 =( NAMED_UNIT ( * ) PLANE_ANGLE_UNIT ( ) SI_UNIT ( $, .RADIAN. ) );
#116 = DIRECTION ( 'NONE',  ( 1.000000000000000000, 0.000000000000000000, 0.000000000000000000 ) ) ;
#117 =( NAMED_UNIT ( * ) PLANE_ANGLE_UNIT ( ) SI_UNIT ( $, .RADIAN. ) );
#118 = PRESENTATION_LAYER_ASSIGNMENT (  '', '', ( #29 ) ) ;
#119 = FILL_AREA_STYLE_COLOUR ( '', #183 ) ;
#120 = AXIS2_PLACEMENT_3D ( 'NONE', #275, #12, #88 ) ;
#121 = CIRCLE ( 'NONE', #74, 0.3125000000000000000 ) ;
#122 = CARTESIAN_POINT ( 'NONE',  ( 0.3125000000000000000, 4.000000000000000000, 0.000000000000000000 ) ) ;
#123 = CARTESIAN_POINT ( 'NONE',  ( 0.000000000000000000, 2.125000000000000000, 0.000000000000000000 ) ) ;
#124 = DIRECTION ( 'NONE',  ( -1.000000000000000000, 0.000000000000000000, 0.000000000000000000 ) ) ;
#125 = ORIENTED_EDGE ( 'NONE', *, *, #306, .F. ) ;
#126 = AXIS2_PLACEMENT_3D ( 'NONE', #123, #214, #124 ) ;
#127 = STYLED_ITEM ( 'NONE', ( #71 ), #178 ) ;
#128 = ADVANCED_FACE ( 'NONE', ( #145 ), #49, .F. ) ;
#129 =( CONVERSION_BASED_UNIT ( 'INCH', #219 ) LENGTH_UNIT ( ) NAMED_UNIT ( #85 ) );
#130 =( NAMED_UNIT ( * ) PLANE_ANGLE_UNIT ( ) SI_UNIT ( $, .RADIAN. ) );
#131 = DIRECTION ( 'NONE',  ( -0.000000000000000000, -1.000000000000000000, -0.000000000000000000 ) ) ;
#132 = PLANE ( 'NONE',  #274 ) ;
#133 = FILL_AREA_STYLE ('',( #177 ) ) ;
#134 = EDGE_CURVE ( 'NONE', #244, #191, #41, .T. ) ;
#135 =( GEOMETRIC_REPRESENTATION_CONTEXT ( 3 ) GLOBAL_UNCERTAINTY_ASSIGNED_CONTEXT ( ( #17 ) ) GLOBAL_UNIT_ASSIGNED_CONTEXT ( ( #28, #56, #300 ) ) REPRESENTATION_CONTEXT ( 'NONE', 'WORKASPACE' ) );
#136 = DIMENSIONAL_EXPONENTS ( 1.000000000000000000, 0.000000000000000000, 0.000000000000000000, 0.000000000000000000, 0.000000000000000000, 0.000000000000000000, 0.000000000000000000 ) ;
#137 = PRODUCT_RELATED_PRODUCT_CATEGORY ( 'part', '', ( #24 ) ) ;
#138 = PRESENTATION_STYLE_ASSIGNMENT (( #251 ) ) ;
#139 = PRESENTATION_STYLE_ASSIGNMENT (( #40 ) ) ;
#140 = AXIS2_PLACEMENT_3D ( 'NONE', #21, #232, #72 ) ;
#141 = CARTESIAN_POINT ( 'NONE',  ( 1.666399758513175262E-34, 2.125000000000000000, 0.000000000000000000 ) ) ;
#142 =( CONVERSION_BASED_UNIT ( 'INCH', #262 ) LENGTH_UNIT ( ) NAMED_UNIT ( #270 ) );
#143 =( CONVERSION_BASED_UNIT ( 'INCH', #205 ) LENGTH_UNIT ( ) NAMED_UNIT ( #154 ) );
#144 = DIRECTION ( 'NONE',  ( -1.000000000000000000, 0.000000000000000000, 0.000000000000000000 ) ) ;
#145 = FACE_OUTER_BOUND ( 'NONE', #152, .T. ) ;
#146 =( NAMED_UNIT ( * ) SI_UNIT ( $, .STERADIAN. ) SOLID_ANGLE_UNIT ( ) );
#147 = ADVANCED_FACE ( 'NONE', ( #301 ), #44, .T. ) ;
#148 =( LENGTH_UNIT ( ) NAMED_UNIT ( * ) SI_UNIT ( $, .METRE. ) );
#149 = AXIS2_PLACEMENT_3D ( 'NONE', #122, #213, #307 ) ;
#150 = MANIFOLD_SOLID_BREP ( 'Revolve - Cutting Edge', #253 ) ;
#151 = SURFACE_SIDE_STYLE ('',( #67 ) ) ;
#152 = EDGE_LOOP ( 'NONE', ( #197, #22 ) ) ;
#153 = ORIENTED_EDGE ( 'NONE', *, *, #158, .F. ) ;
#154 = DIMENSIONAL_EXPONENTS ( 1.000000000000000000, 0.000000000000000000, 0.000000000000000000, 0.000000000000000000, 0.000000000000000000, 0.000000000000000000, 0.000000000000000000 ) ;
#155 = CARTESIAN_POINT ( 'NONE',  ( 0.000000000000000000, 0.000000000000000000, 0.000000000000000000 ) ) ;
#156 = CARTESIAN_POINT ( 'NONE',  ( -6.123233995736766036E-17, 4.000000000000000000, 0.000000000000000000 ) ) ;
#157 = DIRECTION ( 'NONE',  ( -1.000000000000000000, 0.000000000000000000, 0.000000000000000000 ) ) ;
#158 = EDGE_CURVE ( 'NONE', #25, #172, #121, .T. ) ;
#159 =( CONVERSION_BASED_UNIT ( 'INCH', #250 ) LENGTH_UNIT ( ) NAMED_UNIT ( #225 ) );
#160 = CIRCLE ( 'NONE', #265, 0.3125000000000000000 ) ;
#161 = DIRECTION ( 'NONE',  ( -1.000000000000000000, 0.000000000000000000, 0.000000000000000000 ) ) ;
#162 = DIMENSIONAL_EXPONENTS ( 1.000000000000000000, 0.000000000000000000, 0.000000000000000000, 0.000000000000000000, 0.000000000000000000, 0.000000000000000000, 0.000000000000000000 ) ;
#163 = FILL_AREA_STYLE ('',( #236 ) ) ;
#164 = CARTESIAN_POINT ( 'NONE',  ( 3.827021247335478926E-17, 0.000000000000000000, 0.3125000000000000000 ) ) ;
#165 = MECHANICAL_DESIGN_GEOMETRIC_PRESENTATION_REPRESENTATION (  '', ( #242 ), #135 ) ;
#166 = FACE_OUTER_BOUND ( 'NONE', #2, .T. ) ;
#167 = DIRECTION ( 'NONE',  ( -1.000000000000000000, -3.265724797726275178E-17, 0.000000000000000000 ) ) ;
#168 = ADVANCED_FACE ( 'NONE', ( #175 ), #132, .F. ) ;
#169 = CARTESIAN_POINT ( 'NONE',  ( 0.3124999999999999445, 4.000000000000000000, 3.827021247335478926E-17 ) ) ;
#170 = EDGE_LOOP ( 'NONE', ( #240, #81, #8, #98 ) ) ;
#171 = ORIENTED_EDGE ( 'NONE', *, *, #33, .T. ) ;
#172 = VERTEX_POINT ( 'NONE', #208 ) ;
#173 = UNCERTAINTY_MEASURE_WITH_UNIT (LENGTH_MEASURE( 1.000000000000000082E-05 ), #143, 'distance_accuracy_value', 'NONE');
#174 = EDGE_LOOP ( 'NONE', ( #239, #227 ) ) ;
#175 = FACE_OUTER_BOUND ( 'NONE', #174, .T. ) ;
#176 = DIRECTION ( 'NONE',  ( -0.000000000000000000, -1.000000000000000000, -0.000000000000000000 ) ) ;
#177 = FILL_AREA_STYLE_COLOUR ( '', #80 ) ;
#178 = ADVANCED_FACE ( 'NONE', ( #188 ), #114, .T. ) ;
#179 = ORIENTED_EDGE ( 'NONE', *, *, #103, .T. ) ;
#180 = EDGE_LOOP ( 'NONE', ( #199, #179, #35, #27 ) ) ;
#181 = DIRECTION ( 'NONE',  ( 0.000000000000000000, -0.000000000000000000, 1.000000000000000000 ) ) ;
#182 = STYLED_ITEM ( 'NONE', ( #32 ), #52 ) ;
#183 = COLOUR_RGB ( '',1.000000000000000000, 0.000000000000000000, 0.000000000000000000 ) ;
#184 = SURFACE_SIDE_STYLE ('',( #212 ) ) ;
#185 = EDGE_CURVE ( 'NONE', #216, #289, #160, .T. ) ;
#186 = FILL_AREA_STYLE_COLOUR ( '', #97 ) ;
#187 = PRODUCT_DEFINITION ( 'UNKNOWN', '', #37, #23 ) ;
#188 = FACE_OUTER_BOUND ( 'NONE', #107, .T. ) ;
#189 = APPLICATION_CONTEXT ( 'automotive_design' ) ;
#190 = PRODUCT_CONTEXT ( 'NONE', #249, 'mechanical' ) ;
#191 = VERTEX_POINT ( 'NONE', #283 ) ;
#192 = AXIS2_PLACEMENT_3D ( 'NONE', #247, #34, #157 ) ;
#193 =( GEOMETRIC_REPRESENTATION_CONTEXT ( 3 ) GLOBAL_UNCERTAINTY_ASSIGNED_CONTEXT ( ( #263 ) ) GLOBAL_UNIT_ASSIGNED_CONTEXT ( ( #142, #115, #279 ) ) REPRESENTATION_CONTEXT ( 'NONE', 'WORKASPACE' ) );
#194 = AXIS2_PLACEMENT_3D ( 'NONE', #31, #176, #87 ) ;
#195 = ORIENTED_EDGE ( 'NONE', *, *, #134, .F. ) ;
#196 = SURFACE_STYLE_FILL_AREA ( #39 ) ;
#197 = ORIENTED_EDGE ( 'NONE', *, *, #306, .T. ) ;
#198 = AXIS2_PLACEMENT_3D ( 'NONE', #42, #38, #181 ) ;
#199 = ORIENTED_EDGE ( 'NONE', *, *, #158, .T. ) ;
#200 = LENGTH_MEASURE_WITH_UNIT ( LENGTH_MEASURE( 0.02539999999999999897 ), #203 );
#201 = ORIENTED_EDGE ( 'NONE', *, *, #222, .T. ) ;
#202 = ADVANCED_BREP_SHAPE_REPRESENTATION ( '03587', ( #150, #52, #54 ), #305 ) ;
#203 =( LENGTH_UNIT ( ) NAMED_UNIT ( * ) SI_UNIT ( $, .METRE. ) );
#204 =( GEOMETRIC_REPRESENTATION_CONTEXT ( 3 ) GLOBAL_UNCERTAINTY_ASSIGNED_CONTEXT ( ( #248 ) ) GLOBAL_UNIT_ASSIGNED_CONTEXT ( ( #159, #229, #6 ) ) REPRESENTATION_CONTEXT ( 'NONE', 'WORKASPACE' ) );
#205 = LENGTH_MEASURE_WITH_UNIT ( LENGTH_MEASURE( 0.02539999999999999897 ), #281 );
#206 = DIRECTION ( 'NONE',  ( -3.265724797726275178E-17, 1.000000000000000000, -0.000000000000000000 ) ) ;
#207 = DIRECTION ( 'NONE',  ( 0.000000000000000000, 0.000000000000000000, -1.000000000000000000 ) ) ;
#208 = CARTESIAN_POINT ( 'NONE',  ( 3.827021247335478926E-17, 2.125000000000000000, 0.3125000000000000000 ) ) ;
#209 = APPLICATION_PROTOCOL_DEFINITION ( 'draft international standard', 'automotive_design', 1998, #249 ) ;
#210 = VECTOR ( 'NONE', #206, 39.37007874015748143 ) ;
#211 = AXIS2_PLACEMENT_3D ( 'NONE', #156, #86, #161 ) ;
#212 = SURFACE_STYLE_FILL_AREA ( #94 ) ;
#213 = DIRECTION ( 'NONE',  ( 3.265724797726275178E-17, -1.000000000000000000, 0.000000000000000000 ) ) ;
#214 = DIRECTION ( 'NONE',  ( -3.265724797726275178E-17, 1.000000000000000000, -0.000000000000000000 ) ) ;
#215 = SURFACE_SIDE_STYLE ('',( #91 ) ) ;
#216 = VERTEX_POINT ( 'NONE', #164 ) ;
#217 = APPLICATION_PROTOCOL_DEFINITION ( 'draft international standard', 'automotive_design', 1998, #189 ) ;
#218 = COLOUR_RGB ( '',1.000000000000000000, 0.000000000000000000, 0.000000000000000000 ) ;
#219 = LENGTH_MEASURE_WITH_UNIT ( LENGTH_MEASURE( 0.02539999999999999897 ), #148 );
#220 =( NAMED_UNIT ( * ) PLANE_ANGLE_UNIT ( ) SI_UNIT ( $, .RADIAN. ) );
#221 = ORIENTED_EDGE ( 'NONE', *, *, #185, .T. ) ;
#222 = EDGE_CURVE ( 'NONE', #105, #226, #11, .T. ) ;
#223 = COLOUR_RGB ( '',1.000000000000000000, 0.000000000000000000, 0.000000000000000000 ) ;
#224 = MECHANICAL_DESIGN_GEOMETRIC_PRESENTATION_REPRESENTATION (  '', ( #127 ), #269 ) ;
#225 = DIMENSIONAL_EXPONENTS ( 1.000000000000000000, 0.000000000000000000, 0.000000000000000000, 0.000000000000000000, 0.000000000000000000, 0.000000000000000000, 0.000000000000000000 ) ;
#226 = VERTEX_POINT ( 'NONE', #260 ) ;
#227 = ORIENTED_EDGE ( 'NONE', *, *, #70, .F. ) ;
#228 = ORIENTED_EDGE ( 'NONE', *, *, #79, .T. ) ;
#229 =( NAMED_UNIT ( * ) PLANE_ANGLE_UNIT ( ) SI_UNIT ( $, .RADIAN. ) );
#230 = DIRECTION ( 'NONE',  ( -3.265724797726275178E-17, 1.000000000000000000, 0.000000000000000000 ) ) ;
#231 =( GEOMETRIC_REPRESENTATION_CONTEXT ( 3 ) GLOBAL_UNCERTAINTY_ASSIGNED_CONTEXT ( ( #290 ) ) GLOBAL_UNIT_ASSIGNED_CONTEXT ( ( #129, #130, #266 ) ) REPRESENTATION_CONTEXT ( 'NONE', 'WORKASPACE' ) );
#232 = DIRECTION ( 'NONE',  ( 0.000000000000000000, -1.000000000000000000, -0.000000000000000000 ) ) ;
#233 = FACE_OUTER_BOUND ( 'NONE', #170, .T. ) ;
#234 = AXIS2_PLACEMENT_3D ( 'NONE', #273, #309, #20 ) ;
#235 = UNCERTAINTY_MEASURE_WITH_UNIT (LENGTH_MEASURE( 1.000000000000000082E-05 ), #295, 'distance_accuracy_value', 'NONE');
#236 = FILL_AREA_STYLE_COLOUR ( '', #218 ) ;
#237 = CARTESIAN_POINT ( 'NONE',  ( 0.3125000000000000000, 2.125000000000000000, 3.827021247335478926E-17 ) ) ;
#238 = SHAPE_DEFINITION_REPRESENTATION ( #45, #202 ) ;
#239 = ORIENTED_EDGE ( 'NONE', *, *, #79, .F. ) ;
#240 = ORIENTED_EDGE ( 'NONE', *, *, #222, .F. ) ;
#241 = PRESENTATION_LAYER_ASSIGNMENT (  '', '', ( #182 ) ) ;
#242 = STYLED_ITEM ( 'NONE', ( #139 ), #272 ) ;
#243 = PRESENTATION_STYLE_ASSIGNMENT (( #53 ) ) ;
#244 = VERTEX_POINT ( 'NONE', #299 ) ;
#245 = ADVANCED_FACE ( 'NONE', ( #233 ), #14, .T. ) ;
#246 = DIMENSIONAL_EXPONENTS ( 1.000000000000000000, 0.000000000000000000, 0.000000000000000000, 0.000000000000000000, 0.000000000000000000, 0.000000000000000000, 0.000000000000000000 ) ;
#247 = CARTESIAN_POINT ( 'NONE',  ( -6.123233995736766036E-17, 4.000000000000000000, 0.000000000000000000 ) ) ;
#248 = UNCERTAINTY_MEASURE_WITH_UNIT (LENGTH_MEASURE( 1.000000000000000082E-05 ), #159, 'distance_accuracy_value', 'NONE');
#249 = APPLICATION_CONTEXT ( 'automotive_design' ) ;
#250 = LENGTH_MEASURE_WITH_UNIT ( LENGTH_MEASURE( 0.02539999999999999897 ), #106 );
#251 = SURFACE_STYLE_USAGE ( .BOTH. , #252 ) ;
#252 = SURFACE_SIDE_STYLE ('',( #59 ) ) ;
#253 = CLOSED_SHELL ( 'NONE', ( #47, #272, #147, #178 ) ) ;
#254 = MECHANICAL_DESIGN_GEOMETRIC_PRESENTATION_REPRESENTATION (  '', ( #89 ), #231 ) ;
#255 = FILL_AREA_STYLE_COLOUR ( '', #256 ) ;
#256 = COLOUR_RGB ( '',0.7921568627450980005, 0.8196078431372548767, 0.9333333333333333481 ) ;
#257 = AXIS2_PLACEMENT_3D ( 'NONE', #63, #303, #144 ) ;
#258 = PRESENTATION_STYLE_ASSIGNMENT (( #282 ) ) ;
#259 =( NAMED_UNIT ( * ) PLANE_ANGLE_UNIT ( ) SI_UNIT ( $, .RADIAN. ) );
#260 = CARTESIAN_POINT ( 'NONE',  ( 0.3125000000000000000, 4.000000000000000000, 3.827021247335478926E-17 ) ) ;
#261 = DIRECTION ( 'NONE',  ( -0.000000000000000000, -1.000000000000000000, -0.000000000000000000 ) ) ;
#262 = LENGTH_MEASURE_WITH_UNIT ( LENGTH_MEASURE( 0.02539999999999999897 ), #66 );
#263 = UNCERTAINTY_MEASURE_WITH_UNIT (LENGTH_MEASURE( 1.000000000000000082E-05 ), #142, 'distance_accuracy_value', 'NONE');
#264 = CLOSED_SHELL ( 'NONE', ( #9, #168, #245, #128 ) ) ;
#265 = AXIS2_PLACEMENT_3D ( 'NONE', #15, #68, #207 ) ;
#266 =( NAMED_UNIT ( * ) SI_UNIT ( $, .STERADIAN. ) SOLID_ANGLE_UNIT ( ) );
#267 = FACE_OUTER_BOUND ( 'NONE', #180, .T. ) ;
#268 = ORIENTED_EDGE ( 'NONE', *, *, #286, .F. ) ;
#269 =( GEOMETRIC_REPRESENTATION_CONTEXT ( 3 ) GLOBAL_UNCERTAINTY_ASSIGNED_CONTEXT ( ( #173 ) ) GLOBAL_UNIT_ASSIGNED_CONTEXT ( ( #143, #117, #96 ) ) REPRESENTATION_CONTEXT ( 'NONE', 'WORKASPACE' ) );
#270 = DIMENSIONAL_EXPONENTS ( 1.000000000000000000, 0.000000000000000000, 0.000000000000000000, 0.000000000000000000, 0.000000000000000000, 0.000000000000000000, 0.000000000000000000 ) ;
#271 = DIRECTION ( 'NONE',  ( -0.000000000000000000, -1.000000000000000000, -0.000000000000000000 ) ) ;
#272 = ADVANCED_FACE ( 'NONE', ( #166 ), #64, .T. ) ;
#273 = CARTESIAN_POINT ( 'NONE',  ( 0.000000000000000000, 2.125000000000000000, 0.000000000000000000 ) ) ;
#274 = AXIS2_PLACEMENT_3D ( 'NONE', #141, #230, #167 ) ;
#275 = CARTESIAN_POINT ( 'NONE',  ( 0.000000000000000000, 2.125000000000000000, 0.000000000000000000 ) ) ;
#276 =( LENGTH_UNIT ( ) NAMED_UNIT ( * ) SI_UNIT ( $, .METRE. ) );
#277 = FILL_AREA_STYLE_COLOUR ( '', #223 ) ;
#278 = SURFACE_STYLE_USAGE ( .BOTH. , #184 ) ;
#279 =( NAMED_UNIT ( * ) SI_UNIT ( $, .STERADIAN. ) SOLID_ANGLE_UNIT ( ) );
#280 = VECTOR ( 'NONE', #261, 39.37007874015748143 ) ;
#281 =( LENGTH_UNIT ( ) NAMED_UNIT ( * ) SI_UNIT ( $, .METRE. ) );
#282 = SURFACE_STYLE_USAGE ( .BOTH. , #215 ) ;
#283 = CARTESIAN_POINT ( 'NONE',  ( -0.3125000000000001665, 4.000000000000000000, 0.000000000000000000 ) ) ;
#284 = DIRECTION ( 'NONE',  ( -0.000000000000000000, -1.000000000000000000, -0.000000000000000000 ) ) ;
#285 = ORIENTED_EDGE ( 'NONE', *, *, #103, .F. ) ;
#286 = EDGE_CURVE ( 'NONE', #172, #25, #288, .T. ) ;
#287 =( GEOMETRIC_REPRESENTATION_CONTEXT ( 3 ) GLOBAL_UNCERTAINTY_ASSIGNED_CONTEXT ( ( #293 ) ) GLOBAL_UNIT_ASSIGNED_CONTEXT ( ( #46, #220, #101 ) ) REPRESENTATION_CONTEXT ( 'NONE', 'WORKASPACE' ) );
#288 = CIRCLE ( 'NONE', #120, 0.3125000000000000000 ) ;
#289 = VERTEX_POINT ( 'NONE', #302 ) ;
#290 = UNCERTAINTY_MEASURE_WITH_UNIT (LENGTH_MEASURE( 1.000000000000000082E-05 ), #129, 'distance_accuracy_value', 'NONE');
#291 = SURFACE_SIDE_STYLE ('',( #196 ) ) ;
#292 = FACE_OUTER_BOUND ( 'NONE', #78, .T. ) ;
#293 = UNCERTAINTY_MEASURE_WITH_UNIT (LENGTH_MEASURE( 1.000000000000000082E-05 ), #46, 'distance_accuracy_value', 'NONE');
#294 = EDGE_CURVE ( 'NONE', #226, #191, #19, .T. ) ;
#295 =( CONVERSION_BASED_UNIT ( 'INCH', #200 ) LENGTH_UNIT ( ) NAMED_UNIT ( #246 ) );
#296 = CARTESIAN_POINT ( 'NONE',  ( 0.000000000000000000, 0.000000000000000000, -0.3125000000000000000 ) ) ;
#297 = DIRECTION ( 'NONE',  ( 0.000000000000000000, 0.000000000000000000, -1.000000000000000000 ) ) ;
#298 = FILL_AREA_STYLE ('',( #277 ) ) ;
#299 = CARTESIAN_POINT ( 'NONE',  ( -0.3125000000000000000, 2.125000000000000000, 0.000000000000000000 ) ) ;
#300 =( NAMED_UNIT ( * ) SI_UNIT ( $, .STERADIAN. ) SOLID_ANGLE_UNIT ( ) );
#301 = FACE_OUTER_BOUND ( 'NONE', #73, .T. ) ;
#302 = CARTESIAN_POINT ( 'NONE',  ( 0.000000000000000000, 0.000000000000000000, -0.3125000000000000000 ) ) ;
#303 = DIRECTION ( 'NONE',  ( -3.265724797726275178E-17, 1.000000000000000000, -0.000000000000000000 ) ) ;
#304 = SURFACE_SIDE_STYLE ('',( #90 ) ) ;
#305 =( GEOMETRIC_REPRESENTATION_CONTEXT ( 3 ) GLOBAL_UNCERTAINTY_ASSIGNED_CONTEXT ( ( #235 ) ) GLOBAL_UNIT_ASSIGNED_CONTEXT ( ( #295, #259, #146 ) ) REPRESENTATION_CONTEXT ( 'NONE', 'WORKASPACE' ) );
#306 = EDGE_CURVE ( 'NONE', #191, #226, #5, .T. ) ;
#307 = DIRECTION ( 'NONE',  ( 1.000000000000000000, 3.265724797726275178E-17, 0.000000000000000000 ) ) ;
#308 = FILL_AREA_STYLE ('',( #186 ) ) ;
#309 = DIRECTION ( 'NONE',  ( -3.265724797726275178E-17, 1.000000000000000000, -0.000000000000000000 ) ) ;
ENDSEC;
END-ISO-10303-21;
