ISO-10303-21;
HEADER;
FILE_DESCRIPTION (( 'STEP AP214' ),
    '1' );
FILE_NAME ('Micro_SEM-187-03X.STEP',
    '2021-09-02T02:08:48',
    ( '' ),
    ( '' ),
    'SwSTEP 2.0',
    'SolidWorks 2020',
    '' );
FILE_SCHEMA (( 'AUTOMOTIVE_DESIGN' ));
ENDSEC;

DATA;
#1 =( LENGTH_UNIT ( ) NAMED_UNIT ( * ) SI_UNIT ( $, .METRE. ) );
#2 = VERTEX_POINT ( 'NONE', #236 ) ;
#3 = FACE_OUTER_BOUND ( 'NONE', #189, .T. ) ;
#4 = ORIENTED_EDGE ( 'NONE', *, *, #86, .F. ) ;
#5 = CARTESIAN_POINT ( 'NONE',  ( -0.09365624999999999645, 0.0000000000000000000, 1.146958267826443260E-17 ) ) ;
#6 = MECHANICAL_DESIGN_GEOMETRIC_PRESENTATION_REPRESENTATION (  '', ( #205 ), #16 ) ;
#7 = DIRECTION ( 'NONE',  ( 1.000000000000000000, 0.0000000000000000000, 0.0000000000000000000 ) ) ;
#8 = EDGE_CURVE ( 'NONE', #27, #194, #131, .T. ) ;
#9 = ORIENTED_EDGE ( 'NONE', *, *, #222, .F. ) ;
#10 =( CONVERSION_BASED_UNIT ( 'INCH', #259 ) LENGTH_UNIT ( ) NAMED_UNIT ( #53 ) );
#11 = ORIENTED_EDGE ( 'NONE', *, *, #297, .T. ) ;
#12 = ORIENTED_EDGE ( 'NONE', *, *, #193, .F. ) ;
#13 = LENGTH_MEASURE_WITH_UNIT ( LENGTH_MEASURE( 0.02539999999999999897 ), #59 );
#14 = DIRECTION ( 'NONE',  ( 0.0000000000000000000, 0.0000000000000000000, 1.000000000000000000 ) ) ;
#15 = CARTESIAN_POINT ( 'NONE',  ( -0.07875000000000061118, 0.0000000000000000000, 1.500000000000000222 ) ) ;
#16 =( GEOMETRIC_REPRESENTATION_CONTEXT ( 3 ) GLOBAL_UNCERTAINTY_ASSIGNED_CONTEXT ( ( #276 ) ) GLOBAL_UNIT_ASSIGNED_CONTEXT ( ( #10, #55, #150 ) ) REPRESENTATION_CONTEXT ( 'NONE', 'WORKASPACE' ) );
#17 = DIRECTION ( 'NONE',  ( 1.224646799147353454E-16, 0.0000000000000000000, 1.000000000000000000 ) ) ;
#18 = CYLINDRICAL_SURFACE ( 'NONE', #299, 0.09365624999999999645 ) ;
#19 = FACE_OUTER_BOUND ( 'NONE', #282, .T. ) ;
#20 = AXIS2_PLACEMENT_3D ( 'NONE', #62, #156, #202 ) ;
#21 = ADVANCED_FACE ( 'NONE', ( #169 ), #251, .T. ) ;
#22 = AXIS2_PLACEMENT_3D ( 'NONE', #292, #84, #111 ) ;
#23 = DIRECTION ( 'NONE',  ( -1.000000000000000000, 0.0000000000000000000, 0.0000000000000000000 ) ) ;
#24 = EDGE_CURVE ( 'NONE', #117, #58, #143, .T. ) ;
#25 = AXIS2_PLACEMENT_3D ( 'NONE', #178, #163, #180 ) ;
#26 = EDGE_CURVE ( 'NONE', #117, #194, #196, .T. ) ;
#27 = VERTEX_POINT ( 'NONE', #170 ) ;
#28 = UNCERTAINTY_MEASURE_WITH_UNIT (LENGTH_MEASURE( 1.000000000000000082E-05 ), #263, 'distance_accuracy_value', 'NONE');
#29 = CYLINDRICAL_SURFACE ( 'NONE', #214, 0.09375000000000001388 ) ;
#30 = VERTEX_POINT ( 'NONE', #255 ) ;
#31 = DIRECTION ( 'NONE',  ( -1.224646799147353454E-16, -0.0000000000000000000, -1.000000000000000000 ) ) ;
#32 = DIRECTION ( 'NONE',  ( -1.000000000000000000, 0.0000000000000000000, 0.0000000000000000000 ) ) ;
#33 = AXIS2_PLACEMENT_3D ( 'NONE', #66, #85, #110 ) ;
#34 = ORIENTED_EDGE ( 'NONE', *, *, #112, .F. ) ;
#35 = DIRECTION ( 'NONE',  ( -1.000000000000000000, 0.0000000000000000000, 1.224646799147353454E-16 ) ) ;
#36 = ORIENTED_EDGE ( 'NONE', *, *, #26, .T. ) ;
#37 = FACE_OUTER_BOUND ( 'NONE', #152, .T. ) ;
#38 = SURFACE_SIDE_STYLE ('',( #177 ) ) ;
#39 = CARTESIAN_POINT ( 'NONE',  ( 1.404618771449246621E-33, 0.0000000000000000000, 1.146958267826443260E-17 ) ) ;
#40 = DIRECTION ( 'NONE',  ( 0.0000000000000000000, 0.0000000000000000000, -1.000000000000000000 ) ) ;
#41 = AXIS2_PLACEMENT_3D ( 'NONE', #188, #99, #102 ) ;
#42 = COLOUR_RGB ( '',0.7921568627450980005, 0.8196078431372548767, 0.9333333333333333481 ) ;
#43 = LINE ( 'NONE', #220, #60 ) ;
#44 = ADVANCED_BREP_SHAPE_REPRESENTATION ( 'Micro_SEM-187-03X', ( #294, #90 ), #154 ) ;
#45 = DIRECTION ( 'NONE',  ( -1.224646799147353454E-16, -0.0000000000000000000, -1.000000000000000000 ) ) ;
#46 = ADVANCED_FACE ( 'NONE', ( #173 ), #89, .T. ) ;
#47 = VERTEX_POINT ( 'NONE', #54 ) ;
#48 = AXIS2_PLACEMENT_3D ( 'NONE', #138, #40, #221 ) ;
#49 = CARTESIAN_POINT ( 'NONE',  ( 0.0000000000000000000, 0.0000000000000000000, 1.500000000000000222 ) ) ;
#50 = CARTESIAN_POINT ( 'NONE',  ( 4.592425496802576068E-17, 0.0000000000000000000, 0.3750000000000000555 ) ) ;
#51 = EDGE_CURVE ( 'NONE', #58, #27, #149, .T. ) ;
#52 = PLANE ( 'NONE',  #80 ) ;
#53 = DIMENSIONAL_EXPONENTS ( 1.000000000000000000, 0.0000000000000000000, 0.0000000000000000000, 0.0000000000000000000, 0.0000000000000000000, 0.0000000000000000000, 0.0000000000000000000 ) ;
#54 = CARTESIAN_POINT ( 'NONE',  ( -0.09365624999999994094, 1.147532321013543253E-17, 0.3750000000000000555 ) ) ;
#55 =( NAMED_UNIT ( * ) PLANE_ANGLE_UNIT ( ) SI_UNIT ( $, .RADIAN. ) );
#56 = ORIENTED_EDGE ( 'NONE', *, *, #8, .T. ) ;
#57 = ADVANCED_FACE ( 'NONE', ( #200 ), #162, .T. ) ;
#58 = VERTEX_POINT ( 'NONE', #267 ) ;
#59 =( LENGTH_UNIT ( ) NAMED_UNIT ( * ) SI_UNIT ( $, .METRE. ) );
#60 = VECTOR ( 'NONE', #242, 39.37007874015748143 ) ;
#61 = EDGE_LOOP ( 'NONE', ( #233, #79, #284, #144 ) ) ;
#62 = CARTESIAN_POINT ( 'NONE',  ( 0.0000000000000000000, 0.0000000000000000000, 1.500000000000000222 ) ) ;
#63 = EDGE_CURVE ( 'NONE', #194, #2, #114, .T. ) ;
#64 = DIRECTION ( 'NONE',  ( 0.7071067811865531239, 8.659560562355003116E-17, -0.7071067811865419106 ) ) ;
#65 = DIRECTION ( 'NONE',  ( 1.000000000000000000, 0.0000000000000000000, 0.0000000000000000000 ) ) ;
#66 = CARTESIAN_POINT ( 'NONE',  ( 4.598936731609567916E-17, 0.0000000000000000000, 0.3755316826705892841 ) ) ;
#67 = VERTEX_POINT ( 'NONE', #240 ) ;
#68 = PRESENTATION_LAYER_ASSIGNMENT (  '', '', ( #205 ) ) ;
#69 = EDGE_CURVE ( 'NONE', #257, #67, #243, .T. ) ;
#70 = FACE_OUTER_BOUND ( 'NONE', #147, .T. ) ;
#71 = ORIENTED_EDGE ( 'NONE', *, *, #183, .T. ) ;
#72 = ADVANCED_FACE ( 'NONE', ( #19 ), #204, .T. ) ;
#73 = DIRECTION ( 'NONE',  ( -0.1736481776669313026, 2.126576849575784549E-17, 0.9848077530122077983 ) ) ;
#74 = DIRECTION ( 'NONE',  ( 0.0000000000000000000, 0.0000000000000000000, -1.000000000000000000 ) ) ;
#75 = CARTESIAN_POINT ( 'NONE',  ( -0.09365624999999999645, 0.0000000000000000000, 2.293916535652886521E-17 ) ) ;
#76 = CARTESIAN_POINT ( 'NONE',  ( 0.0000000000000000000, 0.0000000000000000000, 1.500000000000000222 ) ) ;
#77 = ORIENTED_EDGE ( 'NONE', *, *, #63, .T. ) ;
#78 = APPLICATION_PROTOCOL_DEFINITION ( 'draft international standard', 'automotive_design', 1998, #246 ) ;
#79 = ORIENTED_EDGE ( 'NONE', *, *, #297, .F. ) ;
#80 = AXIS2_PLACEMENT_3D ( 'NONE', #254, #119, #123 ) ;
#81 = CARTESIAN_POINT ( 'NONE',  ( 4.598936731609567916E-17, 0.0000000000000000000, 0.3755316826705892841 ) ) ;
#82 = ADVANCED_FACE ( 'NONE', ( #134 ), #164, .T. ) ;
#83 =( NAMED_UNIT ( * ) PLANE_ANGLE_UNIT ( ) SI_UNIT ( $, .RADIAN. ) );
#84 = DIRECTION ( 'NONE',  ( -1.224646799147353454E-16, -0.0000000000000000000, -1.000000000000000000 ) ) ;
#85 = DIRECTION ( 'NONE',  ( -1.224646799147353454E-16, -0.0000000000000000000, -1.000000000000000000 ) ) ;
#86 = EDGE_CURVE ( 'NONE', #27, #210, #199, .T. ) ;
#87 = DIRECTION ( 'NONE',  ( -1.224646799147353454E-16, -0.0000000000000000000, -1.000000000000000000 ) ) ;
#88 = AXIS2_PLACEMENT_3D ( 'NONE', #107, #95, #23 ) ;
#89 = CONICAL_SURFACE ( 'NONE', #271, 0.09365624999999999645, 0.1745329251994340303 ) ;
#90 = AXIS2_PLACEMENT_3D ( 'NONE', #195, #285, #235 ) ;
#91 = ORIENTED_EDGE ( 'NONE', *, *, #51, .F. ) ;
#92 = LINE ( 'NONE', #208, #281 ) ;
#93 = STYLED_ITEM ( 'NONE', ( #249 ), #294 ) ;
#94 = DIRECTION ( 'NONE',  ( -0.0000000000000000000, -0.0000000000000000000, -1.000000000000000000 ) ) ;
#95 = DIRECTION ( 'NONE',  ( 0.0000000000000000000, 0.0000000000000000000, -1.000000000000000000 ) ) ;
#96 = ORIENTED_EDGE ( 'NONE', *, *, #193, .T. ) ;
#97 = SURFACE_STYLE_FILL_AREA ( #211 ) ;
#98 = CARTESIAN_POINT ( 'NONE',  ( 0.0000000000000000000, 0.0000000000000000000, 1.485000000000000986 ) ) ;
#99 = DIRECTION ( 'NONE',  ( -1.224646799147353454E-16, -0.0000000000000000000, -1.000000000000000000 ) ) ;
#100 = DIMENSIONAL_EXPONENTS ( 1.000000000000000000, 0.0000000000000000000, 0.0000000000000000000, 0.0000000000000000000, 0.0000000000000000000, 0.0000000000000000000, 0.0000000000000000000 ) ;
#101 = ORIENTED_EDGE ( 'NONE', *, *, #63, .F. ) ;
#102 = DIRECTION ( 'NONE',  ( -1.000000000000000000, 0.0000000000000000000, 0.0000000000000000000 ) ) ;
#103 = ORIENTED_EDGE ( 'NONE', *, *, #190, .T. ) ;
#104 = DIRECTION ( 'NONE',  ( -1.000000000000000000, 0.0000000000000000000, 0.0000000000000000000 ) ) ;
#105 =( NAMED_UNIT ( * ) SI_UNIT ( $, .STERADIAN. ) SOLID_ANGLE_UNIT ( ) );
#106 = DIRECTION ( 'NONE',  ( 1.000000000000000000, 0.0000000000000000000, 0.0000000000000000000 ) ) ;
#107 = CARTESIAN_POINT ( 'NONE',  ( 0.0000000000000000000, 0.0000000000000000000, 1.500000000000000222 ) ) ;
#108 = CONICAL_SURFACE ( 'NONE', #88, 0.07875000000000061118, 0.7853981633974562726 ) ;
#109 = FACE_OUTER_BOUND ( 'NONE', #277, .T. ) ;
#110 = DIRECTION ( 'NONE',  ( 1.000000000000000000, 0.0000000000000000000, 0.0000000000000000000 ) ) ;
#111 = DIRECTION ( 'NONE',  ( -1.000000000000000000, 0.0000000000000000000, 1.224646799147353454E-16 ) ) ;
#112 = EDGE_CURVE ( 'NONE', #30, #210, #43, .T. ) ;
#113 = DIRECTION ( 'NONE',  ( -1.000000000000000000, 0.0000000000000000000, 1.224646799147353454E-16 ) ) ;
#114 = LINE ( 'NONE', #247, #203 ) ;
#115 =( GEOMETRIC_REPRESENTATION_CONTEXT ( 3 ) GLOBAL_UNCERTAINTY_ASSIGNED_CONTEXT ( ( #28 ) ) GLOBAL_UNIT_ASSIGNED_CONTEXT ( ( #263, #135, #241 ) ) REPRESENTATION_CONTEXT ( 'NONE', 'WORKASPACE' ) );
#116 = EDGE_CURVE ( 'NONE', #194, #27, #161, .T. ) ;
#117 = VERTEX_POINT ( 'NONE', #15 ) ;
#118 = CIRCLE ( 'NONE', #128, 0.09375000000000001388 ) ;
#119 = DIRECTION ( 'NONE',  ( 0.0000000000000000000, 0.0000000000000000000, 1.000000000000000000 ) ) ;
#120 = PRODUCT_DEFINITION ( 'UNKNOWN', '', #258, #228 ) ;
#121 = MECHANICAL_DESIGN_GEOMETRIC_PRESENTATION_REPRESENTATION (  '', ( #93 ), #115 ) ;
#122 = CARTESIAN_POINT ( 'NONE',  ( -0.07875000000000061118, 0.0000000000000000000, 1.500000000000000222 ) ) ;
#123 = DIRECTION ( 'NONE',  ( 1.000000000000000000, 0.0000000000000000000, -0.0000000000000000000 ) ) ;
#124 = ORIENTED_EDGE ( 'NONE', *, *, #51, .T. ) ;
#125 =( CONVERSION_BASED_UNIT ( 'INCH', #13 ) LENGTH_UNIT ( ) NAMED_UNIT ( #100 ) );
#126 = DIRECTION ( 'NONE',  ( -0.7071067811865531239, 0.0000000000000000000, -0.7071067811865419106 ) ) ;
#127 = AXIS2_PLACEMENT_3D ( 'NONE', #217, #14, #106 ) ;
#128 = AXIS2_PLACEMENT_3D ( 'NONE', #81, #87, #140 ) ;
#129 = ORIENTED_EDGE ( 'NONE', *, *, #24, .T. ) ;
#130 = ADVANCED_FACE ( 'NONE', ( #109 ), #18, .T. ) ;
#131 = CIRCLE ( 'NONE', #224, 0.09375000000000001388 ) ;
#132 = DIRECTION ( 'NONE',  ( 1.000000000000000000, 0.0000000000000000000, 0.0000000000000000000 ) ) ;
#133 = SURFACE_STYLE_USAGE ( .BOTH. , #38 ) ;
#134 = FACE_OUTER_BOUND ( 'NONE', #61, .T. ) ;
#135 =( NAMED_UNIT ( * ) PLANE_ANGLE_UNIT ( ) SI_UNIT ( $, .RADIAN. ) );
#136 = CIRCLE ( 'NONE', #171, 0.09365624999999999645 ) ;
#137 = CARTESIAN_POINT ( 'NONE',  ( 0.09375000000000004163, 1.148106374200644017E-17, 0.3755316826705892841 ) ) ;
#138 = CARTESIAN_POINT ( 'NONE',  ( 0.0000000000000000000, 0.0000000000000000000, 1.485000000000000986 ) ) ;
#139 = EDGE_CURVE ( 'NONE', #67, #257, #226, .T. ) ;
#140 = DIRECTION ( 'NONE',  ( 1.000000000000000000, 0.0000000000000000000, 0.0000000000000000000 ) ) ;
#141 = EDGE_LOOP ( 'NONE', ( #155, #172, #142, #101 ) ) ;
#142 = ORIENTED_EDGE ( 'NONE', *, *, #183, .F. ) ;
#143 = CIRCLE ( 'NONE', #127, 0.07875000000000061118 ) ;
#144 = ORIENTED_EDGE ( 'NONE', *, *, #222, .T. ) ;
#145 = CIRCLE ( 'NONE', #33, 0.09375000000000001388 ) ;
#146 = CLOSED_SHELL ( 'NONE', ( #130, #46, #21, #57, #270, #72, #239, #82, #225, #279 ) ) ;
#147 = EDGE_LOOP ( 'NONE', ( #213, #260 ) ) ;
#148 = FILL_AREA_STYLE_COLOUR ( '', #42 ) ;
#149 = LINE ( 'NONE', #262, #153 ) ;
#150 =( NAMED_UNIT ( * ) SI_UNIT ( $, .STERADIAN. ) SOLID_ANGLE_UNIT ( ) );
#151 = ORIENTED_EDGE ( 'NONE', *, *, #190, .F. ) ;
#152 = EDGE_LOOP ( 'NONE', ( #91, #175, #36, #264 ) ) ;
#153 = VECTOR ( 'NONE', #64, 39.37007874015748143 ) ;
#154 =( GEOMETRIC_REPRESENTATION_CONTEXT ( 3 ) GLOBAL_UNCERTAINTY_ASSIGNED_CONTEXT ( ( #298 ) ) GLOBAL_UNIT_ASSIGNED_CONTEXT ( ( #125, #83, #105 ) ) REPRESENTATION_CONTEXT ( 'NONE', 'WORKASPACE' ) );
#155 = ORIENTED_EDGE ( 'NONE', *, *, #116, .T. ) ;
#156 = DIRECTION ( 'NONE',  ( 0.0000000000000000000, 0.0000000000000000000, 1.000000000000000000 ) ) ;
#157 = FACE_OUTER_BOUND ( 'NONE', #216, .T. ) ;
#158 =( LENGTH_UNIT ( ) NAMED_UNIT ( * ) SI_UNIT ( $, .METRE. ) );
#159 = DIRECTION ( 'NONE',  ( -1.000000000000000000, 0.0000000000000000000, 0.0000000000000000000 ) ) ;
#160 = DIMENSIONAL_EXPONENTS ( 1.000000000000000000, 0.0000000000000000000, 0.0000000000000000000, 0.0000000000000000000, 0.0000000000000000000, 0.0000000000000000000, 0.0000000000000000000 ) ;
#161 = CIRCLE ( 'NONE', #48, 0.09375000000000001388 ) ;
#162 = CYLINDRICAL_SURFACE ( 'NONE', #237, 0.09375000000000001388 ) ;
#163 = DIRECTION ( 'NONE',  ( 0.0000000000000000000, 0.0000000000000000000, 1.000000000000000000 ) ) ;
#164 = CONICAL_SURFACE ( 'NONE', #219, 0.09365624999999999645, 0.1745329251994340303 ) ;
#165 = CARTESIAN_POINT ( 'NONE',  ( 0.0000000000000000000, 0.0000000000000000000, 0.0000000000000000000 ) ) ;
#166 = APPLICATION_PROTOCOL_DEFINITION ( 'draft international standard', 'automotive_design', 1998, #198 ) ;
#167 = VECTOR ( 'NONE', #126, 39.37007874015748143 ) ;
#168 = VECTOR ( 'NONE', #256, 39.37007874015748143 ) ;
#169 = FACE_OUTER_BOUND ( 'NONE', #274, .T. ) ;
#170 = CARTESIAN_POINT ( 'NONE',  ( 0.09375000000000001388, 1.148106374200643401E-17, 1.485000000000000986 ) ) ;
#171 = AXIS2_PLACEMENT_3D ( 'NONE', #283, #31, #104 ) ;
#172 = ORIENTED_EDGE ( 'NONE', *, *, #86, .T. ) ;
#173 = FACE_OUTER_BOUND ( 'NONE', #231, .T. ) ;
#174 = CYLINDRICAL_SURFACE ( 'NONE', #293, 0.09365624999999999645 ) ;
#175 = ORIENTED_EDGE ( 'NONE', *, *, #24, .F. ) ;
#176 = PRESENTATION_LAYER_ASSIGNMENT (  '', '', ( #93 ) ) ;
#177 = SURFACE_STYLE_FILL_AREA ( #215 ) ;
#178 = CARTESIAN_POINT ( 'NONE',  ( 0.0000000000000000000, 0.0000000000000000000, 1.500000000000000222 ) ) ;
#179 = FILL_AREA_STYLE_COLOUR ( '', #288 ) ;
#180 = DIRECTION ( 'NONE',  ( 1.000000000000000000, 0.0000000000000000000, 0.0000000000000000000 ) ) ;
#181 = CARTESIAN_POINT ( 'NONE',  ( 0.0000000000000000000, 0.0000000000000000000, 1.500000000000000222 ) ) ;
#182 = LINE ( 'NONE', #266, #184 ) ;
#183 = EDGE_CURVE ( 'NONE', #2, #210, #118, .T. ) ;
#184 = VECTOR ( 'NONE', #223, 39.37007874015748143 ) ;
#185 = DIRECTION ( 'NONE',  ( -1.000000000000000000, 0.0000000000000000000, 0.0000000000000000000 ) ) ;
#186 = ORIENTED_EDGE ( 'NONE', *, *, #139, .F. ) ;
#187 = VECTOR ( 'NONE', #218, 39.37007874015748143 ) ;
#188 = CARTESIAN_POINT ( 'NONE',  ( 4.592425496802576068E-17, 0.0000000000000000000, 0.3750000000000000555 ) ) ;
#189 = EDGE_LOOP ( 'NONE', ( #4, #56, #77, #9 ) ) ;
#190 = EDGE_CURVE ( 'NONE', #58, #117, #253, .T. ) ;
#191 = SURFACE_SIDE_STYLE ('',( #97 ) ) ;
#192 = DIRECTION ( 'NONE',  ( 0.0000000000000000000, 0.0000000000000000000, -1.000000000000000000 ) ) ;
#193 = EDGE_CURVE ( 'NONE', #30, #67, #182, .T. ) ;
#194 = VERTEX_POINT ( 'NONE', #201 ) ;
#195 = CARTESIAN_POINT ( 'NONE',  ( 0.0000000000000000000, 0.0000000000000000000, 0.0000000000000000000 ) ) ;
#196 = LINE ( 'NONE', #122, #167 ) ;
#197 = PRODUCT_CONTEXT ( 'NONE', #246, 'mechanical' ) ;
#198 = APPLICATION_CONTEXT ( 'automotive_design' ) ;
#199 = LINE ( 'NONE', #295, #187 ) ;
#200 = FACE_OUTER_BOUND ( 'NONE', #141, .T. ) ;
#201 = CARTESIAN_POINT ( 'NONE',  ( -0.09375000000000001388, 0.0000000000000000000, 1.485000000000000986 ) ) ;
#202 = DIRECTION ( 'NONE',  ( 1.000000000000000000, 0.0000000000000000000, -0.0000000000000000000 ) ) ;
#203 = VECTOR ( 'NONE', #244, 39.37007874015748143 ) ;
#204 = PLANE ( 'NONE',  #20 ) ;
#205 = STYLED_ITEM ( 'NONE', ( #289 ), #44 ) ;
#206 = PRODUCT_RELATED_PRODUCT_CATEGORY ( 'part', '', ( #275 ) ) ;
#207 = ORIENTED_EDGE ( 'NONE', *, *, #245, .T. ) ;
#208 = CARTESIAN_POINT ( 'NONE',  ( -0.09365624999999994094, 1.146958267826442798E-17, 0.3750000000000000555 ) ) ;
#209 = CIRCLE ( 'NONE', #41, 0.09365624999999999645 ) ;
#210 = VERTEX_POINT ( 'NONE', #137 ) ;
#211 = FILL_AREA_STYLE ('',( #148 ) ) ;
#212 = ORIENTED_EDGE ( 'NONE', *, *, #69, .F. ) ;
#213 = ORIENTED_EDGE ( 'NONE', *, *, #69, .T. ) ;
#214 = AXIS2_PLACEMENT_3D ( 'NONE', #49, #94, #185 ) ;
#215 = FILL_AREA_STYLE ('',( #179 ) ) ;
#216 = EDGE_LOOP ( 'NONE', ( #12, #11, #278, #186 ) ) ;
#217 = CARTESIAN_POINT ( 'NONE',  ( 0.0000000000000000000, 0.0000000000000000000, 1.500000000000000222 ) ) ;
#218 = DIRECTION ( 'NONE',  ( -0.0000000000000000000, -0.0000000000000000000, -1.000000000000000000 ) ) ;
#219 = AXIS2_PLACEMENT_3D ( 'NONE', #269, #17, #65 ) ;
#220 = CARTESIAN_POINT ( 'NONE',  ( 0.09365625000000003808, 0.0000000000000000000, 0.3750000000000000555 ) ) ;
#221 = DIRECTION ( 'NONE',  ( 1.000000000000000000, 0.0000000000000000000, 0.0000000000000000000 ) ) ;
#222 = EDGE_CURVE ( 'NONE', #210, #2, #145, .T. ) ;
#223 = DIRECTION ( 'NONE',  ( -1.224646799147353454E-16, -0.0000000000000000000, -1.000000000000000000 ) ) ;
#224 = AXIS2_PLACEMENT_3D ( 'NONE', #98, #192, #132 ) ;
#225 = ADVANCED_FACE ( 'NONE', ( #157 ), #174, .T. ) ;
#226 = CIRCLE ( 'NONE', #22, 0.09365624999999999645 ) ;
#227 = SHAPE_DEFINITION_REPRESENTATION ( #232, #44 ) ;
#228 = PRODUCT_DEFINITION_CONTEXT ( 'detailed design', #198, 'design' ) ;
#229 = EDGE_CURVE ( 'NONE', #47, #30, #136, .T. ) ;
#230 = LINE ( 'NONE', #5, #168 ) ;
#231 = EDGE_LOOP ( 'NONE', ( #234, #207, #71, #34 ) ) ;
#232 = PRODUCT_DEFINITION_SHAPE ( 'NONE', 'NONE',  #120 ) ;
#233 = ORIENTED_EDGE ( 'NONE', *, *, #245, .F. ) ;
#234 = ORIENTED_EDGE ( 'NONE', *, *, #229, .F. ) ;
#235 = DIRECTION ( 'NONE',  ( 1.000000000000000000, 0.0000000000000000000, 0.0000000000000000000 ) ) ;
#236 = CARTESIAN_POINT ( 'NONE',  ( -0.09374999999999995837, 0.0000000000000000000, 0.3755316826705892841 ) ) ;
#237 = AXIS2_PLACEMENT_3D ( 'NONE', #181, #291, #159 ) ;
#238 = ORIENTED_EDGE ( 'NONE', *, *, #26, .F. ) ;
#239 = ADVANCED_FACE ( 'NONE', ( #37 ), #108, .T. ) ;
#240 = CARTESIAN_POINT ( 'NONE',  ( 0.09365624999999999645, 1.146958267826442798E-17, 0.0000000000000000000 ) ) ;
#241 =( NAMED_UNIT ( * ) SI_UNIT ( $, .STERADIAN. ) SOLID_ANGLE_UNIT ( ) );
#242 = DIRECTION ( 'NONE',  ( 0.1736481776669315247, 0.0000000000000000000, 0.9848077530122077983 ) ) ;
#243 = CIRCLE ( 'NONE', #268, 0.09365624999999999645 ) ;
#244 = DIRECTION ( 'NONE',  ( -0.0000000000000000000, -0.0000000000000000000, -1.000000000000000000 ) ) ;
#245 = EDGE_CURVE ( 'NONE', #47, #2, #92, .T. ) ;
#246 = APPLICATION_CONTEXT ( 'automotive_design' ) ;
#247 = CARTESIAN_POINT ( 'NONE',  ( -0.09375000000000001388, 0.0000000000000000000, 1.500000000000000222 ) ) ;
#248 = ORIENTED_EDGE ( 'NONE', *, *, #116, .F. ) ;
#249 = PRESENTATION_STYLE_ASSIGNMENT (( #280 ) ) ;
#250 = ORIENTED_EDGE ( 'NONE', *, *, #261, .F. ) ;
#251 = CONICAL_SURFACE ( 'NONE', #273, 0.07875000000000061118, 0.7853981633974562726 ) ;
#252 = LENGTH_MEASURE_WITH_UNIT ( LENGTH_MEASURE( 0.02539999999999999897 ), #1 );
#253 = CIRCLE ( 'NONE', #25, 0.07875000000000061118 ) ;
#254 = CARTESIAN_POINT ( 'NONE',  ( 0.0000000000000000000, 0.0000000000000000000, 0.0000000000000000000 ) ) ;
#255 = CARTESIAN_POINT ( 'NONE',  ( 0.09365625000000003808, 0.0000000000000000000, 0.3750000000000000555 ) ) ;
#256 = DIRECTION ( 'NONE',  ( -1.224646799147353454E-16, -0.0000000000000000000, -1.000000000000000000 ) ) ;
#257 = VERTEX_POINT ( 'NONE', #75 ) ;
#258 = PRODUCT_DEFINITION_FORMATION_WITH_SPECIFIED_SOURCE ( 'ANY', '', #275, .NOT_KNOWN. ) ;
#259 = LENGTH_MEASURE_WITH_UNIT ( LENGTH_MEASURE( 0.02539999999999999897 ), #158 );
#260 = ORIENTED_EDGE ( 'NONE', *, *, #139, .T. ) ;
#261 = EDGE_CURVE ( 'NONE', #47, #257, #230, .T. ) ;
#262 = CARTESIAN_POINT ( 'NONE',  ( 0.07875000000000061118, 9.644093543285480678E-18, 1.500000000000000222 ) ) ;
#263 =( CONVERSION_BASED_UNIT ( 'INCH', #252 ) LENGTH_UNIT ( ) NAMED_UNIT ( #160 ) );
#264 = ORIENTED_EDGE ( 'NONE', *, *, #8, .F. ) ;
#265 = DIRECTION ( 'NONE',  ( -1.000000000000000000, 0.0000000000000000000, 1.224646799147353454E-16 ) ) ;
#266 = CARTESIAN_POINT ( 'NONE',  ( 0.09365624999999999645, 1.146958267826442798E-17, -1.146958267826443260E-17 ) ) ;
#267 = CARTESIAN_POINT ( 'NONE',  ( 0.07875000000000061118, 1.056257864264595965E-17, 1.500000000000000222 ) ) ;
#268 = AXIS2_PLACEMENT_3D ( 'NONE', #39, #45, #265 ) ;
#269 = CARTESIAN_POINT ( 'NONE',  ( 4.592425496802576068E-17, 0.0000000000000000000, 0.3750000000000000555 ) ) ;
#270 = ADVANCED_FACE ( 'NONE', ( #3 ), #29, .T. ) ;
#271 = AXIS2_PLACEMENT_3D ( 'NONE', #50, #286, #7 ) ;
#272 = ORIENTED_EDGE ( 'NONE', *, *, #229, .T. ) ;
#273 = AXIS2_PLACEMENT_3D ( 'NONE', #76, #74, #32 ) ;
#274 = EDGE_LOOP ( 'NONE', ( #151, #124, #248, #238 ) ) ;
#275 = PRODUCT ( 'Micro_SEM-187-03X', 'Micro_SEM-187-03X', '', ( #197 ) ) ;
#276 = UNCERTAINTY_MEASURE_WITH_UNIT (LENGTH_MEASURE( 1.000000000000000082E-05 ), #10, 'distance_accuracy_value', 'NONE');
#277 = EDGE_LOOP ( 'NONE', ( #272, #96, #212, #250 ) ) ;
#278 = ORIENTED_EDGE ( 'NONE', *, *, #261, .T. ) ;
#279 = ADVANCED_FACE ( 'NONE', ( #70 ), #52, .F. ) ;
#280 = SURFACE_STYLE_USAGE ( .BOTH. , #191 ) ;
#281 = VECTOR ( 'NONE', #73, 39.37007874015748143 ) ;
#282 = EDGE_LOOP ( 'NONE', ( #129, #103 ) ) ;
#283 = CARTESIAN_POINT ( 'NONE',  ( 4.592425496802576068E-17, 0.0000000000000000000, 0.3750000000000000555 ) ) ;
#284 = ORIENTED_EDGE ( 'NONE', *, *, #112, .T. ) ;
#285 = DIRECTION ( 'NONE',  ( 0.0000000000000000000, 0.0000000000000000000, 1.000000000000000000 ) ) ;
#286 = DIRECTION ( 'NONE',  ( 1.224646799147353454E-16, 0.0000000000000000000, 1.000000000000000000 ) ) ;
#287 = CARTESIAN_POINT ( 'NONE',  ( 0.0000000000000000000, 0.0000000000000000000, 0.0000000000000000000 ) ) ;
#288 = COLOUR_RGB ( '',0.7921568627450980005, 0.8196078431372548767, 0.9333333333333333481 ) ;
#289 = PRESENTATION_STYLE_ASSIGNMENT (( #133 ) ) ;
#290 = DIRECTION ( 'NONE',  ( -1.224646799147353454E-16, -0.0000000000000000000, -1.000000000000000000 ) ) ;
#291 = DIRECTION ( 'NONE',  ( -0.0000000000000000000, -0.0000000000000000000, -1.000000000000000000 ) ) ;
#292 = CARTESIAN_POINT ( 'NONE',  ( 1.404618771449246621E-33, 0.0000000000000000000, 1.146958267826443260E-17 ) ) ;
#293 = AXIS2_PLACEMENT_3D ( 'NONE', #165, #296, #35 ) ;
#294 = MANIFOLD_SOLID_BREP ( 'Cut-Revolve1', #146 ) ;
#295 = CARTESIAN_POINT ( 'NONE',  ( 0.09375000000000001388, 1.148106374200643401E-17, 1.500000000000000222 ) ) ;
#296 = DIRECTION ( 'NONE',  ( -1.224646799147353454E-16, -0.0000000000000000000, -1.000000000000000000 ) ) ;
#297 = EDGE_CURVE ( 'NONE', #30, #47, #209, .T. ) ;
#298 = UNCERTAINTY_MEASURE_WITH_UNIT (LENGTH_MEASURE( 1.000000000000000082E-05 ), #125, 'distance_accuracy_value', 'NONE');
#299 = AXIS2_PLACEMENT_3D ( 'NONE', #287, #290, #113 ) ;
ENDSEC;
END-ISO-10303-21;
