ISO-10303-21;
HEADER;
FILE_DESCRIPTION (( 'STEP AP214' ),
    '1' );
FILE_NAME ('59522.STEP',
    '2023-07-24T15:48:23',
    ( '' ),
    ( '' ),
    'SwSTEP 2.0',
    'SolidWorks 2023',
    '' );
FILE_SCHEMA (( 'AUTOMOTIVE_DESIGN' ));
ENDSEC;

DATA;
#1 = DIRECTION ( 'NONE',  ( 0.000000000000000000, -1.000000000000000000, -0.000000000000000000 ) ) ;
#2 = ORIENTED_EDGE ( 'NONE', *, *, #208, .F. ) ;
#3 = APPLICATION_PROTOCOL_DEFINITION ( 'draft international standard', 'automotive_design', 1998, #176 ) ;
#4 = DIRECTION ( 'NONE',  ( -1.000000000000000000, 3.061616997868382402E-17, 0.000000000000000000 ) ) ;
#5 = ORIENTED_EDGE ( 'NONE', *, *, #22, .T. ) ;
#6 = AXIS2_PLACEMENT_3D ( 'NONE', #186, #254, #63 ) ;
#7 = DIRECTION ( 'NONE',  ( 3.061616997868382402E-17, 1.000000000000000000, -0.000000000000000000 ) ) ;
#8 = DIRECTION ( 'NONE',  ( 3.061616997868382402E-17, 1.000000000000000000, -0.000000000000000000 ) ) ;
#9 = CARTESIAN_POINT ( 'NONE',  ( 0.000000000000000000, 0.000000000000000000, 0.000000000000000000 ) ) ;
#10 = CIRCLE ( 'NONE', #221, 5.000000000000000000 ) ;
#11 = CARTESIAN_POINT ( 'NONE',  ( 5.000000000000000888, 63.00000000000000000, 6.123233995736765296E-16 ) ) ;
#12 = CARTESIAN_POINT ( 'NONE',  ( 5.000000000000000000, 63.00000000000000000, 6.123233995736766282E-16 ) ) ;
#13 = UNCERTAINTY_MEASURE_WITH_UNIT (LENGTH_MEASURE( 1.000000000000000082E-05 ), #266, 'distance_accuracy_value', 'NONE');
#14 = DIRECTION ( 'NONE',  ( 1.000000000000000000, -3.061616997868382402E-17, 0.000000000000000000 ) ) ;
#15 = DIRECTION ( 'NONE',  ( 0.000000000000000000, 0.000000000000000000, -1.000000000000000000 ) ) ;
#16 = CARTESIAN_POINT ( 'NONE',  ( 1.469576158976823750E-15, 63.00000000000000000, 0.000000000000000000 ) ) ;
#17 = CARTESIAN_POINT ( 'NONE',  ( 0.000000000000000000, 0.000000000000000000, 0.000000000000000000 ) ) ;
#18 = MECHANICAL_DESIGN_GEOMETRIC_PRESENTATION_REPRESENTATION (  '', ( #276 ), #283 ) ;
#19 = AXIS2_PLACEMENT_3D ( 'NONE', #29, #8, #40 ) ;
#20 =( NAMED_UNIT ( * ) PLANE_ANGLE_UNIT ( ) SI_UNIT ( $, .RADIAN. ) );
#21 = SURFACE_SIDE_STYLE ('',( #134 ) ) ;
#22 = EDGE_CURVE ( 'NONE', #51, #157, #271, .T. ) ;
#23 = DIRECTION ( 'NONE',  ( -0.000000000000000000, -1.000000000000000000, -0.000000000000000000 ) ) ;
#24 = PRESENTATION_STYLE_ASSIGNMENT (( #177 ) ) ;
#25 = ORIENTED_EDGE ( 'NONE', *, *, #256, .F. ) ;
#26 = FACE_OUTER_BOUND ( 'NONE', #200, .T. ) ;
#27 = PRODUCT ( '59522', '59522', '', ( #235 ) ) ;
#28 = FILL_AREA_STYLE_COLOUR ( '', #90 ) ;
#29 = CARTESIAN_POINT ( 'NONE',  ( 0.000000000000000000, 15.00000000000000000, 0.000000000000000000 ) ) ;
#30 = EDGE_LOOP ( 'NONE', ( #139, #101 ) ) ;
#31 = AXIS2_PLACEMENT_3D ( 'NONE', #16, #218, #195 ) ;
#32 = UNCERTAINTY_MEASURE_WITH_UNIT (LENGTH_MEASURE( 1.000000000000000082E-05 ), #119, 'distance_accuracy_value', 'NONE');
#33 = DIRECTION ( 'NONE',  ( -0.000000000000000000, -1.000000000000000000, -0.000000000000000000 ) ) ;
#34 = CARTESIAN_POINT ( 'NONE',  ( 1.469576158976823750E-15, 63.00000000000000000, 0.000000000000000000 ) ) ;
#35 = EDGE_CURVE ( 'NONE', #114, #248, #209, .T. ) ;
#36 = DIRECTION ( 'NONE',  ( 0.000000000000000000, 0.000000000000000000, -1.000000000000000000 ) ) ;
#37 = LINE ( 'NONE', #11, #74 ) ;
#38 = AXIS2_PLACEMENT_3D ( 'NONE', #131, #23, #172 ) ;
#39 =( GEOMETRIC_REPRESENTATION_CONTEXT ( 3 ) GLOBAL_UNCERTAINTY_ASSIGNED_CONTEXT ( ( #85 ) ) GLOBAL_UNIT_ASSIGNED_CONTEXT ( ( #219, #264, #288 ) ) REPRESENTATION_CONTEXT ( 'NONE', 'WORKASPACE' ) );
#40 = DIRECTION ( 'NONE',  ( -1.000000000000000000, 0.000000000000000000, 0.000000000000000000 ) ) ;
#41 = CIRCLE ( 'NONE', #257, 5.000000000000000000 ) ;
#42 = MECHANICAL_DESIGN_GEOMETRIC_PRESENTATION_REPRESENTATION (  '', ( #238 ), #39 ) ;
#43 = ADVANCED_BREP_SHAPE_REPRESENTATION ( '59522', ( #255, #167, #197 ), #105 ) ;
#44 =( NAMED_UNIT ( * ) SI_UNIT ( $, .STERADIAN. ) SOLID_ANGLE_UNIT ( ) );
#45 = DIRECTION ( 'NONE',  ( -0.000000000000000000, -1.000000000000000000, -0.000000000000000000 ) ) ;
#46 = AXIS2_PLACEMENT_3D ( 'NONE', #262, #115, #4 ) ;
#47 = AXIS2_PLACEMENT_3D ( 'NONE', #160, #207, #14 ) ;
#48 = SURFACE_STYLE_USAGE ( .BOTH. , #171 ) ;
#49 = CARTESIAN_POINT ( 'NONE',  ( 0.000000000000000000, 0.000000000000000000, 0.000000000000000000 ) ) ;
#50 = ORIENTED_EDGE ( 'NONE', *, *, #284, .F. ) ;
#51 = VERTEX_POINT ( 'NONE', #158 ) ;
#52 = FACE_OUTER_BOUND ( 'NONE', #224, .T. ) ;
#53 = PLANE ( 'NONE',  #145 ) ;
#54 = SURFACE_STYLE_USAGE ( .BOTH. , #21 ) ;
#55 = ORIENTED_EDGE ( 'NONE', *, *, #284, .T. ) ;
#56 = CARTESIAN_POINT ( 'NONE',  ( 1.469576158976823750E-15, 63.00000000000000000, 0.000000000000000000 ) ) ;
#57 = ORIENTED_EDGE ( 'NONE', *, *, #256, .T. ) ;
#58 = FACE_OUTER_BOUND ( 'NONE', #287, .T. ) ;
#59 = CARTESIAN_POINT ( 'NONE',  ( 6.123233995736766282E-16, 0.000000000000000000, 5.000000000000000000 ) ) ;
#60 = CIRCLE ( 'NONE', #203, 5.000000000000000000 ) ;
#61 = EDGE_CURVE ( 'NONE', #98, #263, #60, .T. ) ;
#62 = SURFACE_SIDE_STYLE ('',( #253 ) ) ;
#63 = DIRECTION ( 'NONE',  ( 0.000000000000000000, 0.000000000000000000, -1.000000000000000000 ) ) ;
#64 = PLANE ( 'NONE',  #47 ) ;
#65 = STYLED_ITEM ( 'NONE', ( #24 ), #162 ) ;
#66 = PRESENTATION_LAYER_ASSIGNMENT (  '', '', ( #149 ) ) ;
#67 = DIRECTION ( 'NONE',  ( -0.000000000000000000, -1.000000000000000000, -0.000000000000000000 ) ) ;
#68 = PRODUCT_RELATED_PRODUCT_CATEGORY ( 'part', '', ( #27 ) ) ;
#69 = FACE_OUTER_BOUND ( 'NONE', #198, .T. ) ;
#70 = SHAPE_DEFINITION_REPRESENTATION ( #279, #43 ) ;
#71 = SURFACE_STYLE_FILL_AREA ( #146 ) ;
#72 = PRESENTATION_STYLE_ASSIGNMENT (( #236 ) ) ;
#73 = MECHANICAL_DESIGN_GEOMETRIC_PRESENTATION_REPRESENTATION (  '', ( #251 ), #227 ) ;
#74 = VECTOR ( 'NONE', #187, 1000.000000000000000 ) ;
#75 = VECTOR ( 'NONE', #246, 1000.000000000000000 ) ;
#76 = DIRECTION ( 'NONE',  ( 0.000000000000000000, 0.000000000000000000, -1.000000000000000000 ) ) ;
#77 =( GEOMETRIC_REPRESENTATION_CONTEXT ( 3 ) GLOBAL_UNCERTAINTY_ASSIGNED_CONTEXT ( ( #188 ) ) GLOBAL_UNIT_ASSIGNED_CONTEXT ( ( #152, #175, #247 ) ) REPRESENTATION_CONTEXT ( 'NONE', 'WORKASPACE' ) );
#78 = FILL_AREA_STYLE ('',( #28 ) ) ;
#79 = DIRECTION ( 'NONE',  ( -0.000000000000000000, -1.000000000000000000, -0.000000000000000000 ) ) ;
#80 = DIRECTION ( 'NONE',  ( 3.061616997868382402E-17, 1.000000000000000000, -0.000000000000000000 ) ) ;
#81 = CIRCLE ( 'NONE', #133, 5.000000000000000000 ) ;
#82 = AXIS2_PLACEMENT_3D ( 'NONE', #56, #80, #184 ) ;
#83 = DIRECTION ( 'NONE',  ( -0.000000000000000000, -1.000000000000000000, -0.000000000000000000 ) ) ;
#84 = FACE_OUTER_BOUND ( 'NONE', #150, .T. ) ;
#85 = UNCERTAINTY_MEASURE_WITH_UNIT (LENGTH_MEASURE( 1.000000000000000082E-05 ), #219, 'distance_accuracy_value', 'NONE');
#86 = COLOUR_RGB ( '',1.000000000000000000, 0.000000000000000000, 0.000000000000000000 ) ;
#87 = PRESENTATION_LAYER_ASSIGNMENT (  '', '', ( #238 ) ) ;
#88 = EDGE_CURVE ( 'NONE', #157, #248, #10, .T. ) ;
#89 = CARTESIAN_POINT ( 'NONE',  ( 0.000000000000000000, 15.00000000000000000, 0.000000000000000000 ) ) ;
#90 = COLOUR_RGB ( '',1.000000000000000000, 0.000000000000000000, 0.000000000000000000 ) ;
#91 =( LENGTH_UNIT ( ) NAMED_UNIT ( * ) SI_UNIT ( .MILLI., .METRE. ) );
#92 = CYLINDRICAL_SURFACE ( 'NONE', #38, 5.000000000000000000 ) ;
#93 = COLOUR_RGB ( '',1.000000000000000000, 0.000000000000000000, 0.000000000000000000 ) ;
#94 = AXIS2_PLACEMENT_3D ( 'NONE', #34, #123, #274 ) ;
#95 = FACE_OUTER_BOUND ( 'NONE', #181, .T. ) ;
#96 = ORIENTED_EDGE ( 'NONE', *, *, #35, .F. ) ;
#97 = SURFACE_STYLE_FILL_AREA ( #78 ) ;
#98 = VERTEX_POINT ( 'NONE', #124 ) ;
#99 = SURFACE_SIDE_STYLE ('',( #97 ) ) ;
#100 = ORIENTED_EDGE ( 'NONE', *, *, #107, .T. ) ;
#101 = ORIENTED_EDGE ( 'NONE', *, *, #61, .F. ) ;
#102 = DIRECTION ( 'NONE',  ( 3.061616997868382402E-17, 1.000000000000000000, -0.000000000000000000 ) ) ;
#103 = VERTEX_POINT ( 'NONE', #12 ) ;
#104 = PRESENTATION_STYLE_ASSIGNMENT (( #143 ) ) ;
#105 =( GEOMETRIC_REPRESENTATION_CONTEXT ( 3 ) GLOBAL_UNCERTAINTY_ASSIGNED_CONTEXT ( ( #32 ) ) GLOBAL_UNIT_ASSIGNED_CONTEXT ( ( #119, #205, #182 ) ) REPRESENTATION_CONTEXT ( 'NONE', 'WORKASPACE' ) );
#106 = PRESENTATION_LAYER_ASSIGNMENT (  '', '', ( #65 ) ) ;
#107 = EDGE_CURVE ( 'NONE', #248, #157, #41, .T. ) ;
#108 = COLOUR_RGB ( '',1.000000000000000000, 0.000000000000000000, 0.000000000000000000 ) ;
#109 =( NAMED_UNIT ( * ) SI_UNIT ( $, .STERADIAN. ) SOLID_ANGLE_UNIT ( ) );
#110 = CARTESIAN_POINT ( 'NONE',  ( 0.000000000000000000, 15.00000000000000000, 0.000000000000000000 ) ) ;
#111 =( LENGTH_UNIT ( ) NAMED_UNIT ( * ) SI_UNIT ( .MILLI., .METRE. ) );
#112 = PRESENTATION_LAYER_ASSIGNMENT (  '', '', ( #234 ) ) ;
#113 = EDGE_CURVE ( 'NONE', #51, #114, #81, .T. ) ;
#114 = VERTEX_POINT ( 'NONE', #168 ) ;
#115 = DIRECTION ( 'NONE',  ( 3.061616997868382402E-17, 1.000000000000000000, -0.000000000000000000 ) ) ;
#116 = ORIENTED_EDGE ( 'NONE', *, *, #212, .T. ) ;
#117 = FILL_AREA_STYLE ('',( #223 ) ) ;
#118 = ORIENTED_EDGE ( 'NONE', *, *, #35, .T. ) ;
#119 =( LENGTH_UNIT ( ) NAMED_UNIT ( * ) SI_UNIT ( .MILLI., .METRE. ) );
#120 =( GEOMETRIC_REPRESENTATION_CONTEXT ( 3 ) GLOBAL_UNCERTAINTY_ASSIGNED_CONTEXT ( ( #165 ) ) GLOBAL_UNIT_ASSIGNED_CONTEXT ( ( #91, #20, #109 ) ) REPRESENTATION_CONTEXT ( 'NONE', 'WORKASPACE' ) );
#121 = CARTESIAN_POINT ( 'NONE',  ( -4.999999999999997335, 63.00000000000000000, 0.000000000000000000 ) ) ;
#122 = CARTESIAN_POINT ( 'NONE',  ( 0.000000000000000000, 15.00000000000000000, 0.000000000000000000 ) ) ;
#123 = DIRECTION ( 'NONE',  ( 3.061616997868382402E-17, 1.000000000000000000, -0.000000000000000000 ) ) ;
#124 = CARTESIAN_POINT ( 'NONE',  ( 5.000000000000000000, 15.00000000000000000, 6.123233995736766282E-16 ) ) ;
#125 =( LENGTH_UNIT ( ) NAMED_UNIT ( * ) SI_UNIT ( .MILLI., .METRE. ) );
#126 = CIRCLE ( 'NONE', #19, 5.000000000000000000 ) ;
#127 = SURFACE_STYLE_FILL_AREA ( #237 ) ;
#128 = FACE_OUTER_BOUND ( 'NONE', #30, .T. ) ;
#129 = ORIENTED_EDGE ( 'NONE', *, *, #113, .T. ) ;
#130 = ADVANCED_FACE ( 'NONE', ( #69 ), #278, .T. ) ;
#131 = CARTESIAN_POINT ( 'NONE',  ( 0.000000000000000000, 0.000000000000000000, 0.000000000000000000 ) ) ;
#132 = ORIENTED_EDGE ( 'NONE', *, *, #212, .F. ) ;
#133 = AXIS2_PLACEMENT_3D ( 'NONE', #89, #45, #192 ) ;
#134 = SURFACE_STYLE_FILL_AREA ( #241 ) ;
#135 = APPLICATION_CONTEXT ( 'automotive_design' ) ;
#136 = DIRECTION ( 'NONE',  ( 0.000000000000000000, 1.000000000000000000, 0.000000000000000000 ) ) ;
#137 = ADVANCED_FACE ( 'NONE', ( #215 ), #191, .T. ) ;
#138 = FILL_AREA_STYLE_COLOUR ( '', #229 ) ;
#139 = ORIENTED_EDGE ( 'NONE', *, *, #258, .F. ) ;
#140 = UNCERTAINTY_MEASURE_WITH_UNIT (LENGTH_MEASURE( 1.000000000000000082E-05 ), #125, 'distance_accuracy_value', 'NONE');
#141 = PRESENTATION_LAYER_ASSIGNMENT (  '', '', ( #276 ) ) ;
#142 = CARTESIAN_POINT ( 'NONE',  ( 0.000000000000000000, 0.000000000000000000, -5.000000000000000000 ) ) ;
#143 = SURFACE_STYLE_USAGE ( .BOTH. , #62 ) ;
#144 = CLOSED_SHELL ( 'NONE', ( #137, #151, #217, #233 ) ) ;
#145 = AXIS2_PLACEMENT_3D ( 'NONE', #110, #136, #225 ) ;
#146 = FILL_AREA_STYLE ('',( #259 ) ) ;
#147 = DIRECTION ( 'NONE',  ( 0.000000000000000000, 0.000000000000000000, -1.000000000000000000 ) ) ;
#148 = MECHANICAL_DESIGN_GEOMETRIC_PRESENTATION_REPRESENTATION (  '', ( #234 ), #120 ) ;
#149 = STYLED_ITEM ( 'NONE', ( #104 ), #255 ) ;
#150 = EDGE_LOOP ( 'NONE', ( #50, #285, #220, #2 ) ) ;
#151 = ADVANCED_FACE ( 'NONE', ( #128 ), #156, .F. ) ;
#152 =( LENGTH_UNIT ( ) NAMED_UNIT ( * ) SI_UNIT ( .MILLI., .METRE. ) );
#153 = ORIENTED_EDGE ( 'NONE', *, *, #88, .F. ) ;
#154 = ADVANCED_FACE ( 'NONE', ( #26 ), #92, .T. ) ;
#155 = SURFACE_STYLE_USAGE ( .BOTH. , #99 ) ;
#156 = PLANE ( 'NONE',  #46 ) ;
#157 = VERTEX_POINT ( 'NONE', #265 ) ;
#158 = CARTESIAN_POINT ( 'NONE',  ( 6.123233995736766282E-16, 15.00000000000000000, 5.000000000000000000 ) ) ;
#159 = UNCERTAINTY_MEASURE_WITH_UNIT (LENGTH_MEASURE( 1.000000000000000082E-05 ), #111, 'distance_accuracy_value', 'NONE');
#160 = CARTESIAN_POINT ( 'NONE',  ( 5.000000000000000000, 63.00000000000000000, 0.000000000000000000 ) ) ;
#161 = CIRCLE ( 'NONE', #94, 4.999999999999998224 ) ;
#162 = ADVANCED_FACE ( 'NONE', ( #95 ), #244, .T. ) ;
#163 = CARTESIAN_POINT ( 'NONE',  ( -4.999999999999996447, 63.00000000000000000, 0.000000000000000000 ) ) ;
#164 = CARTESIAN_POINT ( 'NONE',  ( 0.000000000000000000, 0.000000000000000000, 0.000000000000000000 ) ) ;
#165 = UNCERTAINTY_MEASURE_WITH_UNIT (LENGTH_MEASURE( 1.000000000000000082E-05 ), #91, 'distance_accuracy_value', 'NONE');
#166 = VECTOR ( 'NONE', #33, 1000.000000000000000 ) ;
#167 = MANIFOLD_SOLID_BREP ( 'Revolve - Tool Body (Straight Shanked)', #144 ) ;
#168 = CARTESIAN_POINT ( 'NONE',  ( 0.000000000000000000, 15.00000000000000000, -5.000000000000000000 ) ) ;
#169 = CARTESIAN_POINT ( 'NONE',  ( 0.000000000000000000, 0.000000000000000000, 0.000000000000000000 ) ) ;
#170 = DIRECTION ( 'NONE',  ( 0.000000000000000000, 0.000000000000000000, 1.000000000000000000 ) ) ;
#171 = SURFACE_SIDE_STYLE ('',( #127 ) ) ;
#172 = DIRECTION ( 'NONE',  ( 0.000000000000000000, 0.000000000000000000, -1.000000000000000000 ) ) ;
#173 = CLOSED_SHELL ( 'NONE', ( #154, #185, #130, #162 ) ) ;
#174 =( NAMED_UNIT ( * ) SI_UNIT ( $, .STERADIAN. ) SOLID_ANGLE_UNIT ( ) );
#175 =( NAMED_UNIT ( * ) PLANE_ANGLE_UNIT ( ) SI_UNIT ( $, .RADIAN. ) );
#176 = APPLICATION_CONTEXT ( 'automotive_design' ) ;
#177 = SURFACE_STYLE_USAGE ( .BOTH. , #202 ) ;
#178 = ORIENTED_EDGE ( 'NONE', *, *, #113, .F. ) ;
#179 = AXIS2_PLACEMENT_3D ( 'NONE', #169, #67, #15 ) ;
#180 = DIRECTION ( 'NONE',  ( -1.000000000000000000, 0.000000000000000000, 0.000000000000000000 ) ) ;
#181 = EDGE_LOOP ( 'NONE', ( #100, #196 ) ) ;
#182 =( NAMED_UNIT ( * ) SI_UNIT ( $, .STERADIAN. ) SOLID_ANGLE_UNIT ( ) );
#183 = ORIENTED_EDGE ( 'NONE', *, *, #22, .F. ) ;
#184 = DIRECTION ( 'NONE',  ( -1.000000000000000000, 0.000000000000000000, 0.000000000000000000 ) ) ;
#185 = ADVANCED_FACE ( 'NONE', ( #52 ), #53, .T. ) ;
#186 = CARTESIAN_POINT ( 'NONE',  ( 0.000000000000000000, 15.00000000000000000, 0.000000000000000000 ) ) ;
#187 = DIRECTION ( 'NONE',  ( 3.061616997868382402E-17, 1.000000000000000000, -0.000000000000000000 ) ) ;
#188 = UNCERTAINTY_MEASURE_WITH_UNIT (LENGTH_MEASURE( 1.000000000000000082E-05 ), #152, 'distance_accuracy_value', 'NONE');
#189 = PRODUCT_DEFINITION ( 'UNKNOWN', '', #239, #206 ) ;
#190 = VECTOR ( 'NONE', #79, 1000.000000000000000 ) ;
#191 = CYLINDRICAL_SURFACE ( 'NONE', #31, 4.999999999999999112 ) ;
#192 = DIRECTION ( 'NONE',  ( 0.000000000000000000, 0.000000000000000000, -1.000000000000000000 ) ) ;
#193 = PRESENTATION_STYLE_ASSIGNMENT (( #155 ) ) ;
#194 = PRESENTATION_STYLE_ASSIGNMENT (( #48 ) ) ;
#195 = DIRECTION ( 'NONE',  ( -1.000000000000000000, 0.000000000000000000, 0.000000000000000000 ) ) ;
#196 = ORIENTED_EDGE ( 'NONE', *, *, #88, .T. ) ;
#197 = AXIS2_PLACEMENT_3D ( 'NONE', #17, #170, #243 ) ;
#198 = EDGE_LOOP ( 'NONE', ( #183, #129, #118, #153 ) ) ;
#199 = SURFACE_STYLE_FILL_AREA ( #117 ) ;
#200 = EDGE_LOOP ( 'NONE', ( #116, #5, #240, #96 ) ) ;
#201 = APPLICATION_PROTOCOL_DEFINITION ( 'draft international standard', 'automotive_design', 1998, #135 ) ;
#202 = SURFACE_SIDE_STYLE ('',( #199 ) ) ;
#203 = AXIS2_PLACEMENT_3D ( 'NONE', #122, #7, #250 ) ;
#204 = MECHANICAL_DESIGN_GEOMETRIC_PRESENTATION_REPRESENTATION (  '', ( #149 ), #222 ) ;
#205 =( NAMED_UNIT ( * ) PLANE_ANGLE_UNIT ( ) SI_UNIT ( $, .RADIAN. ) );
#206 = PRODUCT_DEFINITION_CONTEXT ( 'detailed design', #176, 'design' ) ;
#207 = DIRECTION ( 'NONE',  ( -3.061616997868382402E-17, -1.000000000000000000, 0.000000000000000000 ) ) ;
#208 = EDGE_CURVE ( 'NONE', #103, #267, #277, .T. ) ;
#209 = LINE ( 'NONE', #231, #166 ) ;
#210 = CARTESIAN_POINT ( 'NONE',  ( -5.000000000000000000, 15.00000000000000000, 0.000000000000000000 ) ) ;
#211 = CARTESIAN_POINT ( 'NONE',  ( 1.469576158976823750E-15, 63.00000000000000000, 0.000000000000000000 ) ) ;
#212 = EDGE_CURVE ( 'NONE', #114, #51, #214, .T. ) ;
#213 =( NAMED_UNIT ( * ) PLANE_ANGLE_UNIT ( ) SI_UNIT ( $, .RADIAN. ) );
#214 = CIRCLE ( 'NONE', #6, 5.000000000000000000 ) ;
#215 = FACE_OUTER_BOUND ( 'NONE', #245, .T. ) ;
#216 = SURFACE_SIDE_STYLE ('',( #71 ) ) ;
#217 = ADVANCED_FACE ( 'NONE', ( #84 ), #249, .T. ) ;
#218 = DIRECTION ( 'NONE',  ( 3.061616997868382402E-17, 1.000000000000000000, -0.000000000000000000 ) ) ;
#219 =( LENGTH_UNIT ( ) NAMED_UNIT ( * ) SI_UNIT ( .MILLI., .METRE. ) );
#220 = ORIENTED_EDGE ( 'NONE', *, *, #228, .T. ) ;
#221 = AXIS2_PLACEMENT_3D ( 'NONE', #164, #83, #36 ) ;
#222 =( GEOMETRIC_REPRESENTATION_CONTEXT ( 3 ) GLOBAL_UNCERTAINTY_ASSIGNED_CONTEXT ( ( #140 ) ) GLOBAL_UNIT_ASSIGNED_CONTEXT ( ( #125, #213, #232 ) ) REPRESENTATION_CONTEXT ( 'NONE', 'WORKASPACE' ) );
#223 = FILL_AREA_STYLE_COLOUR ( '', #108 ) ;
#224 = EDGE_LOOP ( 'NONE', ( #132, #178 ) ) ;
#225 = DIRECTION ( 'NONE',  ( 0.000000000000000000, -0.000000000000000000, 1.000000000000000000 ) ) ;
#226 = ORIENTED_EDGE ( 'NONE', *, *, #208, .T. ) ;
#227 =( GEOMETRIC_REPRESENTATION_CONTEXT ( 3 ) GLOBAL_UNCERTAINTY_ASSIGNED_CONTEXT ( ( #13 ) ) GLOBAL_UNIT_ASSIGNED_CONTEXT ( ( #266, #286, #174 ) ) REPRESENTATION_CONTEXT ( 'NONE', 'WORKASPACE' ) );
#228 = EDGE_CURVE ( 'NONE', #263, #267, #272, .T. ) ;
#229 = COLOUR_RGB ( '',0.7921568627450980005, 0.8196078431372548767, 0.9333333333333333481 ) ;
#230 = FILL_AREA_STYLE ('',( #138 ) ) ;
#231 = CARTESIAN_POINT ( 'NONE',  ( 0.000000000000000000, 0.000000000000000000, -5.000000000000000000 ) ) ;
#232 =( NAMED_UNIT ( * ) SI_UNIT ( $, .STERADIAN. ) SOLID_ANGLE_UNIT ( ) );
#233 = ADVANCED_FACE ( 'NONE', ( #58 ), #64, .F. ) ;
#234 = STYLED_ITEM ( 'NONE', ( #72 ), #130 ) ;
#235 = PRODUCT_CONTEXT ( 'NONE', #135, 'mechanical' ) ;
#236 = SURFACE_STYLE_USAGE ( .BOTH. , #216 ) ;
#237 = FILL_AREA_STYLE ('',( #282 ) ) ;
#238 = STYLED_ITEM ( 'NONE', ( #194 ), #185 ) ;
#239 = PRODUCT_DEFINITION_FORMATION_WITH_SPECIFIED_SOURCE ( 'ANY', '', #27, .NOT_KNOWN. ) ;
#240 = ORIENTED_EDGE ( 'NONE', *, *, #107, .F. ) ;
#241 = FILL_AREA_STYLE ('',( #261 ) ) ;
#242 = ORIENTED_EDGE ( 'NONE', *, *, #258, .T. ) ;
#243 = DIRECTION ( 'NONE',  ( 1.000000000000000000, 0.000000000000000000, 0.000000000000000000 ) ) ;
#244 = PLANE ( 'NONE',  #260 ) ;
#245 = EDGE_LOOP ( 'NONE', ( #242, #55, #25, #270 ) ) ;
#246 = DIRECTION ( 'NONE',  ( 3.061616997868382402E-17, 1.000000000000000000, -0.000000000000000000 ) ) ;
#247 =( NAMED_UNIT ( * ) SI_UNIT ( $, .STERADIAN. ) SOLID_ANGLE_UNIT ( ) );
#248 = VERTEX_POINT ( 'NONE', #142 ) ;
#249 = CYLINDRICAL_SURFACE ( 'NONE', #82, 4.999999999999999112 ) ;
#250 = DIRECTION ( 'NONE',  ( -1.000000000000000000, 0.000000000000000000, 0.000000000000000000 ) ) ;
#251 = STYLED_ITEM ( 'NONE', ( #193 ), #154 ) ;
#252 = AXIS2_PLACEMENT_3D ( 'NONE', #211, #102, #180 ) ;
#253 = SURFACE_STYLE_FILL_AREA ( #230 ) ;
#254 = DIRECTION ( 'NONE',  ( -0.000000000000000000, -1.000000000000000000, -0.000000000000000000 ) ) ;
#255 = MANIFOLD_SOLID_BREP ( 'Revolve - Cutting Edge', #173 ) ;
#256 = EDGE_CURVE ( 'NONE', #267, #103, #161, .T. ) ;
#257 = AXIS2_PLACEMENT_3D ( 'NONE', #9, #275, #147 ) ;
#258 = EDGE_CURVE ( 'NONE', #263, #98, #126, .T. ) ;
#259 = FILL_AREA_STYLE_COLOUR ( '', #93 ) ;
#260 = AXIS2_PLACEMENT_3D ( 'NONE', #49, #1, #76 ) ;
#261 = FILL_AREA_STYLE_COLOUR ( '', #268 ) ;
#262 = CARTESIAN_POINT ( 'NONE',  ( 2.343374660409151486E-33, 15.00000000000000000, 0.000000000000000000 ) ) ;
#263 = VERTEX_POINT ( 'NONE', #210 ) ;
#264 =( NAMED_UNIT ( * ) PLANE_ANGLE_UNIT ( ) SI_UNIT ( $, .RADIAN. ) );
#265 = CARTESIAN_POINT ( 'NONE',  ( 6.123233995736766282E-16, 0.000000000000000000, 5.000000000000000000 ) ) ;
#266 =( LENGTH_UNIT ( ) NAMED_UNIT ( * ) SI_UNIT ( .MILLI., .METRE. ) );
#267 = VERTEX_POINT ( 'NONE', #163 ) ;
#268 = COLOUR_RGB ( '',0.7921568627450980005, 0.8196078431372548767, 0.9333333333333333481 ) ;
#269 = PRESENTATION_STYLE_ASSIGNMENT (( #54 ) ) ;
#270 = ORIENTED_EDGE ( 'NONE', *, *, #228, .F. ) ;
#271 = LINE ( 'NONE', #59, #190 ) ;
#272 = LINE ( 'NONE', #121, #75 ) ;
#273 = MECHANICAL_DESIGN_GEOMETRIC_PRESENTATION_REPRESENTATION (  '', ( #65 ), #77 ) ;
#274 = DIRECTION ( 'NONE',  ( -1.000000000000000000, 0.000000000000000000, 0.000000000000000000 ) ) ;
#275 = DIRECTION ( 'NONE',  ( -0.000000000000000000, -1.000000000000000000, -0.000000000000000000 ) ) ;
#276 = STYLED_ITEM ( 'NONE', ( #269 ), #167 ) ;
#277 = CIRCLE ( 'NONE', #252, 4.999999999999998224 ) ;
#278 = CYLINDRICAL_SURFACE ( 'NONE', #179, 5.000000000000000000 ) ;
#279 = PRODUCT_DEFINITION_SHAPE ( 'NONE', 'NONE',  #189 ) ;
#280 = PRESENTATION_LAYER_ASSIGNMENT (  '', '', ( #251 ) ) ;
#281 =( NAMED_UNIT ( * ) PLANE_ANGLE_UNIT ( ) SI_UNIT ( $, .RADIAN. ) );
#282 = FILL_AREA_STYLE_COLOUR ( '', #86 ) ;
#283 =( GEOMETRIC_REPRESENTATION_CONTEXT ( 3 ) GLOBAL_UNCERTAINTY_ASSIGNED_CONTEXT ( ( #159 ) ) GLOBAL_UNIT_ASSIGNED_CONTEXT ( ( #111, #281, #44 ) ) REPRESENTATION_CONTEXT ( 'NONE', 'WORKASPACE' ) );
#284 = EDGE_CURVE ( 'NONE', #98, #103, #37, .T. ) ;
#285 = ORIENTED_EDGE ( 'NONE', *, *, #61, .T. ) ;
#286 =( NAMED_UNIT ( * ) PLANE_ANGLE_UNIT ( ) SI_UNIT ( $, .RADIAN. ) );
#287 = EDGE_LOOP ( 'NONE', ( #57, #226 ) ) ;
#288 =( NAMED_UNIT ( * ) SI_UNIT ( $, .STERADIAN. ) SOLID_ANGLE_UNIT ( ) );
ENDSEC;
END-ISO-10303-21;
