ISO-10303-21;
HEADER;
FILE_DESCRIPTION (( 'STEP AP214' ),
    '1' );
FILE_NAME ('Micro_RDB-70.STEP',
    '2021-08-31T17:00:20',
    ( '' ),
    ( '' ),
    'SwSTEP 2.0',
    'SolidWorks 2020',
    '' );
FILE_SCHEMA (( 'AUTOMOTIVE_DESIGN' ));
ENDSEC;

DATA;
#1 = AXIS2_PLACEMENT_3D ( 'NONE', #283, #122, #3 ) ;
#2 = DIRECTION ( 'NONE',  ( -0.0000000000000000000, -0.0000000000000000000, -1.000000000000000000 ) ) ;
#3 = DIRECTION ( 'NONE',  ( -1.000000000000000000, 0.0000000000000000000, 0.0000000000000000000 ) ) ;
#4 = DIRECTION ( 'NONE',  ( 1.000000000000000000, 0.0000000000000000000, 0.0000000000000000000 ) ) ;
#5 = CARTESIAN_POINT ( 'NONE',  ( 0.1250000000000000833, 1.530808498934192433E-17, 0.7507089102274521197 ) ) ;
#6 = AXIS2_PLACEMENT_3D ( 'NONE', #256, #207, #226 ) ;
#7 = CARTESIAN_POINT ( 'NONE',  ( 0.0000000000000000000, 0.0000000000000000000, 0.0000000000000000000 ) ) ;
#8 = DIRECTION ( 'NONE',  ( -1.224646799147353207E-16, -0.0000000000000000000, -1.000000000000000000 ) ) ;
#9 = EDGE_CURVE ( 'NONE', #218, #114, #134, .T. ) ;
#10 = EDGE_CURVE ( 'NONE', #218, #119, #30, .T. ) ;
#11 = CARTESIAN_POINT ( 'NONE',  ( 9.184850993605150903E-17, 0.0000000000000000000, 0.7500000000000001110 ) ) ;
#12 = EDGE_CURVE ( 'NONE', #114, #218, #280, .T. ) ;
#13 = AXIS2_PLACEMENT_3D ( 'NONE', #232, #260, #42 ) ;
#14 = ORIENTED_EDGE ( 'NONE', *, *, #170, .T. ) ;
#15 = EDGE_CURVE ( 'NONE', #114, #174, #242, .T. ) ;
#16 = EDGE_LOOP ( 'NONE', ( #113, #287, #79, #131 ) ) ;
#17 = ORIENTED_EDGE ( 'NONE', *, *, #297, .F. ) ;
#18 = PRODUCT ( 'Micro_RDB-70', 'Micro_RDB-70', '', ( #262 ) ) ;
#19 = CLOSED_SHELL ( 'NONE', ( #249, #275, #132, #237, #100, #151, #182, #118, #197, #89 ) ) ;
#20 = EDGE_LOOP ( 'NONE', ( #86, #14, #94, #220 ) ) ;
#21 = AXIS2_PLACEMENT_3D ( 'NONE', #212, #36, #250 ) ;
#22 = ORIENTED_EDGE ( 'NONE', *, *, #15, .F. ) ;
#23 = DIRECTION ( 'NONE',  ( 1.000000000000000000, 0.0000000000000000000, 0.0000000000000000000 ) ) ;
#24 = LENGTH_MEASURE_WITH_UNIT ( LENGTH_MEASURE( 0.02539999999999999897 ), #201 );
#25 = LENGTH_MEASURE_WITH_UNIT ( LENGTH_MEASURE( 0.02539999999999999897 ), #162 );
#26 = DIMENSIONAL_EXPONENTS ( 1.000000000000000000, 0.0000000000000000000, 0.0000000000000000000, 0.0000000000000000000, 0.0000000000000000000, 0.0000000000000000000, 0.0000000000000000000 ) ;
#27 = COLOUR_RGB ( '',0.7921568627450980005, 0.8196078431372548767, 0.9333333333333333481 ) ;
#28 = VERTEX_POINT ( 'NONE', #271 ) ;
#29 = EDGE_CURVE ( 'NONE', #28, #176, #205, .T. ) ;
#30 = LINE ( 'NONE', #181, #285 ) ;
#31 = PRODUCT_DEFINITION_CONTEXT ( 'detailed design', #98, 'design' ) ;
#32 = VERTEX_POINT ( 'NONE', #49 ) ;
#33 = CONICAL_SURFACE ( 'NONE', #294, 0.1248750000000000276, 0.1745329251994337805 ) ;
#34 = DIRECTION ( 'NONE',  ( -1.224646799147353207E-16, -0.0000000000000000000, -1.000000000000000000 ) ) ;
#35 = DIRECTION ( 'NONE',  ( 1.000000000000000000, 0.0000000000000000000, -0.0000000000000000000 ) ) ;
#36 = DIRECTION ( 'NONE',  ( -1.224646799147353207E-16, -0.0000000000000000000, -1.000000000000000000 ) ) ;
#37 = CARTESIAN_POINT ( 'NONE',  ( -0.1250000000000000000, 0.0000000000000000000, 2.500000000000000000 ) ) ;
#38 = EDGE_CURVE ( 'NONE', #174, #119, #156, .T. ) ;
#39 = AXIS2_PLACEMENT_3D ( 'NONE', #58, #147, #209 ) ;
#40 = CARTESIAN_POINT ( 'NONE',  ( 0.0000000000000000000, 0.0000000000000000000, 2.500000000000000000 ) ) ;
#41 = EDGE_CURVE ( 'NONE', #28, #233, #293, .T. ) ;
#42 = DIRECTION ( 'NONE',  ( -1.000000000000000000, 0.0000000000000000000, 1.224646799147353207E-16 ) ) ;
#43 = ORIENTED_EDGE ( 'NONE', *, *, #297, .T. ) ;
#44 = EDGE_CURVE ( 'NONE', #174, #233, #76, .T. ) ;
#45 = AXIS2_PLACEMENT_3D ( 'NONE', #257, #8, #253 ) ;
#46 = ORIENTED_EDGE ( 'NONE', *, *, #258, .T. ) ;
#47 = ORIENTED_EDGE ( 'NONE', *, *, #279, .F. ) ;
#48 = VECTOR ( 'NONE', #61, 39.37007874015748854 ) ;
#49 = CARTESIAN_POINT ( 'NONE',  ( -0.1249999999999999167, 0.0000000000000000000, 0.7507089102274521197 ) ) ;
#50 = CARTESIAN_POINT ( 'NONE',  ( 0.1248750000000001109, 0.0000000000000000000, 0.7500000000000001110 ) ) ;
#51 = CIRCLE ( 'NONE', #246, 0.1250000000000000000 ) ;
#52 = CARTESIAN_POINT ( 'NONE',  ( 0.1100000000000001948, 1.347111479062090784E-17, 2.500000000000000000 ) ) ;
#53 = ORIENTED_EDGE ( 'NONE', *, *, #44, .T. ) ;
#54 =( LENGTH_UNIT ( ) NAMED_UNIT ( * ) SI_UNIT ( $, .METRE. ) );
#55 = CARTESIAN_POINT ( 'NONE',  ( -0.1248749999999999444, 1.529277690435257783E-17, 0.7500000000000001110 ) ) ;
#56 = APPLICATION_CONTEXT ( 'automotive_design' ) ;
#57 = VECTOR ( 'NONE', #243, 39.37007874015748143 ) ;
#58 = CARTESIAN_POINT ( 'NONE',  ( 0.0000000000000000000, 0.0000000000000000000, 0.0000000000000000000 ) ) ;
#59 = LINE ( 'NONE', #37, #108 ) ;
#60 = EDGE_CURVE ( 'NONE', #176, #91, #164, .T. ) ;
#61 = DIRECTION ( 'NONE',  ( -0.1736481776669310528, 2.126576849575781776E-17, 0.9848077530122080203 ) ) ;
#62 = PRESENTATION_STYLE_ASSIGNMENT (( #148 ) ) ;
#63 = AXIS2_PLACEMENT_3D ( 'NONE', #117, #185, #270 ) ;
#64 = DIRECTION ( 'NONE',  ( -1.000000000000000000, 0.0000000000000000000, 0.0000000000000000000 ) ) ;
#65 = EDGE_LOOP ( 'NONE', ( #214, #72, #222, #133 ) ) ;
#66 = AXIS2_PLACEMENT_3D ( 'NONE', #278, #82, #227 ) ;
#67 = VECTOR ( 'NONE', #276, 39.37007874015748143 ) ;
#68 = DIRECTION ( 'NONE',  ( 1.000000000000000000, 0.0000000000000000000, 0.0000000000000000000 ) ) ;
#69 = PRESENTATION_LAYER_ASSIGNMENT (  '', '', ( #121 ) ) ;
#70 = CARTESIAN_POINT ( 'NONE',  ( 9.193532640014470902E-17, 0.0000000000000000000, 0.7507089102274521197 ) ) ;
#71 = APPLICATION_PROTOCOL_DEFINITION ( 'draft international standard', 'automotive_design', 1998, #56 ) ;
#72 = ORIENTED_EDGE ( 'NONE', *, *, #38, .T. ) ;
#73 = AXIS2_PLACEMENT_3D ( 'NONE', #40, #2, #107 ) ;
#74 = CARTESIAN_POINT ( 'NONE',  ( 0.0000000000000000000, 0.0000000000000000000, 2.500000000000000000 ) ) ;
#75 = DIRECTION ( 'NONE',  ( 0.1736481776669312749, 0.0000000000000000000, 0.9848077530122077983 ) ) ;
#76 = LINE ( 'NONE', #136, #67 ) ;
#77 = STYLED_ITEM ( 'NONE', ( #292 ), #78 ) ;
#78 = MANIFOLD_SOLID_BREP ( 'Cut-Revolve1', #19 ) ;
#79 = ORIENTED_EDGE ( 'NONE', *, *, #195, .F. ) ;
#80 = DIRECTION ( 'NONE',  ( 0.0000000000000000000, 0.0000000000000000000, 1.000000000000000000 ) ) ;
#81 = DIRECTION ( 'NONE',  ( -1.224646799147353207E-16, -0.0000000000000000000, -1.000000000000000000 ) ) ;
#82 = DIRECTION ( 'NONE',  ( 0.0000000000000000000, 0.0000000000000000000, 1.000000000000000000 ) ) ;
#83 = CARTESIAN_POINT ( 'NONE',  ( 0.0000000000000000000, 0.0000000000000000000, 2.500000000000000000 ) ) ;
#84 = DIRECTION ( 'NONE',  ( -1.000000000000000000, 0.0000000000000000000, 0.0000000000000000000 ) ) ;
#85 =( GEOMETRIC_REPRESENTATION_CONTEXT ( 3 ) GLOBAL_UNCERTAINTY_ASSIGNED_CONTEXT ( ( #206 ) ) GLOBAL_UNIT_ASSIGNED_CONTEXT ( ( #189, #129, #244 ) ) REPRESENTATION_CONTEXT ( 'NONE', 'WORKASPACE' ) );
#86 = ORIENTED_EDGE ( 'NONE', *, *, #29, .F. ) ;
#87 = DIRECTION ( 'NONE',  ( 1.224646799147353207E-16, 0.0000000000000000000, 1.000000000000000000 ) ) ;
#88 = DIRECTION ( 'NONE',  ( 0.0000000000000000000, 0.0000000000000000000, 1.000000000000000000 ) ) ;
#89 = ADVANCED_FACE ( 'NONE', ( #140 ), #115, .F. ) ;
#90 = CIRCLE ( 'NONE', #186, 0.1250000000000000000 ) ;
#91 = VERTEX_POINT ( 'NONE', #120 ) ;
#92 = DIRECTION ( 'NONE',  ( -1.224646799147353207E-16, -0.0000000000000000000, -1.000000000000000000 ) ) ;
#93 = ORIENTED_EDGE ( 'NONE', *, *, #10, .T. ) ;
#94 = ORIENTED_EDGE ( 'NONE', *, *, #224, .T. ) ;
#95 = FILL_AREA_STYLE ('',( #166 ) ) ;
#96 = CONICAL_SURFACE ( 'NONE', #180, 0.1100000000000001948, 0.7853981633974517207 ) ;
#97 = DIRECTION ( 'NONE',  ( 1.000000000000000000, 0.0000000000000000000, 0.0000000000000000000 ) ) ;
#98 = APPLICATION_CONTEXT ( 'automotive_design' ) ;
#99 = ORIENTED_EDGE ( 'NONE', *, *, #12, .T. ) ;
#100 = ADVANCED_FACE ( 'NONE', ( #187 ), #104, .T. ) ;
#101 = SURFACE_STYLE_FILL_AREA ( #95 ) ;
#102 = DIRECTION ( 'NONE',  ( 0.0000000000000000000, 0.0000000000000000000, -1.000000000000000000 ) ) ;
#103 = CARTESIAN_POINT ( 'NONE',  ( -0.1100000000000001948, 0.0000000000000000000, 2.500000000000000000 ) ) ;
#104 = CYLINDRICAL_SURFACE ( 'NONE', #175, 0.1250000000000000000 ) ;
#105 = AXIS2_PLACEMENT_3D ( 'NONE', #171, #81, #153 ) ;
#106 = LINE ( 'NONE', #55, #48 ) ;
#107 = DIRECTION ( 'NONE',  ( -1.000000000000000000, 0.0000000000000000000, 0.0000000000000000000 ) ) ;
#108 = VECTOR ( 'NONE', #126, 39.37007874015748143 ) ;
#109 = ORIENTED_EDGE ( 'NONE', *, *, #38, .F. ) ;
#110 = ORIENTED_EDGE ( 'NONE', *, *, #235, .F. ) ;
#111 = PRODUCT_RELATED_PRODUCT_CATEGORY ( 'part', '', ( #18 ) ) ;
#112 = VECTOR ( 'NONE', #75, 39.37007874015748143 ) ;
#113 = ORIENTED_EDGE ( 'NONE', *, *, #12, .F. ) ;
#114 = VERTEX_POINT ( 'NONE', #167 ) ;
#115 = PLANE ( 'NONE',  #191 ) ;
#116 =( NAMED_UNIT ( * ) PLANE_ANGLE_UNIT ( ) SI_UNIT ( $, .RADIAN. ) );
#117 = CARTESIAN_POINT ( 'NONE',  ( 0.0000000000000000000, 0.0000000000000000000, 2.500000000000000000 ) ) ;
#118 = ADVANCED_FACE ( 'NONE', ( #190 ), #33, .T. ) ;
#119 = VERTEX_POINT ( 'NONE', #251 ) ;
#120 = CARTESIAN_POINT ( 'NONE',  ( -0.1248749999999999999, 0.0000000000000000000, 3.058555380870514950E-17 ) ) ;
#121 = STYLED_ITEM ( 'NONE', ( #62 ), #173 ) ;
#122 = DIRECTION ( 'NONE',  ( -1.224646799147353207E-16, -0.0000000000000000000, -1.000000000000000000 ) ) ;
#123 = CARTESIAN_POINT ( 'NONE',  ( -0.1248750000000000276, 0.0000000000000000000, 1.529277690435257783E-17 ) ) ;
#124 = LENGTH_MEASURE_WITH_UNIT ( LENGTH_MEASURE( 0.02539999999999999897 ), #54 );
#125 = CARTESIAN_POINT ( 'NONE',  ( 0.0000000000000000000, 0.0000000000000000000, 2.485000000000000320 ) ) ;
#126 = DIRECTION ( 'NONE',  ( -0.0000000000000000000, -0.0000000000000000000, -1.000000000000000000 ) ) ;
#127 = AXIS2_PLACEMENT_3D ( 'NONE', #177, #88, #68 ) ;
#128 = FACE_OUTER_BOUND ( 'NONE', #155, .T. ) ;
#129 =( NAMED_UNIT ( * ) PLANE_ANGLE_UNIT ( ) SI_UNIT ( $, .RADIAN. ) );
#130 = ORIENTED_EDGE ( 'NONE', *, *, #258, .F. ) ;
#131 = ORIENTED_EDGE ( 'NONE', *, *, #10, .F. ) ;
#132 = ADVANCED_FACE ( 'NONE', ( #168 ), #96, .T. ) ;
#133 = ORIENTED_EDGE ( 'NONE', *, *, #163, .F. ) ;
#134 = CIRCLE ( 'NONE', #63, 0.1100000000000001948 ) ;
#135 = ORIENTED_EDGE ( 'NONE', *, *, #41, .T. ) ;
#136 = CARTESIAN_POINT ( 'NONE',  ( 0.1250000000000000000, 1.530808498934191509E-17, 2.500000000000000000 ) ) ;
#137 = FILL_AREA_STYLE_COLOUR ( '', #240 ) ;
#138 = SURFACE_STYLE_USAGE ( .BOTH. , #202 ) ;
#139 = CONICAL_SURFACE ( 'NONE', #6, 0.1100000000000001948, 0.7853981633974517207 ) ;
#140 = FACE_OUTER_BOUND ( 'NONE', #217, .T. ) ;
#141 =( CONVERSION_BASED_UNIT ( 'INCH', #25 ) LENGTH_UNIT ( ) NAMED_UNIT ( #239 ) );
#142 = PRODUCT_DEFINITION ( 'UNKNOWN', '', #295, #31 ) ;
#143 = UNCERTAINTY_MEASURE_WITH_UNIT (LENGTH_MEASURE( 1.000000000000000082E-05 ), #268, 'distance_accuracy_value', 'NONE');
#144 = DIRECTION ( 'NONE',  ( 0.0000000000000000000, 0.0000000000000000000, 1.000000000000000000 ) ) ;
#145 = FACE_OUTER_BOUND ( 'NONE', #20, .T. ) ;
#146 = SURFACE_SIDE_STYLE ('',( #272 ) ) ;
#147 = DIRECTION ( 'NONE',  ( -1.224646799147353207E-16, -0.0000000000000000000, -1.000000000000000000 ) ) ;
#148 = SURFACE_STYLE_USAGE ( .BOTH. , #146 ) ;
#149 = DIRECTION ( 'NONE',  ( -0.0000000000000000000, -0.0000000000000000000, -1.000000000000000000 ) ) ;
#150 = CARTESIAN_POINT ( 'NONE',  ( 0.1250000000000000000, 1.530808498934191509E-17, 2.485000000000000320 ) ) ;
#151 = ADVANCED_FACE ( 'NONE', ( #281 ), #188, .T. ) ;
#152 = AXIS2_PLACEMENT_3D ( 'NONE', #11, #87, #97 ) ;
#153 = DIRECTION ( 'NONE',  ( 1.000000000000000000, 0.0000000000000000000, 0.0000000000000000000 ) ) ;
#154 = ORIENTED_EDGE ( 'NONE', *, *, #279, .T. ) ;
#155 = EDGE_LOOP ( 'NONE', ( #22, #157, #93, #109 ) ) ;
#156 = CIRCLE ( 'NONE', #211, 0.1250000000000000000 ) ;
#157 = ORIENTED_EDGE ( 'NONE', *, *, #9, .F. ) ;
#158 =( NAMED_UNIT ( * ) PLANE_ANGLE_UNIT ( ) SI_UNIT ( $, .RADIAN. ) );
#159 = MECHANICAL_DESIGN_GEOMETRIC_PRESENTATION_REPRESENTATION (  '', ( #77 ), #219 ) ;
#160 = ORIENTED_EDGE ( 'NONE', *, *, #192, .F. ) ;
#161 = ORIENTED_EDGE ( 'NONE', *, *, #41, .F. ) ;
#162 =( LENGTH_UNIT ( ) NAMED_UNIT ( * ) SI_UNIT ( $, .METRE. ) );
#163 = EDGE_CURVE ( 'NONE', #233, #32, #259, .T. ) ;
#164 = CIRCLE ( 'NONE', #229, 0.1248749999999999999 ) ;
#165 = DIRECTION ( 'NONE',  ( -1.224646799147353207E-16, -0.0000000000000000000, -1.000000000000000000 ) ) ;
#166 = FILL_AREA_STYLE_COLOUR ( '', #27 ) ;
#167 = CARTESIAN_POINT ( 'NONE',  ( 0.1100000000000001948, 1.438959988998141146E-17, 2.500000000000000000 ) ) ;
#168 = FACE_OUTER_BOUND ( 'NONE', #16, .T. ) ;
#169 = CARTESIAN_POINT ( 'NONE',  ( 9.184850993605150903E-17, 0.0000000000000000000, 0.7500000000000001110 ) ) ;
#170 = EDGE_CURVE ( 'NONE', #28, #199, #264, .T. ) ;
#171 = CARTESIAN_POINT ( 'NONE',  ( 9.193532640014470902E-17, 0.0000000000000000000, 0.7507089102274521197 ) ) ;
#172 = ORIENTED_EDGE ( 'NONE', *, *, #192, .T. ) ;
#173 = ADVANCED_BREP_SHAPE_REPRESENTATION ( 'Micro_RDB-70', ( #78, #127 ), #85 ) ;
#174 = VERTEX_POINT ( 'NONE', #150 ) ;
#175 = AXIS2_PLACEMENT_3D ( 'NONE', #208, #149, #64 ) ;
#176 = VERTEX_POINT ( 'NONE', #230 ) ;
#177 = CARTESIAN_POINT ( 'NONE',  ( 0.0000000000000000000, 0.0000000000000000000, 0.0000000000000000000 ) ) ;
#178 = EDGE_LOOP ( 'NONE', ( #43, #216, #47, #286 ) ) ;
#179 = DIRECTION ( 'NONE',  ( 0.0000000000000000000, 0.0000000000000000000, -1.000000000000000000 ) ) ;
#180 = AXIS2_PLACEMENT_3D ( 'NONE', #83, #102, #84 ) ;
#181 = CARTESIAN_POINT ( 'NONE',  ( -0.1100000000000001948, 0.0000000000000000000, 2.500000000000000000 ) ) ;
#182 = ADVANCED_FACE ( 'NONE', ( #128 ), #139, .T. ) ;
#183 = FILL_AREA_STYLE ('',( #137 ) ) ;
#184 = DIMENSIONAL_EXPONENTS ( 1.000000000000000000, 0.0000000000000000000, 0.0000000000000000000, 0.0000000000000000000, 0.0000000000000000000, 0.0000000000000000000, 0.0000000000000000000 ) ;
#185 = DIRECTION ( 'NONE',  ( 0.0000000000000000000, 0.0000000000000000000, 1.000000000000000000 ) ) ;
#186 = AXIS2_PLACEMENT_3D ( 'NONE', #125, #194, #213 ) ;
#187 = FACE_OUTER_BOUND ( 'NONE', #65, .T. ) ;
#188 = PLANE ( 'NONE',  #66 ) ;
#189 =( CONVERSION_BASED_UNIT ( 'INCH', #124 ) LENGTH_UNIT ( ) NAMED_UNIT ( #26 ) );
#190 = FACE_OUTER_BOUND ( 'NONE', #198, .T. ) ;
#191 = AXIS2_PLACEMENT_3D ( 'NONE', #7, #80, #35 ) ;
#192 = EDGE_CURVE ( 'NONE', #199, #32, #106, .T. ) ;
#193 = PRODUCT_DEFINITION_SHAPE ( 'NONE', 'NONE',  #142 ) ;
#194 = DIRECTION ( 'NONE',  ( 0.0000000000000000000, 0.0000000000000000000, -1.000000000000000000 ) ) ;
#195 = EDGE_CURVE ( 'NONE', #119, #174, #90, .T. ) ;
#196 = FACE_OUTER_BOUND ( 'NONE', #178, .T. ) ;
#197 = ADVANCED_FACE ( 'NONE', ( #145 ), #282, .T. ) ;
#198 = EDGE_LOOP ( 'NONE', ( #160, #269, #135, #289 ) ) ;
#199 = VERTEX_POINT ( 'NONE', #225 ) ;
#200 = CIRCLE ( 'NONE', #1, 0.1248750000000000276 ) ;
#201 =( LENGTH_UNIT ( ) NAMED_UNIT ( * ) SI_UNIT ( $, .METRE. ) );
#202 = SURFACE_SIDE_STYLE ('',( #101 ) ) ;
#203 = CIRCLE ( 'NONE', #21, 0.1248749999999999999 ) ;
#204 = DIRECTION ( 'NONE',  ( -0.7071067811865499042, 0.0000000000000000000, -0.7071067811865451302 ) ) ;
#205 = LINE ( 'NONE', #223, #234 ) ;
#206 = UNCERTAINTY_MEASURE_WITH_UNIT (LENGTH_MEASURE( 1.000000000000000082E-05 ), #189, 'distance_accuracy_value', 'NONE');
#207 = DIRECTION ( 'NONE',  ( 0.0000000000000000000, 0.0000000000000000000, -1.000000000000000000 ) ) ;
#208 = CARTESIAN_POINT ( 'NONE',  ( 0.0000000000000000000, 0.0000000000000000000, 2.500000000000000000 ) ) ;
#209 = DIRECTION ( 'NONE',  ( -1.000000000000000000, 0.0000000000000000000, 1.224646799147353207E-16 ) ) ;
#210 = FACE_OUTER_BOUND ( 'NONE', #291, .T. ) ;
#211 = AXIS2_PLACEMENT_3D ( 'NONE', #245, #179, #23 ) ;
#212 = CARTESIAN_POINT ( 'NONE',  ( 1.872825028598994811E-33, 0.0000000000000000000, 1.529277690435257475E-17 ) ) ;
#213 = DIRECTION ( 'NONE',  ( 1.000000000000000000, 0.0000000000000000000, 0.0000000000000000000 ) ) ;
#214 = ORIENTED_EDGE ( 'NONE', *, *, #44, .F. ) ;
#215 = VECTOR ( 'NONE', #34, 39.37007874015748143 ) ;
#216 = ORIENTED_EDGE ( 'NONE', *, *, #29, .T. ) ;
#217 = EDGE_LOOP ( 'NONE', ( #154, #231 ) ) ;
#218 = VERTEX_POINT ( 'NONE', #103 ) ;
#219 =( GEOMETRIC_REPRESENTATION_CONTEXT ( 3 ) GLOBAL_UNCERTAINTY_ASSIGNED_CONTEXT ( ( #248 ) ) GLOBAL_UNIT_ASSIGNED_CONTEXT ( ( #141, #116, #296 ) ) REPRESENTATION_CONTEXT ( 'NONE', 'WORKASPACE' ) );
#220 = ORIENTED_EDGE ( 'NONE', *, *, #60, .F. ) ;
#221 = AXIS2_PLACEMENT_3D ( 'NONE', #74, #144, #273 ) ;
#222 = ORIENTED_EDGE ( 'NONE', *, *, #235, .T. ) ;
#223 = CARTESIAN_POINT ( 'NONE',  ( 0.1248750000000000276, 1.529277690435257783E-17, -1.529277690435257783E-17 ) ) ;
#224 = EDGE_CURVE ( 'NONE', #199, #91, #255, .T. ) ;
#225 = CARTESIAN_POINT ( 'NONE',  ( -0.1248749999999999444, 1.530043094684724646E-17, 0.7500000000000001110 ) ) ;
#226 = DIRECTION ( 'NONE',  ( -1.000000000000000000, 0.0000000000000000000, 0.0000000000000000000 ) ) ;
#227 = DIRECTION ( 'NONE',  ( 1.000000000000000000, 0.0000000000000000000, -0.0000000000000000000 ) ) ;
#228 = CYLINDRICAL_SURFACE ( 'NONE', #73, 0.1250000000000000000 ) ;
#229 = AXIS2_PLACEMENT_3D ( 'NONE', #299, #165, #247 ) ;
#230 = CARTESIAN_POINT ( 'NONE',  ( 0.1248749999999999999, 1.529277690435257475E-17, 1.895600338963814870E-33 ) ) ;
#231 = ORIENTED_EDGE ( 'NONE', *, *, #60, .T. ) ;
#232 = CARTESIAN_POINT ( 'NONE',  ( 0.0000000000000000000, 0.0000000000000000000, 0.0000000000000000000 ) ) ;
#233 = VERTEX_POINT ( 'NONE', #5 ) ;
#234 = VECTOR ( 'NONE', #298, 39.37007874015748143 ) ;
#235 = EDGE_CURVE ( 'NONE', #119, #32, #59, .T. ) ;
#236 = EDGE_LOOP ( 'NONE', ( #265, #99 ) ) ;
#237 = ADVANCED_FACE ( 'NONE', ( #210 ), #228, .T. ) ;
#238 = APPLICATION_PROTOCOL_DEFINITION ( 'draft international standard', 'automotive_design', 1998, #98 ) ;
#239 = DIMENSIONAL_EXPONENTS ( 1.000000000000000000, 0.0000000000000000000, 0.0000000000000000000, 0.0000000000000000000, 0.0000000000000000000, 0.0000000000000000000, 0.0000000000000000000 ) ;
#240 = COLOUR_RGB ( '',0.7921568627450980005, 0.8196078431372548767, 0.9333333333333333481 ) ;
#241 =( GEOMETRIC_REPRESENTATION_CONTEXT ( 3 ) GLOBAL_UNCERTAINTY_ASSIGNED_CONTEXT ( ( #143 ) ) GLOBAL_UNIT_ASSIGNED_CONTEXT ( ( #268, #158, #290 ) ) REPRESENTATION_CONTEXT ( 'NONE', 'WORKASPACE' ) );
#242 = LINE ( 'NONE', #52, #57 ) ;
#243 = DIRECTION ( 'NONE',  ( 0.7071067811865499042, 8.659560562354961208E-17, -0.7071067811865451302 ) ) ;
#244 =( NAMED_UNIT ( * ) SI_UNIT ( $, .STERADIAN. ) SOLID_ANGLE_UNIT ( ) );
#245 = CARTESIAN_POINT ( 'NONE',  ( 0.0000000000000000000, 0.0000000000000000000, 2.485000000000000320 ) ) ;
#246 = AXIS2_PLACEMENT_3D ( 'NONE', #70, #92, #288 ) ;
#247 = DIRECTION ( 'NONE',  ( -1.000000000000000000, 0.0000000000000000000, 1.224646799147353454E-16 ) ) ;
#248 = UNCERTAINTY_MEASURE_WITH_UNIT (LENGTH_MEASURE( 1.000000000000000082E-05 ), #141, 'distance_accuracy_value', 'NONE');
#249 = ADVANCED_FACE ( 'NONE', ( #196 ), #284, .T. ) ;
#250 = DIRECTION ( 'NONE',  ( -1.000000000000000000, 0.0000000000000000000, 1.224646799147353454E-16 ) ) ;
#251 = CARTESIAN_POINT ( 'NONE',  ( -0.1250000000000000000, 0.0000000000000000000, 2.485000000000000320 ) ) ;
#252 = PRESENTATION_LAYER_ASSIGNMENT (  '', '', ( #77 ) ) ;
#253 = DIRECTION ( 'NONE',  ( -1.000000000000000000, 0.0000000000000000000, 0.0000000000000000000 ) ) ;
#254 = MECHANICAL_DESIGN_GEOMETRIC_PRESENTATION_REPRESENTATION (  '', ( #121 ), #241 ) ;
#255 = LINE ( 'NONE', #123, #215 ) ;
#256 = CARTESIAN_POINT ( 'NONE',  ( 0.0000000000000000000, 0.0000000000000000000, 2.500000000000000000 ) ) ;
#257 = CARTESIAN_POINT ( 'NONE',  ( 9.184850993605150903E-17, 0.0000000000000000000, 0.7500000000000001110 ) ) ;
#258 = EDGE_CURVE ( 'NONE', #32, #233, #51, .T. ) ;
#259 = CIRCLE ( 'NONE', #105, 0.1250000000000000000 ) ;
#260 = DIRECTION ( 'NONE',  ( -1.224646799147353207E-16, -0.0000000000000000000, -1.000000000000000000 ) ) ;
#261 = ORIENTED_EDGE ( 'NONE', *, *, #195, .T. ) ;
#262 = PRODUCT_CONTEXT ( 'NONE', #56, 'mechanical' ) ;
#263 = SHAPE_DEFINITION_REPRESENTATION ( #193, #173 ) ;
#264 = CIRCLE ( 'NONE', #45, 0.1248750000000000276 ) ;
#265 = ORIENTED_EDGE ( 'NONE', *, *, #9, .T. ) ;
#266 = FACE_OUTER_BOUND ( 'NONE', #267, .T. ) ;
#267 = EDGE_LOOP ( 'NONE', ( #17, #172, #46, #161 ) ) ;
#268 =( CONVERSION_BASED_UNIT ( 'INCH', #24 ) LENGTH_UNIT ( ) NAMED_UNIT ( #184 ) );
#269 = ORIENTED_EDGE ( 'NONE', *, *, #170, .F. ) ;
#270 = DIRECTION ( 'NONE',  ( 1.000000000000000000, 0.0000000000000000000, 0.0000000000000000000 ) ) ;
#271 = CARTESIAN_POINT ( 'NONE',  ( 0.1248750000000001109, 0.0000000000000000000, 0.7500000000000001110 ) ) ;
#272 = SURFACE_STYLE_FILL_AREA ( #183 ) ;
#273 = DIRECTION ( 'NONE',  ( 1.000000000000000000, 0.0000000000000000000, 0.0000000000000000000 ) ) ;
#274 = CONICAL_SURFACE ( 'NONE', #152, 0.1248750000000000276, 0.1745329251994337805 ) ;
#275 = ADVANCED_FACE ( 'NONE', ( #266 ), #274, .T. ) ;
#276 = DIRECTION ( 'NONE',  ( -0.0000000000000000000, -0.0000000000000000000, -1.000000000000000000 ) ) ;
#277 = DIRECTION ( 'NONE',  ( 1.224646799147353207E-16, 0.0000000000000000000, 1.000000000000000000 ) ) ;
#278 = CARTESIAN_POINT ( 'NONE',  ( 0.0000000000000000000, 0.0000000000000000000, 2.500000000000000000 ) ) ;
#279 = EDGE_CURVE ( 'NONE', #91, #176, #203, .T. ) ;
#280 = CIRCLE ( 'NONE', #221, 0.1100000000000001948 ) ;
#281 = FACE_OUTER_BOUND ( 'NONE', #236, .T. ) ;
#282 = CYLINDRICAL_SURFACE ( 'NONE', #39, 0.1248750000000000276 ) ;
#283 = CARTESIAN_POINT ( 'NONE',  ( 9.184850993605150903E-17, 0.0000000000000000000, 0.7500000000000001110 ) ) ;
#284 = CYLINDRICAL_SURFACE ( 'NONE', #13, 0.1248750000000000276 ) ;
#285 = VECTOR ( 'NONE', #204, 39.37007874015748143 ) ;
#286 = ORIENTED_EDGE ( 'NONE', *, *, #224, .F. ) ;
#287 = ORIENTED_EDGE ( 'NONE', *, *, #15, .T. ) ;
#288 = DIRECTION ( 'NONE',  ( 1.000000000000000000, 0.0000000000000000000, 0.0000000000000000000 ) ) ;
#289 = ORIENTED_EDGE ( 'NONE', *, *, #163, .T. ) ;
#290 =( NAMED_UNIT ( * ) SI_UNIT ( $, .STERADIAN. ) SOLID_ANGLE_UNIT ( ) );
#291 = EDGE_LOOP ( 'NONE', ( #261, #53, #130, #110 ) ) ;
#292 = PRESENTATION_STYLE_ASSIGNMENT (( #138 ) ) ;
#293 = LINE ( 'NONE', #50, #112 ) ;
#294 = AXIS2_PLACEMENT_3D ( 'NONE', #169, #277, #4 ) ;
#295 = PRODUCT_DEFINITION_FORMATION_WITH_SPECIFIED_SOURCE ( 'ANY', '', #18, .NOT_KNOWN. ) ;
#296 =( NAMED_UNIT ( * ) SI_UNIT ( $, .STERADIAN. ) SOLID_ANGLE_UNIT ( ) );
#297 = EDGE_CURVE ( 'NONE', #199, #28, #200, .T. ) ;
#298 = DIRECTION ( 'NONE',  ( -1.224646799147353207E-16, -0.0000000000000000000, -1.000000000000000000 ) ) ;
#299 = CARTESIAN_POINT ( 'NONE',  ( 1.872825028598994811E-33, 0.0000000000000000000, 1.529277690435257475E-17 ) ) ;
ENDSEC;
END-ISO-10303-21;
