ISO-10303-21;
HEADER;
FILE_DESCRIPTION (( 'STEP AP214' ),
    '1' );
FILE_NAME ('01692.STEP',
    '2023-06-22T14:44:22',
    ( '' ),
    ( '' ),
    'SwSTEP 2.0',
    'SolidWorks 2023',
    '' );
FILE_SCHEMA (( 'AUTOMOTIVE_DESIGN' ));
ENDSEC;

DATA;
#1 = PRESENTATION_STYLE_ASSIGNMENT (( #284 ) ) ;
#2 = EDGE_CURVE ( 'NONE', #104, #139, #84, .T. ) ;
#3 = STYLED_ITEM ( 'NONE', ( #1 ), #8 ) ;
#4 =( CONVERSION_BASED_UNIT ( 'INCH', #240 ) LENGTH_UNIT ( ) NAMED_UNIT ( #203 ) );
#5 = EDGE_CURVE ( 'NONE', #208, #139, #287, .T. ) ;
#6 = VECTOR ( 'NONE', #112, 39.37007874015748143 ) ;
#7 = FILL_AREA_STYLE ('',( #150 ) ) ;
#8 = MANIFOLD_SOLID_BREP ( 'Revolve - Tool Body (Straight Shanked)', #205 ) ;
#9 = FACE_OUTER_BOUND ( 'NONE', #233, .T. ) ;
#10 = COLOUR_RGB ( '',0.7921568627450980005, 0.8196078431372548767, 0.9333333333333333481 ) ;
#11 = ORIENTED_EDGE ( 'NONE', *, *, #40, .T. ) ;
#12 = DIRECTION ( 'NONE',  ( -1.000000000000000000, 0.000000000000000000, 0.000000000000000000 ) ) ;
#13 = MECHANICAL_DESIGN_GEOMETRIC_PRESENTATION_REPRESENTATION (  '', ( #149 ), #30 ) ;
#14 = DIRECTION ( 'NONE',  ( 0.000000000000000000, 0.000000000000000000, -1.000000000000000000 ) ) ;
#15 =( CONVERSION_BASED_UNIT ( 'INCH', #71 ) LENGTH_UNIT ( ) NAMED_UNIT ( #92 ) );
#16 = FILL_AREA_STYLE ('',( #246 ) ) ;
#17 = DIRECTION ( 'NONE',  ( -4.453261087808560759E-17, 1.000000000000000000, -0.000000000000000000 ) ) ;
#18 = DIMENSIONAL_EXPONENTS ( 1.000000000000000000, 0.000000000000000000, 0.000000000000000000, 0.000000000000000000, 0.000000000000000000, 0.000000000000000000, 0.000000000000000000 ) ;
#19 = CARTESIAN_POINT ( 'NONE',  ( 0.3750000000000000555, 6.000000000000000888, 0.000000000000000000 ) ) ;
#20 = COLOUR_RGB ( '',1.000000000000000000, 0.000000000000000000, 0.000000000000000000 ) ;
#21 = DIRECTION ( 'NONE',  ( -4.453261087808560759E-17, 1.000000000000000000, -0.000000000000000000 ) ) ;
#22 = UNCERTAINTY_MEASURE_WITH_UNIT (LENGTH_MEASURE( 1.000000000000000082E-05 ), #96, 'distance_accuracy_value', 'NONE');
#23 = CIRCLE ( 'NONE', #159, 0.3750000000000000555 ) ;
#24 =( NAMED_UNIT ( * ) PLANE_ANGLE_UNIT ( ) SI_UNIT ( $, .RADIAN. ) );
#25 = PRODUCT_CONTEXT ( 'NONE', #126, 'mechanical' ) ;
#26 = PRODUCT ( '01692', '01692', '', ( #25 ) ) ;
#27 = CARTESIAN_POINT ( 'NONE',  ( 0.000000000000000000, 0.000000000000000000, 0.000000000000000000 ) ) ;
#28 = CARTESIAN_POINT ( 'NONE',  ( 0.000000000000000000, 0.000000000000000000, 0.000000000000000000 ) ) ;
#29 = STYLED_ITEM ( 'NONE', ( #170 ), #45 ) ;
#30 =( GEOMETRIC_REPRESENTATION_CONTEXT ( 3 ) GLOBAL_UNCERTAINTY_ASSIGNED_CONTEXT ( ( #253 ) ) GLOBAL_UNIT_ASSIGNED_CONTEXT ( ( #4, #174, #293 ) ) REPRESENTATION_CONTEXT ( 'NONE', 'WORKASPACE' ) );
#31 = AXIS2_PLACEMENT_3D ( 'NONE', #136, #231, #276 ) ;
#32 = DIRECTION ( 'NONE',  ( -1.000000000000000000, -4.453261087808560759E-17, 0.000000000000000000 ) ) ;
#33 = UNCERTAINTY_MEASURE_WITH_UNIT (LENGTH_MEASURE( 1.000000000000000082E-05 ), #43, 'distance_accuracy_value', 'NONE');
#34 = DIRECTION ( 'NONE',  ( -0.000000000000000000, -1.000000000000000000, -0.000000000000000000 ) ) ;
#35 = AXIS2_PLACEMENT_3D ( 'NONE', #19, #60, #86 ) ;
#36 = CYLINDRICAL_SURFACE ( 'NONE', #88, 0.3750000000000001110 ) ;
#37 = CARTESIAN_POINT ( 'NONE',  ( 4.592425496802575451E-17, 0.000000000000000000, 0.3750000000000000555 ) ) ;
#38 = SURFACE_STYLE_USAGE ( .BOTH. , #191 ) ;
#39 = DIMENSIONAL_EXPONENTS ( 1.000000000000000000, 0.000000000000000000, 0.000000000000000000, 0.000000000000000000, 0.000000000000000000, 0.000000000000000000, 0.000000000000000000 ) ;
#40 = EDGE_CURVE ( 'NONE', #210, #259, #67, .T. ) ;
#41 = FACE_OUTER_BOUND ( 'NONE', #94, .T. ) ;
#42 = CARTESIAN_POINT ( 'NONE',  ( 0.000000000000000000, 0.000000000000000000, -0.3750000000000000555 ) ) ;
#43 =( CONVERSION_BASED_UNIT ( 'INCH', #83 ) LENGTH_UNIT ( ) NAMED_UNIT ( #247 ) );
#44 = EDGE_LOOP ( 'NONE', ( #87, #11, #163, #113 ) ) ;
#45 = ADVANCED_FACE ( 'NONE', ( #307 ), #117, .T. ) ;
#46 = CYLINDRICAL_SURFACE ( 'NONE', #169, 0.3750000000000000555 ) ;
#47 = AXIS2_PLACEMENT_3D ( 'NONE', #27, #224, #121 ) ;
#48 =( LENGTH_UNIT ( ) NAMED_UNIT ( * ) SI_UNIT ( $, .METRE. ) );
#49 = FILL_AREA_STYLE_COLOUR ( '', #168 ) ;
#50 =( NAMED_UNIT ( * ) SI_UNIT ( $, .STERADIAN. ) SOLID_ANGLE_UNIT ( ) );
#51 =( NAMED_UNIT ( * ) PLANE_ANGLE_UNIT ( ) SI_UNIT ( $, .RADIAN. ) );
#52 = CYLINDRICAL_SURFACE ( 'NONE', #172, 0.3750000000000000555 ) ;
#53 =( LENGTH_UNIT ( ) NAMED_UNIT ( * ) SI_UNIT ( $, .METRE. ) );
#54 = VECTOR ( 'NONE', #21, 39.37007874015748143 ) ;
#55 = DIRECTION ( 'NONE',  ( 0.000000000000000000, 0.000000000000000000, -1.000000000000000000 ) ) ;
#56 = ADVANCED_FACE ( 'NONE', ( #289 ), #199, .T. ) ;
#57 = MECHANICAL_DESIGN_GEOMETRIC_PRESENTATION_REPRESENTATION (  '', ( #3 ), #144 ) ;
#58 = FACE_OUTER_BOUND ( 'NONE', #142, .T. ) ;
#59 = CARTESIAN_POINT ( 'NONE',  ( 0.000000000000000000, 3.250000000000000000, 0.000000000000000000 ) ) ;
#60 = DIRECTION ( 'NONE',  ( 4.453261087808560759E-17, -1.000000000000000000, 0.000000000000000000 ) ) ;
#61 = CARTESIAN_POINT ( 'NONE',  ( 0.000000000000000000, 0.000000000000000000, 0.000000000000000000 ) ) ;
#62 = STYLED_ITEM ( 'NONE', ( #180 ), #108 ) ;
#63 = ADVANCED_FACE ( 'NONE', ( #9 ), #52, .T. ) ;
#64 = DIMENSIONAL_EXPONENTS ( 1.000000000000000000, 0.000000000000000000, 0.000000000000000000, 0.000000000000000000, 0.000000000000000000, 0.000000000000000000, 0.000000000000000000 ) ;
#65 = EDGE_LOOP ( 'NONE', ( #278, #167, #297, #271 ) ) ;
#66 =( CONVERSION_BASED_UNIT ( 'INCH', #209 ) LENGTH_UNIT ( ) NAMED_UNIT ( #39 ) );
#67 = LINE ( 'NONE', #116, #54 ) ;
#68 = APPLICATION_PROTOCOL_DEFINITION ( 'draft international standard', 'automotive_design', 1998, #126 ) ;
#69 =( NAMED_UNIT ( * ) SI_UNIT ( $, .STERADIAN. ) SOLID_ANGLE_UNIT ( ) );
#70 = EDGE_LOOP ( 'NONE', ( #248, #256 ) ) ;
#71 = LENGTH_MEASURE_WITH_UNIT ( LENGTH_MEASURE( 0.02539999999999999897 ), #95 );
#72 =( NAMED_UNIT ( * ) SI_UNIT ( $, .STERADIAN. ) SOLID_ANGLE_UNIT ( ) );
#73 = APPLICATION_PROTOCOL_DEFINITION ( 'draft international standard', 'automotive_design', 1998, #118 ) ;
#74 = EDGE_CURVE ( 'NONE', #210, #303, #23, .T. ) ;
#75 = CIRCLE ( 'NONE', #111, 0.3750000000000000555 ) ;
#76 = SURFACE_SIDE_STYLE ('',( #153 ) ) ;
#77 = CIRCLE ( 'NONE', #262, 0.3750000000000000555 ) ;
#78 = DIRECTION ( 'NONE',  ( 0.000000000000000000, 0.000000000000000000, -1.000000000000000000 ) ) ;
#79 = AXIS2_PLACEMENT_3D ( 'NONE', #61, #161, #230 ) ;
#80 = MECHANICAL_DESIGN_GEOMETRIC_PRESENTATION_REPRESENTATION (  '', ( #285 ), #197 ) ;
#81 =( LENGTH_UNIT ( ) NAMED_UNIT ( * ) SI_UNIT ( $, .METRE. ) );
#82 = ORIENTED_EDGE ( 'NONE', *, *, #123, .T. ) ;
#83 = LENGTH_MEASURE_WITH_UNIT ( LENGTH_MEASURE( 0.02539999999999999897 ), #245 );
#84 = LINE ( 'NONE', #37, #220 ) ;
#85 = CARTESIAN_POINT ( 'NONE',  ( -0.3750000000000000555, 3.250000000000000000, 0.000000000000000000 ) ) ;
#86 = DIRECTION ( 'NONE',  ( 1.000000000000000000, 4.453261087808560759E-17, 0.000000000000000000 ) ) ;
#87 = ORIENTED_EDGE ( 'NONE', *, *, #255, .T. ) ;
#88 = AXIS2_PLACEMENT_3D ( 'NONE', #225, #277, #131 ) ;
#89 =( NAMED_UNIT ( * ) PLANE_ANGLE_UNIT ( ) SI_UNIT ( $, .RADIAN. ) );
#90 = ORIENTED_EDGE ( 'NONE', *, *, #2, .F. ) ;
#91 = FILL_AREA_STYLE_COLOUR ( '', #20 ) ;
#92 = DIMENSIONAL_EXPONENTS ( 1.000000000000000000, 0.000000000000000000, 0.000000000000000000, 0.000000000000000000, 0.000000000000000000, 0.000000000000000000, 0.000000000000000000 ) ;
#93 = CARTESIAN_POINT ( 'NONE',  ( 0.000000000000000000, 0.000000000000000000, -0.3750000000000000555 ) ) ;
#94 = EDGE_LOOP ( 'NONE', ( #280, #305 ) ) ;
#95 =( LENGTH_UNIT ( ) NAMED_UNIT ( * ) SI_UNIT ( $, .METRE. ) );
#96 =( CONVERSION_BASED_UNIT ( 'INCH', #196 ) LENGTH_UNIT ( ) NAMED_UNIT ( #18 ) );
#97 = EDGE_CURVE ( 'NONE', #275, #259, #115, .T. ) ;
#98 = SURFACE_STYLE_USAGE ( .BOTH. , #260 ) ;
#99 = AXIS2_PLACEMENT_3D ( 'NONE', #228, #34, #14 ) ;
#100 = DIRECTION ( 'NONE',  ( 1.000000000000000000, 0.000000000000000000, 0.000000000000000000 ) ) ;
#101 = EDGE_CURVE ( 'NONE', #104, #107, #77, .T. ) ;
#102 = CARTESIAN_POINT ( 'NONE',  ( -1.224646799147354440E-16, 6.000000000000000888, 0.000000000000000000 ) ) ;
#103 = PLANE ( 'NONE',  #177 ) ;
#104 = VERTEX_POINT ( 'NONE', #243 ) ;
#105 = PRESENTATION_LAYER_ASSIGNMENT (  '', '', ( #29 ) ) ;
#106 = SURFACE_STYLE_FILL_AREA ( #16 ) ;
#107 = VERTEX_POINT ( 'NONE', #268 ) ;
#108 = MANIFOLD_SOLID_BREP ( 'Revolve - Cutting Edge', #242 ) ;
#109 = ADVANCED_FACE ( 'NONE', ( #156 ), #272, .F. ) ;
#110 = CARTESIAN_POINT ( 'NONE',  ( 0.000000000000000000, 0.000000000000000000, 0.000000000000000000 ) ) ;
#111 = AXIS2_PLACEMENT_3D ( 'NONE', #194, #17, #12 ) ;
#112 = DIRECTION ( 'NONE',  ( -4.453261087808560759E-17, 1.000000000000000000, -0.000000000000000000 ) ) ;
#113 = ORIENTED_EDGE ( 'NONE', *, *, #123, .F. ) ;
#114 = CARTESIAN_POINT ( 'NONE',  ( 0.000000000000000000, 3.250000000000000000, 0.000000000000000000 ) ) ;
#115 = CIRCLE ( 'NONE', #290, 0.3750000000000001665 ) ;
#116 = CARTESIAN_POINT ( 'NONE',  ( 0.3749999999999999445, 6.000000000000000888, 4.592425496802576068E-17 ) ) ;
#117 = PLANE ( 'NONE',  #47 ) ;
#118 = APPLICATION_CONTEXT ( 'automotive_design' ) ;
#119 = COLOUR_RGB ( '',1.000000000000000000, 0.000000000000000000, 0.000000000000000000 ) ;
#120 = DIRECTION ( 'NONE',  ( -0.000000000000000000, -1.000000000000000000, -0.000000000000000000 ) ) ;
#121 = DIRECTION ( 'NONE',  ( 0.000000000000000000, 0.000000000000000000, -1.000000000000000000 ) ) ;
#122 = COLOUR_RGB ( '',0.7921568627450980005, 0.8196078431372548767, 0.9333333333333333481 ) ;
#123 = EDGE_CURVE ( 'NONE', #303, #275, #186, .T. ) ;
#124 = CIRCLE ( 'NONE', #237, 0.3750000000000000555 ) ;
#125 = DIRECTION ( 'NONE',  ( -4.453261087808560759E-17, 1.000000000000000000, -0.000000000000000000 ) ) ;
#126 = APPLICATION_CONTEXT ( 'automotive_design' ) ;
#127 = ADVANCED_BREP_SHAPE_REPRESENTATION ( '01692', ( #108, #8, #288 ), #171 ) ;
#128 = SURFACE_STYLE_USAGE ( .BOTH. , #164 ) ;
#129 = ORIENTED_EDGE ( 'NONE', *, *, #292, .F. ) ;
#130 = DIRECTION ( 'NONE',  ( 0.000000000000000000, 1.000000000000000000, 0.000000000000000000 ) ) ;
#131 = DIRECTION ( 'NONE',  ( -1.000000000000000000, 0.000000000000000000, 0.000000000000000000 ) ) ;
#132 = EDGE_LOOP ( 'NONE', ( #300, #187, #82, #190 ) ) ;
#133 =( NAMED_UNIT ( * ) SI_UNIT ( $, .STERADIAN. ) SOLID_ANGLE_UNIT ( ) );
#134 = CARTESIAN_POINT ( 'NONE',  ( 4.592425496802575451E-17, 0.000000000000000000, 0.3750000000000000555 ) ) ;
#135 = ORIENTED_EDGE ( 'NONE', *, *, #97, .T. ) ;
#136 = CARTESIAN_POINT ( 'NONE',  ( -1.224646799147354440E-16, 6.000000000000000888, 0.000000000000000000 ) ) ;
#137 = UNCERTAINTY_MEASURE_WITH_UNIT (LENGTH_MEASURE( 1.000000000000000082E-05 ), #66, 'distance_accuracy_value', 'NONE');
#138 = SURFACE_SIDE_STYLE ('',( #254 ) ) ;
#139 = VERTEX_POINT ( 'NONE', #134 ) ;
#140 = COLOUR_RGB ( '',1.000000000000000000, 0.000000000000000000, 0.000000000000000000 ) ;
#141 =( NAMED_UNIT ( * ) PLANE_ANGLE_UNIT ( ) SI_UNIT ( $, .RADIAN. ) );
#142 = EDGE_LOOP ( 'NONE', ( #129, #157 ) ) ;
#143 = SURFACE_STYLE_FILL_AREA ( #308 ) ;
#144 =( GEOMETRIC_REPRESENTATION_CONTEXT ( 3 ) GLOBAL_UNCERTAINTY_ASSIGNED_CONTEXT ( ( #223 ) ) GLOBAL_UNIT_ASSIGNED_CONTEXT ( ( #147, #51, #50 ) ) REPRESENTATION_CONTEXT ( 'NONE', 'WORKASPACE' ) );
#145 =( GEOMETRIC_REPRESENTATION_CONTEXT ( 3 ) GLOBAL_UNCERTAINTY_ASSIGNED_CONTEXT ( ( #33 ) ) GLOBAL_UNIT_ASSIGNED_CONTEXT ( ( #43, #89, #189 ) ) REPRESENTATION_CONTEXT ( 'NONE', 'WORKASPACE' ) );
#146 = EDGE_CURVE ( 'NONE', #107, #208, #304, .T. ) ;
#147 =( CONVERSION_BASED_UNIT ( 'INCH', #195 ) LENGTH_UNIT ( ) NAMED_UNIT ( #258 ) );
#148 = DIRECTION ( 'NONE',  ( -1.000000000000000000, 0.000000000000000000, 0.000000000000000000 ) ) ;
#149 = STYLED_ITEM ( 'NONE', ( #202 ), #63 ) ;
#150 = FILL_AREA_STYLE_COLOUR ( '', #119 ) ;
#151 = ADVANCED_FACE ( 'NONE', ( #41 ), #178, .F. ) ;
#152 = DIRECTION ( 'NONE',  ( -4.453261087808560759E-17, 1.000000000000000000, -0.000000000000000000 ) ) ;
#153 = SURFACE_STYLE_FILL_AREA ( #7 ) ;
#154 = PRESENTATION_LAYER_ASSIGNMENT (  '', '', ( #285 ) ) ;
#155 = ADVANCED_FACE ( 'NONE', ( #250 ), #36, .T. ) ;
#156 = FACE_OUTER_BOUND ( 'NONE', #294, .T. ) ;
#157 = ORIENTED_EDGE ( 'NONE', *, *, #101, .F. ) ;
#158 = DIRECTION ( 'NONE',  ( -0.000000000000000000, -1.000000000000000000, -0.000000000000000000 ) ) ;
#159 = AXIS2_PLACEMENT_3D ( 'NONE', #291, #266, #148 ) ;
#160 = FILL_AREA_STYLE ('',( #251 ) ) ;
#161 = DIRECTION ( 'NONE',  ( -0.000000000000000000, -1.000000000000000000, -0.000000000000000000 ) ) ;
#162 =( NAMED_UNIT ( * ) PLANE_ANGLE_UNIT ( ) SI_UNIT ( $, .RADIAN. ) );
#163 = ORIENTED_EDGE ( 'NONE', *, *, #97, .F. ) ;
#164 = SURFACE_SIDE_STYLE ('',( #106 ) ) ;
#165 = FILL_AREA_STYLE_COLOUR ( '', #10 ) ;
#166 = DIRECTION ( 'NONE',  ( 0.000000000000000000, -0.000000000000000000, 1.000000000000000000 ) ) ;
#167 = ORIENTED_EDGE ( 'NONE', *, *, #2, .T. ) ;
#168 = COLOUR_RGB ( '',1.000000000000000000, 0.000000000000000000, 0.000000000000000000 ) ;
#169 = AXIS2_PLACEMENT_3D ( 'NONE', #110, #158, #213 ) ;
#170 = PRESENTATION_STYLE_ASSIGNMENT (( #98 ) ) ;
#171 =( GEOMETRIC_REPRESENTATION_CONTEXT ( 3 ) GLOBAL_UNCERTAINTY_ASSIGNED_CONTEXT ( ( #214 ) ) GLOBAL_UNIT_ASSIGNED_CONTEXT ( ( #182, #162, #133 ) ) REPRESENTATION_CONTEXT ( 'NONE', 'WORKASPACE' ) );
#172 = AXIS2_PLACEMENT_3D ( 'NONE', #28, #120, #78 ) ;
#173 = DIRECTION ( 'NONE',  ( -1.000000000000000000, 0.000000000000000000, 0.000000000000000000 ) ) ;
#174 =( NAMED_UNIT ( * ) PLANE_ANGLE_UNIT ( ) SI_UNIT ( $, .RADIAN. ) );
#175 = DIRECTION ( 'NONE',  ( -1.000000000000000000, 0.000000000000000000, 0.000000000000000000 ) ) ;
#176 = UNCERTAINTY_MEASURE_WITH_UNIT (LENGTH_MEASURE( 1.000000000000000082E-05 ), #15, 'distance_accuracy_value', 'NONE');
#177 = AXIS2_PLACEMENT_3D ( 'NONE', #114, #130, #166 ) ;
#178 = PLANE ( 'NONE',  #238 ) ;
#179 = MECHANICAL_DESIGN_GEOMETRIC_PRESENTATION_REPRESENTATION (  '', ( #29 ), #261 ) ;
#180 = PRESENTATION_STYLE_ASSIGNMENT (( #296 ) ) ;
#181 = DIRECTION ( 'NONE',  ( -0.000000000000000000, -1.000000000000000000, -0.000000000000000000 ) ) ;
#182 =( CONVERSION_BASED_UNIT ( 'INCH', #299 ) LENGTH_UNIT ( ) NAMED_UNIT ( #64 ) );
#183 = MECHANICAL_DESIGN_GEOMETRIC_PRESENTATION_REPRESENTATION (  '', ( #62 ), #145 ) ;
#184 = ORIENTED_EDGE ( 'NONE', *, *, #212, .T. ) ;
#185 = EDGE_CURVE ( 'NONE', #139, #208, #221, .T. ) ;
#186 = LINE ( 'NONE', #270, #6 ) ;
#187 = ORIENTED_EDGE ( 'NONE', *, *, #74, .T. ) ;
#188 =( LENGTH_UNIT ( ) NAMED_UNIT ( * ) SI_UNIT ( $, .METRE. ) );
#189 =( NAMED_UNIT ( * ) SI_UNIT ( $, .STERADIAN. ) SOLID_ANGLE_UNIT ( ) );
#190 = ORIENTED_EDGE ( 'NONE', *, *, #212, .F. ) ;
#191 = SURFACE_SIDE_STYLE ('',( #143 ) ) ;
#192 = PRODUCT_DEFINITION_CONTEXT ( 'detailed design', #118, 'design' ) ;
#193 = PRODUCT_RELATED_PRODUCT_CATEGORY ( 'part', '', ( #26 ) ) ;
#194 = CARTESIAN_POINT ( 'NONE',  ( 0.000000000000000000, 3.250000000000000000, 0.000000000000000000 ) ) ;
#195 = LENGTH_MEASURE_WITH_UNIT ( LENGTH_MEASURE( 0.02539999999999999897 ), #216 );
#196 = LENGTH_MEASURE_WITH_UNIT ( LENGTH_MEASURE( 0.02539999999999999897 ), #48 );
#197 =( GEOMETRIC_REPRESENTATION_CONTEXT ( 3 ) GLOBAL_UNCERTAINTY_ASSIGNED_CONTEXT ( ( #137 ) ) GLOBAL_UNIT_ASSIGNED_CONTEXT ( ( #66, #141, #69 ) ) REPRESENTATION_CONTEXT ( 'NONE', 'WORKASPACE' ) );
#198 = FILL_AREA_STYLE ('',( #165 ) ) ;
#199 = CYLINDRICAL_SURFACE ( 'NONE', #219, 0.3750000000000001110 ) ;
#200 = VECTOR ( 'NONE', #204, 39.37007874015748143 ) ;
#201 = DIRECTION ( 'NONE',  ( -0.000000000000000000, -1.000000000000000000, -0.000000000000000000 ) ) ;
#202 = PRESENTATION_STYLE_ASSIGNMENT (( #218 ) ) ;
#203 = DIMENSIONAL_EXPONENTS ( 1.000000000000000000, 0.000000000000000000, 0.000000000000000000, 0.000000000000000000, 0.000000000000000000, 0.000000000000000000, 0.000000000000000000 ) ;
#204 = DIRECTION ( 'NONE',  ( -0.000000000000000000, -1.000000000000000000, -0.000000000000000000 ) ) ;
#205 = CLOSED_SHELL ( 'NONE', ( #56, #151, #155, #109 ) ) ;
#206 = PRESENTATION_STYLE_ASSIGNMENT (( #128 ) ) ;
#207 = ADVANCED_FACE ( 'NONE', ( #58 ), #103, .T. ) ;
#208 = VERTEX_POINT ( 'NONE', #42 ) ;
#209 = LENGTH_MEASURE_WITH_UNIT ( LENGTH_MEASURE( 0.02539999999999999897 ), #81 );
#210 = VERTEX_POINT ( 'NONE', #306 ) ;
#211 = DIRECTION ( 'NONE',  ( -0.000000000000000000, -1.000000000000000000, -0.000000000000000000 ) ) ;
#212 = EDGE_CURVE ( 'NONE', #259, #275, #269, .T. ) ;
#213 = DIRECTION ( 'NONE',  ( 0.000000000000000000, 0.000000000000000000, -1.000000000000000000 ) ) ;
#214 = UNCERTAINTY_MEASURE_WITH_UNIT (LENGTH_MEASURE( 1.000000000000000082E-05 ), #182, 'distance_accuracy_value', 'NONE');
#215 = SURFACE_SIDE_STYLE ('',( #286 ) ) ;
#216 =( LENGTH_UNIT ( ) NAMED_UNIT ( * ) SI_UNIT ( $, .METRE. ) );
#217 =( GEOMETRIC_REPRESENTATION_CONTEXT ( 3 ) GLOBAL_UNCERTAINTY_ASSIGNED_CONTEXT ( ( #176 ) ) GLOBAL_UNIT_ASSIGNED_CONTEXT ( ( #15, #235, #281 ) ) REPRESENTATION_CONTEXT ( 'NONE', 'WORKASPACE' ) );
#218 = SURFACE_STYLE_USAGE ( .BOTH. , #76 ) ;
#219 = AXIS2_PLACEMENT_3D ( 'NONE', #222, #125, #173 ) ;
#220 = VECTOR ( 'NONE', #181, 39.37007874015748143 ) ;
#221 = CIRCLE ( 'NONE', #99, 0.3750000000000000555 ) ;
#222 = CARTESIAN_POINT ( 'NONE',  ( -1.224646799147354440E-16, 6.000000000000000888, 0.000000000000000000 ) ) ;
#223 = UNCERTAINTY_MEASURE_WITH_UNIT (LENGTH_MEASURE( 1.000000000000000082E-05 ), #147, 'distance_accuracy_value', 'NONE');
#224 = DIRECTION ( 'NONE',  ( 0.000000000000000000, -1.000000000000000000, -0.000000000000000000 ) ) ;
#225 = CARTESIAN_POINT ( 'NONE',  ( -1.224646799147354440E-16, 6.000000000000000888, 0.000000000000000000 ) ) ;
#226 = ORIENTED_EDGE ( 'NONE', *, *, #146, .T. ) ;
#227 = FACE_OUTER_BOUND ( 'NONE', #65, .T. ) ;
#228 = CARTESIAN_POINT ( 'NONE',  ( 0.000000000000000000, 0.000000000000000000, 0.000000000000000000 ) ) ;
#229 = PRESENTATION_LAYER_ASSIGNMENT (  '', '', ( #3 ) ) ;
#230 = DIRECTION ( 'NONE',  ( 0.000000000000000000, 0.000000000000000000, -1.000000000000000000 ) ) ;
#231 = DIRECTION ( 'NONE',  ( -4.453261087808560759E-17, 1.000000000000000000, -0.000000000000000000 ) ) ;
#232 = CARTESIAN_POINT ( 'NONE',  ( 3.718412684285603637E-34, 3.250000000000000000, 0.000000000000000000 ) ) ;
#233 = EDGE_LOOP ( 'NONE', ( #90, #252, #226, #273 ) ) ;
#234 = PRESENTATION_STYLE_ASSIGNMENT (( #38 ) ) ;
#235 =( NAMED_UNIT ( * ) PLANE_ANGLE_UNIT ( ) SI_UNIT ( $, .RADIAN. ) );
#236 = PRESENTATION_LAYER_ASSIGNMENT (  '', '', ( #263 ) ) ;
#237 = AXIS2_PLACEMENT_3D ( 'NONE', #59, #211, #249 ) ;
#238 = AXIS2_PLACEMENT_3D ( 'NONE', #232, #279, #32 ) ;
#239 = ADVANCED_FACE ( 'NONE', ( #227 ), #46, .T. ) ;
#240 = LENGTH_MEASURE_WITH_UNIT ( LENGTH_MEASURE( 0.02539999999999999897 ), #53 );
#241 = PRODUCT_DEFINITION ( 'UNKNOWN', '', #298, #192 ) ;
#242 = CLOSED_SHELL ( 'NONE', ( #239, #207, #63, #45 ) ) ;
#243 = CARTESIAN_POINT ( 'NONE',  ( 4.592425496802575451E-17, 3.250000000000000000, 0.3750000000000000555 ) ) ;
#244 = MECHANICAL_DESIGN_GEOMETRIC_PRESENTATION_REPRESENTATION (  '', ( #263 ), #217 ) ;
#245 =( LENGTH_UNIT ( ) NAMED_UNIT ( * ) SI_UNIT ( $, .METRE. ) );
#246 = FILL_AREA_STYLE_COLOUR ( '', #140 ) ;
#247 = DIMENSIONAL_EXPONENTS ( 1.000000000000000000, 0.000000000000000000, 0.000000000000000000, 0.000000000000000000, 0.000000000000000000, 0.000000000000000000, 0.000000000000000000 ) ;
#248 = ORIENTED_EDGE ( 'NONE', *, *, #5, .T. ) ;
#249 = DIRECTION ( 'NONE',  ( 0.000000000000000000, 0.000000000000000000, -1.000000000000000000 ) ) ;
#250 = FACE_OUTER_BOUND ( 'NONE', #132, .T. ) ;
#251 = FILL_AREA_STYLE_COLOUR ( '', #122 ) ;
#252 = ORIENTED_EDGE ( 'NONE', *, *, #101, .T. ) ;
#253 = UNCERTAINTY_MEASURE_WITH_UNIT (LENGTH_MEASURE( 1.000000000000000082E-05 ), #4, 'distance_accuracy_value', 'NONE');
#254 = SURFACE_STYLE_FILL_AREA ( #160 ) ;
#255 = EDGE_CURVE ( 'NONE', #303, #210, #75, .T. ) ;
#256 = ORIENTED_EDGE ( 'NONE', *, *, #185, .T. ) ;
#257 = CARTESIAN_POINT ( 'NONE',  ( -0.3750000000000002776, 6.000000000000000888, 0.000000000000000000 ) ) ;
#258 = DIMENSIONAL_EXPONENTS ( 1.000000000000000000, 0.000000000000000000, 0.000000000000000000, 0.000000000000000000, 0.000000000000000000, 0.000000000000000000, 0.000000000000000000 ) ;
#259 = VERTEX_POINT ( 'NONE', #274 ) ;
#260 = SURFACE_SIDE_STYLE ('',( #264 ) ) ;
#261 =( GEOMETRIC_REPRESENTATION_CONTEXT ( 3 ) GLOBAL_UNCERTAINTY_ASSIGNED_CONTEXT ( ( #22 ) ) GLOBAL_UNIT_ASSIGNED_CONTEXT ( ( #96, #24, #72 ) ) REPRESENTATION_CONTEXT ( 'NONE', 'WORKASPACE' ) );
#262 = AXIS2_PLACEMENT_3D ( 'NONE', #267, #201, #55 ) ;
#263 = STYLED_ITEM ( 'NONE', ( #234 ), #239 ) ;
#264 = SURFACE_STYLE_FILL_AREA ( #283 ) ;
#265 = SHAPE_DEFINITION_REPRESENTATION ( #301, #127 ) ;
#266 = DIRECTION ( 'NONE',  ( -4.453261087808560759E-17, 1.000000000000000000, -0.000000000000000000 ) ) ;
#267 = CARTESIAN_POINT ( 'NONE',  ( 0.000000000000000000, 3.250000000000000000, 0.000000000000000000 ) ) ;
#268 = CARTESIAN_POINT ( 'NONE',  ( 0.000000000000000000, 3.250000000000000000, -0.3750000000000000555 ) ) ;
#269 = CIRCLE ( 'NONE', #31, 0.3750000000000001665 ) ;
#270 = CARTESIAN_POINT ( 'NONE',  ( -0.3750000000000002220, 6.000000000000000888, 0.000000000000000000 ) ) ;
#271 = ORIENTED_EDGE ( 'NONE', *, *, #146, .F. ) ;
#272 = PLANE ( 'NONE',  #35 ) ;
#273 = ORIENTED_EDGE ( 'NONE', *, *, #185, .F. ) ;
#274 = CARTESIAN_POINT ( 'NONE',  ( 0.3750000000000000555, 6.000000000000000888, 4.592425496802576684E-17 ) ) ;
#275 = VERTEX_POINT ( 'NONE', #257 ) ;
#276 = DIRECTION ( 'NONE',  ( -1.000000000000000000, 0.000000000000000000, 0.000000000000000000 ) ) ;
#277 = DIRECTION ( 'NONE',  ( -4.453261087808560759E-17, 1.000000000000000000, -0.000000000000000000 ) ) ;
#278 = ORIENTED_EDGE ( 'NONE', *, *, #292, .T. ) ;
#279 = DIRECTION ( 'NONE',  ( -4.453261087808560759E-17, 1.000000000000000000, 0.000000000000000000 ) ) ;
#280 = ORIENTED_EDGE ( 'NONE', *, *, #255, .F. ) ;
#281 =( NAMED_UNIT ( * ) SI_UNIT ( $, .STERADIAN. ) SOLID_ANGLE_UNIT ( ) );
#282 = CARTESIAN_POINT ( 'NONE',  ( 0.000000000000000000, 0.000000000000000000, 0.000000000000000000 ) ) ;
#283 = FILL_AREA_STYLE ('',( #49 ) ) ;
#284 = SURFACE_STYLE_USAGE ( .BOTH. , #215 ) ;
#285 = STYLED_ITEM ( 'NONE', ( #206 ), #207 ) ;
#286 = SURFACE_STYLE_FILL_AREA ( #198 ) ;
#287 = CIRCLE ( 'NONE', #79, 0.3750000000000000555 ) ;
#288 = AXIS2_PLACEMENT_3D ( 'NONE', #282, #309, #100 ) ;
#289 = FACE_OUTER_BOUND ( 'NONE', #44, .T. ) ;
#290 = AXIS2_PLACEMENT_3D ( 'NONE', #102, #152, #175 ) ;
#291 = CARTESIAN_POINT ( 'NONE',  ( 0.000000000000000000, 3.250000000000000000, 0.000000000000000000 ) ) ;
#292 = EDGE_CURVE ( 'NONE', #107, #104, #124, .T. ) ;
#293 =( NAMED_UNIT ( * ) SI_UNIT ( $, .STERADIAN. ) SOLID_ANGLE_UNIT ( ) );
#294 = EDGE_LOOP ( 'NONE', ( #135, #184 ) ) ;
#295 = PRESENTATION_LAYER_ASSIGNMENT (  '', '', ( #149 ) ) ;
#296 = SURFACE_STYLE_USAGE ( .BOTH. , #138 ) ;
#297 = ORIENTED_EDGE ( 'NONE', *, *, #5, .F. ) ;
#298 = PRODUCT_DEFINITION_FORMATION_WITH_SPECIFIED_SOURCE ( 'ANY', '', #26, .NOT_KNOWN. ) ;
#299 = LENGTH_MEASURE_WITH_UNIT ( LENGTH_MEASURE( 0.02539999999999999897 ), #188 );
#300 = ORIENTED_EDGE ( 'NONE', *, *, #40, .F. ) ;
#301 = PRODUCT_DEFINITION_SHAPE ( 'NONE', 'NONE',  #241 ) ;
#302 = PRESENTATION_LAYER_ASSIGNMENT (  '', '', ( #62 ) ) ;
#303 = VERTEX_POINT ( 'NONE', #85 ) ;
#304 = LINE ( 'NONE', #93, #200 ) ;
#305 = ORIENTED_EDGE ( 'NONE', *, *, #74, .F. ) ;
#306 = CARTESIAN_POINT ( 'NONE',  ( 0.3750000000000000555, 3.250000000000000000, 4.592425496802576684E-17 ) ) ;
#307 = FACE_OUTER_BOUND ( 'NONE', #70, .T. ) ;
#308 = FILL_AREA_STYLE ('',( #91 ) ) ;
#309 = DIRECTION ( 'NONE',  ( 0.000000000000000000, 0.000000000000000000, 1.000000000000000000 ) ) ;
ENDSEC;
END-ISO-10303-21;
