ISO-10303-21;
HEADER;
FILE_DESCRIPTION (( 'STEP AP214' ),
    '1' );
FILE_NAME ('Micro_GEC-031-3-005X.STEP',
    '2021-09-03T17:01:50',
    ( '' ),
    ( '' ),
    'SwSTEP 2.0',
    'SolidWorks 2020',
    '' );
FILE_SCHEMA (( 'AUTOMOTIVE_DESIGN' ));
ENDSEC;

DATA;
#1 = EDGE_LOOP ( 'NONE', ( #152, #262 ) ) ;
#2 = FACE_OUTER_BOUND ( 'NONE', #117, .T. ) ;
#3 = ORIENTED_EDGE ( 'NONE', *, *, #346, .F. ) ;
#4 = AXIS2_PLACEMENT_3D ( 'NONE', #25, #216, #49 ) ;
#5 = FACE_OUTER_BOUND ( 'NONE', #51, .T. ) ;
#6 = CARTESIAN_POINT ( 'NONE',  ( 0.0000000000000000000, 0.0000000000000000000, 1.500000000000000222 ) ) ;
#7 = CARTESIAN_POINT ( 'NONE',  ( 6.123233995736768848E-19, 0.0000000000000000000, 0.005000000000000000104 ) ) ;
#8 = AXIS2_PLACEMENT_3D ( 'NONE', #15, #305, #63 ) ;
#9 = APPLICATION_PROTOCOL_DEFINITION ( 'draft international standard', 'automotive_design', 1998, #232 ) ;
#10 =( NAMED_UNIT ( * ) SI_UNIT ( $, .STERADIAN. ) SOLID_ANGLE_UNIT ( ) );
#11 = PRODUCT_CONTEXT ( 'NONE', #217, 'mechanical' ) ;
#12 = CARTESIAN_POINT ( 'NONE',  ( 0.01558440000000001387, 0.0000000000000000000, 0.07800000000000009703 ) ) ;
#13 = PRESENTATION_STYLE_ASSIGNMENT (( #254 ) ) ;
#14 = CARTESIAN_POINT ( 'NONE',  ( 4.213661705584322371E-17, 0.0000000000000000000, 0.3440715893364548750 ) ) ;
#15 = CARTESIAN_POINT ( 'NONE',  ( 0.0000000000000000000, 0.0000000000000000000, 1.485000000000000764 ) ) ;
#16 = AXIS2_PLACEMENT_3D ( 'NONE', #124, #105, #84 ) ;
#17 = DIRECTION ( 'NONE',  ( 1.000000000000000000, 0.0000000000000000000, 0.0000000000000000000 ) ) ;
#18 = DIRECTION ( 'NONE',  ( -1.224646799147353700E-16, -0.0000000000000000000, -1.000000000000000000 ) ) ;
#19 = DIRECTION ( 'NONE',  ( -1.000000000000000000, 0.0000000000000000000, 1.224646799147353700E-16 ) ) ;
#20 = EDGE_CURVE ( 'NONE', #81, #234, #147, .T. ) ;
#21 = EDGE_LOOP ( 'NONE', ( #291, #129, #298, #151 ) ) ;
#22 = ORIENTED_EDGE ( 'NONE', *, *, #140, .F. ) ;
#23 = DIMENSIONAL_EXPONENTS ( 1.000000000000000000, 0.0000000000000000000, 0.0000000000000000000, 0.0000000000000000000, 0.0000000000000000000, 0.0000000000000000000, 0.0000000000000000000 ) ;
#24 = EDGE_LOOP ( 'NONE', ( #42, #289, #188, #323 ) ) ;
#25 = CARTESIAN_POINT ( 'NONE',  ( 6.123233995736768848E-19, 0.0000000000000000000, 0.0000000000000000000 ) ) ;
#26 = CARTESIAN_POINT ( 'NONE',  ( 0.01058440000000000943, 0.0000000000000000000, 0.0000000000000000000 ) ) ;
#27 = VECTOR ( 'NONE', #322, 39.37007874015748854 ) ;
#28 = VERTEX_POINT ( 'NONE', #205 ) ;
#29 = DIRECTION ( 'NONE',  ( 1.000000000000000000, 0.0000000000000000000, 0.0000000000000000000 ) ) ;
#30 = APPLICATION_PROTOCOL_DEFINITION ( 'draft international standard', 'automotive_design', 1998, #217 ) ;
#31 = CARTESIAN_POINT ( 'NONE',  ( 0.01558440000000000866, 1.908538557663202247E-18, -1.908538557663203017E-18 ) ) ;
#32 = ADVANCED_FACE ( 'NONE', ( #37 ), #144, .F. ) ;
#33 = SURFACE_SIDE_STYLE ('',( #139 ) ) ;
#34 = EDGE_CURVE ( 'NONE', #28, #186, #287, .T. ) ;
#35 = CARTESIAN_POINT ( 'NONE',  ( 0.0000000000000000000, 0.0000000000000000000, 0.0000000000000000000 ) ) ;
#36 = FILL_AREA_STYLE_COLOUR ( '', #265 ) ;
#37 = FACE_OUTER_BOUND ( 'NONE', #239, .T. ) ;
#38 = CYLINDRICAL_SURFACE ( 'NONE', #96, 0.01558440000000000866 ) ;
#39 = CARTESIAN_POINT ( 'NONE',  ( 0.0000000000000000000, 0.0000000000000000000, 1.500000000000000222 ) ) ;
#40 = CARTESIAN_POINT ( 'NONE',  ( 6.123233995736768848E-19, 0.0000000000000000000, 0.005000000000000000104 ) ) ;
#41 = UNCERTAINTY_MEASURE_WITH_UNIT (LENGTH_MEASURE( 1.000000000000000082E-05 ), #193, 'distance_accuracy_value', 'NONE');
#42 = ORIENTED_EDGE ( 'NONE', *, *, #140, .T. ) ;
#43 = ADVANCED_FACE ( 'NONE', ( #253 ), #38, .T. ) ;
#44 = ORIENTED_EDGE ( 'NONE', *, *, #327, .T. ) ;
#45 = VERTEX_POINT ( 'NONE', #88 ) ;
#46 = ORIENTED_EDGE ( 'NONE', *, *, #292, .T. ) ;
#47 = EDGE_CURVE ( 'NONE', #77, #350, #168, .T. ) ;
#48 = CIRCLE ( 'NONE', #335, 0.01558440000000000519 ) ;
#49 = DIRECTION ( 'NONE',  ( 1.000000000000000000, 0.0000000000000000000, 0.0000000000000000000 ) ) ;
#50 = PRODUCT_DEFINITION_SHAPE ( 'NONE', 'NONE',  #306 ) ;
#51 = EDGE_LOOP ( 'NONE', ( #156, #145, #269, #46 ) ) ;
#52 = CYLINDRICAL_SURFACE ( 'NONE', #78, 0.01558440000000000866 ) ;
#53 = VERTEX_POINT ( 'NONE', #94 ) ;
#54 = CARTESIAN_POINT ( 'NONE',  ( -0.01558440000000000866, 0.0000000000000000000, 0.005000000000000000104 ) ) ;
#55 = ORIENTED_EDGE ( 'NONE', *, *, #74, .F. ) ;
#56 = UNCERTAINTY_MEASURE_WITH_UNIT (LENGTH_MEASURE( 1.000000000000000082E-05 ), #333, 'distance_accuracy_value', 'NONE');
#57 = VECTOR ( 'NONE', #171, 39.37007874015748854 ) ;
#58 = CIRCLE ( 'NONE', #72, 0.06250000000000002776 ) ;
#59 = DIRECTION ( 'NONE',  ( -1.000000000000000000, 0.0000000000000000000, 0.0000000000000000000 ) ) ;
#60 = DIRECTION ( 'NONE',  ( -1.224646799147353700E-16, -0.0000000000000000000, -1.000000000000000000 ) ) ;
#61 = CONICAL_SURFACE ( 'NONE', #104, 0.04750000000000064587, 0.7853981633974466137 ) ;
#62 = LENGTH_MEASURE_WITH_UNIT ( LENGTH_MEASURE( 0.02539999999999999897 ), #334 );
#63 = DIRECTION ( 'NONE',  ( 1.000000000000000000, 0.0000000000000000000, 0.0000000000000000000 ) ) ;
#64 =( NAMED_UNIT ( * ) PLANE_ANGLE_UNIT ( ) SI_UNIT ( $, .RADIAN. ) );
#65 = DIRECTION ( 'NONE',  ( -1.000000000000000000, 0.0000000000000000000, 0.0000000000000000000 ) ) ;
#66 = CIRCLE ( 'NONE', #273, 0.005000000000000000104 ) ;
#67 =( LENGTH_UNIT ( ) NAMED_UNIT ( * ) SI_UNIT ( $, .METRE. ) );
#68 = CARTESIAN_POINT ( 'NONE',  ( -0.06250000000000002776, 0.0000000000000000000, 1.500000000000000222 ) ) ;
#69 = CARTESIAN_POINT ( 'NONE',  ( 0.01058440000000000943, 0.0000000000000000000, 0.005000000000000000104 ) ) ;
#70 = CYLINDRICAL_SURFACE ( 'NONE', #127, 0.06250000000000002776 ) ;
#71 = DIRECTION ( 'NONE',  ( -1.224646799147353700E-16, -0.0000000000000000000, -1.000000000000000000 ) ) ;
#72 = AXIS2_PLACEMENT_3D ( 'NONE', #167, #225, #279 ) ;
#73 = VERTEX_POINT ( 'NONE', #223 ) ;
#74 = EDGE_CURVE ( 'NONE', #326, #28, #308, .T. ) ;
#75 = UNCERTAINTY_MEASURE_WITH_UNIT (LENGTH_MEASURE( 1.000000000000000082E-05 ), #341, 'distance_accuracy_value', 'NONE');
#76 = DIRECTION ( 'NONE',  ( 1.000000000000000000, 0.0000000000000000000, 0.0000000000000000000 ) ) ;
#77 = VERTEX_POINT ( 'NONE', #337 ) ;
#78 = AXIS2_PLACEMENT_3D ( 'NONE', #236, #18, #134 ) ;
#79 = ORIENTED_EDGE ( 'NONE', *, *, #34, .T. ) ;
#80 = DIRECTION ( 'NONE',  ( 1.000000000000000000, 0.0000000000000000000, 0.0000000000000000000 ) ) ;
#81 = VERTEX_POINT ( 'NONE', #200 ) ;
#82 = LINE ( 'NONE', #238, #27 ) ;
#83 = AXIS2_PLACEMENT_3D ( 'NONE', #101, #107, #275 ) ;
#84 = DIRECTION ( 'NONE',  ( 1.000000000000000000, 0.0000000000000000000, -0.0000000000000000000 ) ) ;
#85 = LENGTH_MEASURE_WITH_UNIT ( LENGTH_MEASURE( 0.02539999999999999897 ), #89 );
#86 = STYLED_ITEM ( 'NONE', ( #221 ), #315 ) ;
#87 = DIRECTION ( 'NONE',  ( 1.000000000000000000, 0.0000000000000000000, 0.0000000000000000000 ) ) ;
#88 = CARTESIAN_POINT ( 'NONE',  ( -0.01558439999999999652, 4.781290526167081051E-18, 0.07800000000000009703 ) ) ;
#89 =( LENGTH_UNIT ( ) NAMED_UNIT ( * ) SI_UNIT ( $, .METRE. ) );
#90 = ADVANCED_FACE ( 'NONE', ( #150 ), #307, .T. ) ;
#91 = DIRECTION ( 'NONE',  ( 1.224646799147353207E-16, 1.000000000000000000, -0.0000000000000000000 ) ) ;
#92 = TOROIDAL_SURFACE ( 'NONE', #288, 0.01058440000000000943, 0.005000000000000000104 ) ;
#93 = CARTESIAN_POINT ( 'NONE',  ( 0.04750000000000064587, 5.817072295950006528E-18, 1.500000000000000222 ) ) ;
#94 = CARTESIAN_POINT ( 'NONE',  ( -0.01058440000000000943, 1.602376857876363853E-18, 0.0000000000000000000 ) ) ;
#95 = DIRECTION ( 'NONE',  ( 1.000000000000000000, 0.0000000000000000000, 0.0000000000000000000 ) ) ;
#96 = AXIS2_PLACEMENT_3D ( 'NONE', #141, #71, #19 ) ;
#97 = AXIS2_PLACEMENT_3D ( 'NONE', #271, #189, #59 ) ;
#98 = ORIENTED_EDGE ( 'NONE', *, *, #192, .T. ) ;
#99 = COLOUR_RGB ( '',0.7921568627450980005, 0.8196078431372548767, 0.9333333333333333481 ) ;
#100 = ORIENTED_EDGE ( 'NONE', *, *, #20, .T. ) ;
#101 = CARTESIAN_POINT ( 'NONE',  ( 0.0000000000000000000, 0.0000000000000000000, 1.500000000000000222 ) ) ;
#102 = ORIENTED_EDGE ( 'NONE', *, *, #20, .F. ) ;
#103 = CARTESIAN_POINT ( 'NONE',  ( 9.552245033349369302E-18, 0.0000000000000000000, 0.07800000000000009703 ) ) ;
#104 = AXIS2_PLACEMENT_3D ( 'NONE', #240, #181, #246 ) ;
#105 = DIRECTION ( 'NONE',  ( 0.0000000000000000000, 0.0000000000000000000, 1.000000000000000000 ) ) ;
#106 = EDGE_LOOP ( 'NONE', ( #266, #212, #44, #55 ) ) ;
#107 = DIRECTION ( 'NONE',  ( 0.0000000000000000000, 0.0000000000000000000, 1.000000000000000000 ) ) ;
#108 = DIRECTION ( 'NONE',  ( 0.0000000000000000000, 0.0000000000000000000, 1.000000000000000000 ) ) ;
#109 = AXIS2_PLACEMENT_3D ( 'NONE', #39, #204, #17 ) ;
#110 =( GEOMETRIC_REPRESENTATION_CONTEXT ( 3 ) GLOBAL_UNCERTAINTY_ASSIGNED_CONTEXT ( ( #41 ) ) GLOBAL_UNIT_ASSIGNED_CONTEXT ( ( #193, #64, #194 ) ) REPRESENTATION_CONTEXT ( 'NONE', 'WORKASPACE' ) );
#111 = ADVANCED_FACE ( 'NONE', ( #169 ), #138, .T. ) ;
#112 = LINE ( 'NONE', #31, #190 ) ;
#113 = CARTESIAN_POINT ( 'NONE',  ( -0.04750000000000064587, 0.0000000000000000000, 1.500000000000000222 ) ) ;
#114 = EDGE_CURVE ( 'NONE', #45, #81, #176, .T. ) ;
#115 = DIRECTION ( 'NONE',  ( 0.0000000000000000000, 0.0000000000000000000, 1.000000000000000000 ) ) ;
#116 = DIRECTION ( 'NONE',  ( 0.0000000000000000000, 0.0000000000000000000, 1.000000000000000000 ) ) ;
#117 = EDGE_LOOP ( 'NONE', ( #290, #313, #210, #132 ) ) ;
#118 = LENGTH_MEASURE_WITH_UNIT ( LENGTH_MEASURE( 0.02539999999999999897 ), #67 );
#119 = ORIENTED_EDGE ( 'NONE', *, *, #146, .T. ) ;
#120 = EDGE_CURVE ( 'NONE', #274, #73, #314, .T. ) ;
#121 = VECTOR ( 'NONE', #259, 39.37007874015748854 ) ;
#122 =( NAMED_UNIT ( * ) SI_UNIT ( $, .STERADIAN. ) SOLID_ANGLE_UNIT ( ) );
#123 = CARTESIAN_POINT ( 'NONE',  ( 6.123233995736768848E-19, 0.0000000000000000000, 0.0000000000000000000 ) ) ;
#124 = CARTESIAN_POINT ( 'NONE',  ( 0.0000000000000000000, 0.0000000000000000000, 1.500000000000000222 ) ) ;
#125 = DIRECTION ( 'NONE',  ( 0.0000000000000000000, 0.0000000000000000000, -1.000000000000000000 ) ) ;
#126 = ORIENTED_EDGE ( 'NONE', *, *, #137, .T. ) ;
#127 = AXIS2_PLACEMENT_3D ( 'NONE', #6, #218, #191 ) ;
#128 = ORIENTED_EDGE ( 'NONE', *, *, #114, .T. ) ;
#129 = ORIENTED_EDGE ( 'NONE', *, *, #184, .T. ) ;
#130 = FACE_OUTER_BOUND ( 'NONE', #1, .T. ) ;
#131 = DIRECTION ( 'NONE',  ( 1.000000000000000000, 0.0000000000000000000, 0.0000000000000000000 ) ) ;
#132 = ORIENTED_EDGE ( 'NONE', *, *, #292, .F. ) ;
#133 = VECTOR ( 'NONE', #149, 39.37007874015748854 ) ;
#134 = DIRECTION ( 'NONE',  ( -1.000000000000000000, 0.0000000000000000000, 1.224646799147353700E-16 ) ) ;
#135 = ORIENTED_EDGE ( 'NONE', *, *, #47, .F. ) ;
#136 = FACE_OUTER_BOUND ( 'NONE', #24, .T. ) ;
#137 = EDGE_CURVE ( 'NONE', #234, #186, #280, .T. ) ;
#138 = CONICAL_SURFACE ( 'NONE', #340, 0.01558440000000000519, 0.1745329251994342246 ) ;
#139 = SURFACE_STYLE_FILL_AREA ( #166 ) ;
#140 = EDGE_CURVE ( 'NONE', #28, #326, #330, .T. ) ;
#141 = CARTESIAN_POINT ( 'NONE',  ( 0.0000000000000000000, 0.0000000000000000000, 0.0000000000000000000 ) ) ;
#142 = CIRCLE ( 'NONE', #83, 0.04750000000000064587 ) ;
#143 = SURFACE_SIDE_STYLE ('',( #174 ) ) ;
#144 = PLANE ( 'NONE',  #251 ) ;
#145 = ORIENTED_EDGE ( 'NONE', *, *, #201, .T. ) ;
#146 = EDGE_CURVE ( 'NONE', #186, #234, #58, .T. ) ;
#147 = LINE ( 'NONE', #12, #57 ) ;
#148 = CIRCLE ( 'NONE', #203, 0.01558440000000000866 ) ;
#149 = DIRECTION ( 'NONE',  ( -0.1736481776669314414, 2.126576849575786706E-17, 0.9848077530122077983 ) ) ;
#150 = FACE_OUTER_BOUND ( 'NONE', #344, .T. ) ;
#151 = ORIENTED_EDGE ( 'NONE', *, *, #120, .F. ) ;
#152 = ORIENTED_EDGE ( 'NONE', *, *, #264, .T. ) ;
#153 = CIRCLE ( 'NONE', #4, 0.01058440000000000943 ) ;
#154 = EDGE_LOOP ( 'NONE', ( #319, #237, #100, #126 ) ) ;
#155 = CARTESIAN_POINT ( 'NONE',  ( 0.06250000000000002776, 7.654042494670959086E-18, 1.485000000000000764 ) ) ;
#156 = ORIENTED_EDGE ( 'NONE', *, *, #349, .F. ) ;
#157 = LINE ( 'NONE', #294, #309 ) ;
#158 = EDGE_LOOP ( 'NONE', ( #135, #98, #22, #160 ) ) ;
#159 = FACE_OUTER_BOUND ( 'NONE', #158, .T. ) ;
#160 = ORIENTED_EDGE ( 'NONE', *, *, #327, .F. ) ;
#161 = MECHANICAL_DESIGN_GEOMETRIC_PRESENTATION_REPRESENTATION (  '', ( #321 ), #260 ) ;
#162 = PRESENTATION_LAYER_ASSIGNMENT (  '', '', ( #86 ) ) ;
#163 = LINE ( 'NONE', #164, #345 ) ;
#164 = CARTESIAN_POINT ( 'NONE',  ( -0.01558440000000000866, 0.0000000000000000000, 1.908538557663203017E-18 ) ) ;
#165 = AXIS2_PLACEMENT_3D ( 'NONE', #103, #318, #76 ) ;
#166 = FILL_AREA_STYLE ('',( #304 ) ) ;
#167 = CARTESIAN_POINT ( 'NONE',  ( 4.213661705584322371E-17, 0.0000000000000000000, 0.3440715893364548750 ) ) ;
#168 = CIRCLE ( 'NONE', #109, 0.04750000000000064587 ) ;
#169 = FACE_OUTER_BOUND ( 'NONE', #180, .T. ) ;
#170 = CARTESIAN_POINT ( 'NONE',  ( 9.552245033349369302E-18, 0.0000000000000000000, 0.07800000000000009703 ) ) ;
#171 = DIRECTION ( 'NONE',  ( 0.1736481776669316635, 0.0000000000000000000, 0.9848077530122077983 ) ) ;
#172 =( NAMED_UNIT ( * ) PLANE_ANGLE_UNIT ( ) SI_UNIT ( $, .RADIAN. ) );
#173 = DIRECTION ( 'NONE',  ( 0.0000000000000000000, 0.0000000000000000000, -1.000000000000000000 ) ) ;
#174 = SURFACE_STYLE_FILL_AREA ( #226 ) ;
#175 = DIRECTION ( 'NONE',  ( 1.000000000000000000, 0.0000000000000000000, 0.0000000000000000000 ) ) ;
#176 = CIRCLE ( 'NONE', #293, 0.01558440000000000519 ) ;
#177 = DIMENSIONAL_EXPONENTS ( 1.000000000000000000, 0.0000000000000000000, 0.0000000000000000000, 0.0000000000000000000, 0.0000000000000000000, 0.0000000000000000000, 0.0000000000000000000 ) ;
#178 = ORIENTED_EDGE ( 'NONE', *, *, #74, .T. ) ;
#179 = ORIENTED_EDGE ( 'NONE', *, *, #257, .T. ) ;
#180 = EDGE_LOOP ( 'NONE', ( #263, #316, #119, #102 ) ) ;
#181 = DIRECTION ( 'NONE',  ( 0.0000000000000000000, 0.0000000000000000000, -1.000000000000000000 ) ) ;
#182 = AXIS2_PLACEMENT_3D ( 'NONE', #14, #312, #285 ) ;
#183 = ORIENTED_EDGE ( 'NONE', *, *, #349, .T. ) ;
#184 = EDGE_CURVE ( 'NONE', #53, #242, #66, .T. ) ;
#185 = DIRECTION ( 'NONE',  ( -0.0000000000000000000, -0.0000000000000000000, -1.000000000000000000 ) ) ;
#186 = VERTEX_POINT ( 'NONE', #202 ) ;
#187 = FACE_OUTER_BOUND ( 'NONE', #106, .T. ) ;
#188 = ORIENTED_EDGE ( 'NONE', *, *, #146, .F. ) ;
#189 = DIRECTION ( 'NONE',  ( 0.0000000000000000000, 0.0000000000000000000, -1.000000000000000000 ) ) ;
#190 = VECTOR ( 'NONE', #198, 39.37007874015748143 ) ;
#191 = DIRECTION ( 'NONE',  ( -1.000000000000000000, 0.0000000000000000000, 0.0000000000000000000 ) ) ;
#192 = EDGE_CURVE ( 'NONE', #77, #326, #310, .T. ) ;
#193 =( CONVERSION_BASED_UNIT ( 'INCH', #62 ) LENGTH_UNIT ( ) NAMED_UNIT ( #215 ) );
#194 =( NAMED_UNIT ( * ) SI_UNIT ( $, .STERADIAN. ) SOLID_ANGLE_UNIT ( ) );
#195 = EDGE_CURVE ( 'NONE', #53, #274, #300, .T. ) ;
#196 = AXIS2_PLACEMENT_3D ( 'NONE', #40, #325, #80 ) ;
#197 = DIRECTION ( 'NONE',  ( 1.224646799147353700E-16, 0.0000000000000000000, 1.000000000000000000 ) ) ;
#198 = DIRECTION ( 'NONE',  ( -1.224646799147353700E-16, -0.0000000000000000000, -1.000000000000000000 ) ) ;
#199 = DIRECTION ( 'NONE',  ( -1.224646799147353700E-16, -0.0000000000000000000, -1.000000000000000000 ) ) ;
#200 = CARTESIAN_POINT ( 'NONE',  ( 0.01558440000000001387, 0.0000000000000000000, 0.07800000000000009703 ) ) ;
#201 = EDGE_CURVE ( 'NONE', #81, #45, #48, .T. ) ;
#202 = CARTESIAN_POINT ( 'NONE',  ( -0.06249999999999997918, 0.0000000000000000000, 0.3440715893364548750 ) ) ;
#203 = AXIS2_PLACEMENT_3D ( 'NONE', #208, #351, #29 ) ;
#204 = DIRECTION ( 'NONE',  ( 0.0000000000000000000, 0.0000000000000000000, 1.000000000000000000 ) ) ;
#205 = CARTESIAN_POINT ( 'NONE',  ( -0.06250000000000002776, 0.0000000000000000000, 1.485000000000000764 ) ) ;
#206 = TOROIDAL_SURFACE ( 'NONE', #228, 0.01058440000000000943, 0.005000000000000000104 ) ;
#207 = MANIFOLD_SOLID_BREP ( 'Fillet1', #247 ) ;
#208 = CARTESIAN_POINT ( 'NONE',  ( 6.123233995736768848E-19, 0.0000000000000000000, 0.005000000000000000104 ) ) ;
#209 = ADVANCED_FACE ( 'NONE', ( #136 ), #70, .T. ) ;
#210 = ORIENTED_EDGE ( 'NONE', *, *, #120, .T. ) ;
#211 = FACE_OUTER_BOUND ( 'NONE', #21, .T. ) ;
#212 = ORIENTED_EDGE ( 'NONE', *, *, #264, .F. ) ;
#213 = FACE_OUTER_BOUND ( 'NONE', #154, .T. ) ;
#214 = EDGE_LOOP ( 'NONE', ( #128, #183, #179, #3 ) ) ;
#215 = DIMENSIONAL_EXPONENTS ( 1.000000000000000000, 0.0000000000000000000, 0.0000000000000000000, 0.0000000000000000000, 0.0000000000000000000, 0.0000000000000000000, 0.0000000000000000000 ) ;
#216 = DIRECTION ( 'NONE',  ( -0.0000000000000000000, -0.0000000000000000000, -1.000000000000000000 ) ) ;
#217 = APPLICATION_CONTEXT ( 'automotive_design' ) ;
#218 = DIRECTION ( 'NONE',  ( -0.0000000000000000000, -0.0000000000000000000, -1.000000000000000000 ) ) ;
#219 = AXIS2_PLACEMENT_3D ( 'NONE', #69, #283, #173 ) ;
#220 = EDGE_CURVE ( 'NONE', #326, #234, #157, .T. ) ;
#221 = PRESENTATION_STYLE_ASSIGNMENT (( #249 ) ) ;
#222 = AXIS2_PLACEMENT_3D ( 'NONE', #261, #231, #65 ) ;
#223 = CARTESIAN_POINT ( 'NONE',  ( 0.01558440000000000866, 1.908538557663202247E-18, 0.005000000000000000104 ) ) ;
#224 = CARTESIAN_POINT ( 'NONE',  ( 0.0000000000000000000, 0.0000000000000000000, 0.0000000000000000000 ) ) ;
#225 = DIRECTION ( 'NONE',  ( -1.224646799147353700E-16, -0.0000000000000000000, -1.000000000000000000 ) ) ;
#226 = FILL_AREA_STYLE ('',( #36 ) ) ;
#227 = DIRECTION ( 'NONE',  ( -0.0000000000000000000, -0.0000000000000000000, -1.000000000000000000 ) ) ;
#228 = AXIS2_PLACEMENT_3D ( 'NONE', #7, #108, #297 ) ;
#229 = DIRECTION ( 'NONE',  ( 1.000000000000000000, 0.0000000000000000000, -0.0000000000000000000 ) ) ;
#230 = ADVANCED_FACE ( 'NONE', ( #211 ), #92, .T. ) ;
#231 = DIRECTION ( 'NONE',  ( -0.0000000000000000000, -0.0000000000000000000, -1.000000000000000000 ) ) ;
#232 = APPLICATION_CONTEXT ( 'automotive_design' ) ;
#233 = ORIENTED_EDGE ( 'NONE', *, *, #137, .F. ) ;
#234 = VERTEX_POINT ( 'NONE', #268 ) ;
#235 = ADVANCED_FACE ( 'NONE', ( #2 ), #206, .T. ) ;
#236 = CARTESIAN_POINT ( 'NONE',  ( 0.0000000000000000000, 0.0000000000000000000, 0.0000000000000000000 ) ) ;
#237 = ORIENTED_EDGE ( 'NONE', *, *, #201, .F. ) ;
#238 = CARTESIAN_POINT ( 'NONE',  ( -0.04750000000000064587, 0.0000000000000000000, 1.500000000000000222 ) ) ;
#239 = EDGE_LOOP ( 'NONE', ( #267, #244 ) ) ;
#240 = CARTESIAN_POINT ( 'NONE',  ( 0.0000000000000000000, 0.0000000000000000000, 1.500000000000000222 ) ) ;
#241 = PRESENTATION_LAYER_ASSIGNMENT (  '', '', ( #321 ) ) ;
#242 = VERTEX_POINT ( 'NONE', #54 ) ;
#243 = CARTESIAN_POINT ( 'NONE',  ( -0.01558439999999999652, 1.908538557663201862E-18, 0.07800000000000009703 ) ) ;
#244 = ORIENTED_EDGE ( 'NONE', *, *, #195, .T. ) ;
#245 = PRODUCT_RELATED_PRODUCT_CATEGORY ( 'part', '', ( #317 ) ) ;
#246 = DIRECTION ( 'NONE',  ( -1.000000000000000000, 0.0000000000000000000, 0.0000000000000000000 ) ) ;
#247 = CLOSED_SHELL ( 'NONE', ( #230, #43, #111, #286, #209, #90, #276, #336, #272, #250, #32, #235 ) ) ;
#248 = AXIS2_PLACEMENT_3D ( 'NONE', #311, #125, #175 ) ;
#249 = SURFACE_STYLE_USAGE ( .BOTH. , #33 ) ;
#250 = ADVANCED_FACE ( 'NONE', ( #5 ), #52, .T. ) ;
#251 = AXIS2_PLACEMENT_3D ( 'NONE', #35, #115, #229 ) ;
#252 = CONICAL_SURFACE ( 'NONE', #97, 0.04750000000000064587, 0.7853981633974466137 ) ;
#253 = FACE_OUTER_BOUND ( 'NONE', #214, .T. ) ;
#254 = SURFACE_STYLE_USAGE ( .BOTH. , #143 ) ;
#255 = EDGE_CURVE ( 'NONE', #274, #53, #153, .T. ) ;
#256 = DIRECTION ( 'NONE',  ( -1.000000000000000000, 0.0000000000000000000, 0.0000000000000000000 ) ) ;
#257 = EDGE_CURVE ( 'NONE', #73, #242, #148, .T. ) ;
#258 = DIRECTION ( 'NONE',  ( -1.224646799147353700E-16, -0.0000000000000000000, -1.000000000000000000 ) ) ;
#259 = DIRECTION ( 'NONE',  ( 0.7071067811865462405, 8.659560562354916834E-17, -0.7071067811865486830 ) ) ;
#260 =( GEOMETRIC_REPRESENTATION_CONTEXT ( 3 ) GLOBAL_UNCERTAINTY_ASSIGNED_CONTEXT ( ( #75 ) ) GLOBAL_UNIT_ASSIGNED_CONTEXT ( ( #341, #172, #122 ) ) REPRESENTATION_CONTEXT ( 'NONE', 'WORKASPACE' ) );
#261 = CARTESIAN_POINT ( 'NONE',  ( 0.0000000000000000000, 0.0000000000000000000, 1.500000000000000222 ) ) ;
#262 = ORIENTED_EDGE ( 'NONE', *, *, #47, .T. ) ;
#263 = ORIENTED_EDGE ( 'NONE', *, *, #114, .F. ) ;
#264 = EDGE_CURVE ( 'NONE', #350, #77, #142, .T. ) ;
#265 = COLOUR_RGB ( '',0.7921568627450980005, 0.8196078431372548767, 0.9333333333333333481 ) ;
#266 = ORIENTED_EDGE ( 'NONE', *, *, #192, .F. ) ;
#267 = ORIENTED_EDGE ( 'NONE', *, *, #255, .T. ) ;
#268 = CARTESIAN_POINT ( 'NONE',  ( 0.06250000000000006939, 7.654042494670963708E-18, 0.3440715893364548750 ) ) ;
#269 = ORIENTED_EDGE ( 'NONE', *, *, #346, .T. ) ;
#270 = DIRECTION ( 'NONE',  ( -0.0000000000000000000, -0.0000000000000000000, -1.000000000000000000 ) ) ;
#271 = CARTESIAN_POINT ( 'NONE',  ( 0.0000000000000000000, 0.0000000000000000000, 1.500000000000000222 ) ) ;
#272 = ADVANCED_FACE ( 'NONE', ( #213 ), #277, .T. ) ;
#273 = AXIS2_PLACEMENT_3D ( 'NONE', #339, #91, #342 ) ;
#274 = VERTEX_POINT ( 'NONE', #26 ) ;
#275 = DIRECTION ( 'NONE',  ( 1.000000000000000000, 0.0000000000000000000, 0.0000000000000000000 ) ) ;
#276 = ADVANCED_FACE ( 'NONE', ( #130 ), #299, .T. ) ;
#277 = CONICAL_SURFACE ( 'NONE', #165, 0.01558440000000000519, 0.1745329251994342246 ) ;
#278 =( NAMED_UNIT ( * ) PLANE_ANGLE_UNIT ( ) SI_UNIT ( $, .RADIAN. ) );
#279 = DIRECTION ( 'NONE',  ( 1.000000000000000000, 0.0000000000000000000, 0.0000000000000000000 ) ) ;
#280 = CIRCLE ( 'NONE', #182, 0.06250000000000002776 ) ;
#281 = DIRECTION ( 'NONE',  ( -1.000000000000000000, 0.0000000000000000000, 0.0000000000000000000 ) ) ;
#282 = PRODUCT_DEFINITION_FORMATION_WITH_SPECIFIED_SOURCE ( 'ANY', '', #317, .NOT_KNOWN. ) ;
#283 = DIRECTION ( 'NONE',  ( 0.0000000000000000000, -1.000000000000000000, 0.0000000000000000000 ) ) ;
#284 = CARTESIAN_POINT ( 'NONE',  ( 9.552245033349369302E-18, 0.0000000000000000000, 0.07800000000000009703 ) ) ;
#285 = DIRECTION ( 'NONE',  ( 1.000000000000000000, 0.0000000000000000000, 0.0000000000000000000 ) ) ;
#286 = ADVANCED_FACE ( 'NONE', ( #159 ), #61, .T. ) ;
#287 = LINE ( 'NONE', #68, #329 ) ;
#288 = AXIS2_PLACEMENT_3D ( 'NONE', #331, #295, #131 ) ;
#289 = ORIENTED_EDGE ( 'NONE', *, *, #220, .T. ) ;
#290 = ORIENTED_EDGE ( 'NONE', *, *, #184, .F. ) ;
#291 = ORIENTED_EDGE ( 'NONE', *, *, #195, .F. ) ;
#292 = EDGE_CURVE ( 'NONE', #242, #73, #303, .T. ) ;
#293 = AXIS2_PLACEMENT_3D ( 'NONE', #343, #258, #256 ) ;
#294 = CARTESIAN_POINT ( 'NONE',  ( 0.06250000000000002776, 7.654042494670959086E-18, 1.500000000000000222 ) ) ;
#295 = DIRECTION ( 'NONE',  ( 0.0000000000000000000, 0.0000000000000000000, 1.000000000000000000 ) ) ;
#296 = ORIENTED_EDGE ( 'NONE', *, *, #220, .F. ) ;
#297 = DIRECTION ( 'NONE',  ( 1.000000000000000000, 0.0000000000000000000, 0.0000000000000000000 ) ) ;
#298 = ORIENTED_EDGE ( 'NONE', *, *, #257, .F. ) ;
#299 = PLANE ( 'NONE',  #16 ) ;
#300 = CIRCLE ( 'NONE', #347, 0.01058440000000000943 ) ;
#301 =( GEOMETRIC_REPRESENTATION_CONTEXT ( 3 ) GLOBAL_UNCERTAINTY_ASSIGNED_CONTEXT ( ( #56 ) ) GLOBAL_UNIT_ASSIGNED_CONTEXT ( ( #333, #278, #10 ) ) REPRESENTATION_CONTEXT ( 'NONE', 'WORKASPACE' ) );
#302 = SHAPE_DEFINITION_REPRESENTATION ( #50, #315 ) ;
#303 = CIRCLE ( 'NONE', #196, 0.01558440000000000866 ) ;
#304 = FILL_AREA_STYLE_COLOUR ( '', #99 ) ;
#305 = DIRECTION ( 'NONE',  ( 0.0000000000000000000, 0.0000000000000000000, -1.000000000000000000 ) ) ;
#306 = PRODUCT_DEFINITION ( 'UNKNOWN', '', #282, #320 ) ;
#307 = CYLINDRICAL_SURFACE ( 'NONE', #222, 0.06250000000000002776 ) ;
#308 = CIRCLE ( 'NONE', #248, 0.06250000000000002776 ) ;
#309 = VECTOR ( 'NONE', #185, 39.37007874015748143 ) ;
#310 = LINE ( 'NONE', #93, #121 ) ;
#311 = CARTESIAN_POINT ( 'NONE',  ( 0.0000000000000000000, 0.0000000000000000000, 1.485000000000000764 ) ) ;
#312 = DIRECTION ( 'NONE',  ( -1.224646799147353700E-16, -0.0000000000000000000, -1.000000000000000000 ) ) ;
#313 = ORIENTED_EDGE ( 'NONE', *, *, #255, .F. ) ;
#314 = CIRCLE ( 'NONE', #219, 0.005000000000000000104 ) ;
#315 = ADVANCED_BREP_SHAPE_REPRESENTATION ( 'Micro_GEC-031-3-005X', ( #207, #332 ), #110 ) ;
#316 = ORIENTED_EDGE ( 'NONE', *, *, #324, .T. ) ;
#317 = PRODUCT ( 'Micro_GEC-031-3-005X', 'Micro_GEC-031-3-005X', '', ( #11 ) ) ;
#318 = DIRECTION ( 'NONE',  ( 1.224646799147353700E-16, 0.0000000000000000000, 1.000000000000000000 ) ) ;
#319 = ORIENTED_EDGE ( 'NONE', *, *, #324, .F. ) ;
#320 = PRODUCT_DEFINITION_CONTEXT ( 'detailed design', #232, 'design' ) ;
#321 = STYLED_ITEM ( 'NONE', ( #13 ), #207 ) ;
#322 = DIRECTION ( 'NONE',  ( -0.7071067811865462405, 0.0000000000000000000, -0.7071067811865486830 ) ) ;
#323 = ORIENTED_EDGE ( 'NONE', *, *, #34, .F. ) ;
#324 = EDGE_CURVE ( 'NONE', #45, #186, #328, .T. ) ;
#325 = DIRECTION ( 'NONE',  ( 0.0000000000000000000, 0.0000000000000000000, 1.000000000000000000 ) ) ;
#326 = VERTEX_POINT ( 'NONE', #155 ) ;
#327 = EDGE_CURVE ( 'NONE', #350, #28, #82, .T. ) ;
#328 = LINE ( 'NONE', #243, #133 ) ;
#329 = VECTOR ( 'NONE', #227, 39.37007874015748143 ) ;
#330 = CIRCLE ( 'NONE', #8, 0.06250000000000002776 ) ;
#331 = CARTESIAN_POINT ( 'NONE',  ( 6.123233995736768848E-19, 0.0000000000000000000, 0.005000000000000000104 ) ) ;
#332 = AXIS2_PLACEMENT_3D ( 'NONE', #224, #116, #338 ) ;
#333 =( CONVERSION_BASED_UNIT ( 'INCH', #85 ) LENGTH_UNIT ( ) NAMED_UNIT ( #177 ) );
#334 =( LENGTH_UNIT ( ) NAMED_UNIT ( * ) SI_UNIT ( $, .METRE. ) );
#335 = AXIS2_PLACEMENT_3D ( 'NONE', #170, #199, #281 ) ;
#336 = ADVANCED_FACE ( 'NONE', ( #187 ), #252, .T. ) ;
#337 = CARTESIAN_POINT ( 'NONE',  ( 0.04750000000000064587, 6.735557395310483192E-18, 1.500000000000000222 ) ) ;
#338 = DIRECTION ( 'NONE',  ( 1.000000000000000000, 0.0000000000000000000, 0.0000000000000000000 ) ) ;
#339 = CARTESIAN_POINT ( 'NONE',  ( -0.01058440000000000943, 1.296215158089525459E-18, 0.005000000000000000104 ) ) ;
#340 = AXIS2_PLACEMENT_3D ( 'NONE', #284, #197, #87 ) ;
#341 =( CONVERSION_BASED_UNIT ( 'INCH', #118 ) LENGTH_UNIT ( ) NAMED_UNIT ( #23 ) );
#342 = DIRECTION ( 'NONE',  ( -1.000000000000000000, 1.224646799147353454E-16, 0.0000000000000000000 ) ) ;
#343 = CARTESIAN_POINT ( 'NONE',  ( 9.552245033349369302E-18, 0.0000000000000000000, 0.07800000000000009703 ) ) ;
#344 = EDGE_LOOP ( 'NONE', ( #296, #178, #79, #233 ) ) ;
#345 = VECTOR ( 'NONE', #60, 39.37007874015748143 ) ;
#346 = EDGE_CURVE ( 'NONE', #45, #242, #163, .T. ) ;
#347 = AXIS2_PLACEMENT_3D ( 'NONE', #123, #270, #95 ) ;
#348 = MECHANICAL_DESIGN_GEOMETRIC_PRESENTATION_REPRESENTATION (  '', ( #86 ), #301 ) ;
#349 = EDGE_CURVE ( 'NONE', #81, #73, #112, .T. ) ;
#350 = VERTEX_POINT ( 'NONE', #113 ) ;
#351 = DIRECTION ( 'NONE',  ( 0.0000000000000000000, 0.0000000000000000000, 1.000000000000000000 ) ) ;
ENDSEC;
END-ISO-10303-21;
