ISO-10303-21;
HEADER;
FILE_DESCRIPTION (( 'STEP AP214' ),
    '1' );
FILE_NAME ('Micro_SEM-125-02X.STEP',
    '2021-09-02T01:27:05',
    ( '' ),
    ( '' ),
    'SwSTEP 2.0',
    'SolidWorks 2020',
    '' );
FILE_SCHEMA (( 'AUTOMOTIVE_DESIGN' ));
ENDSEC;

DATA;
#1 = DIRECTION ( 'NONE',  ( 0.0000000000000000000, 0.0000000000000000000, -1.000000000000000000 ) ) ;
#2 = VECTOR ( 'NONE', #191, 39.37007874015748143 ) ;
#3 = CONICAL_SURFACE ( 'NONE', #205, 0.04750000000000064587, 0.7853981633974457255 ) ;
#4 = ORIENTED_EDGE ( 'NONE', *, *, #189, .F. ) ;
#5 = CARTESIAN_POINT ( 'NONE',  ( 0.0000000000000000000, 0.0000000000000000000, 1.485000000000000764 ) ) ;
#6 = LENGTH_MEASURE_WITH_UNIT ( LENGTH_MEASURE( 0.02539999999999999897 ), #27 );
#7 = FACE_OUTER_BOUND ( 'NONE', #266, .T. ) ;
#8 = DIRECTION ( 'NONE',  ( 1.000000000000000000, 0.0000000000000000000, 0.0000000000000000000 ) ) ;
#9 =( LENGTH_UNIT ( ) NAMED_UNIT ( * ) SI_UNIT ( $, .METRE. ) );
#10 = CARTESIAN_POINT ( 'NONE',  ( 0.06250000000000000000, 7.654042494670956004E-18, 1.485000000000000764 ) ) ;
#11 = DIRECTION ( 'NONE',  ( -1.224646799147353454E-16, -0.0000000000000000000, -1.000000000000000000 ) ) ;
#12 = EDGE_LOOP ( 'NONE', ( #213, #252 ) ) ;
#13 = VECTOR ( 'NONE', #61, 39.37007874015748143 ) ;
#14 = ADVANCED_FACE ( 'NONE', ( #147 ), #298, .T. ) ;
#15 = EDGE_LOOP ( 'NONE', ( #4, #219, #164, #168 ) ) ;
#16 = VERTEX_POINT ( 'NONE', #188 ) ;
#17 = ADVANCED_FACE ( 'NONE', ( #143 ), #121, .T. ) ;
#18 = AXIS2_PLACEMENT_3D ( 'NONE', #31, #198, #262 ) ;
#19 = CARTESIAN_POINT ( 'NONE',  ( 0.06243749999999999994, 7.646388452176287375E-18, -9.478001694819074349E-34 ) ) ;
#20 = ORIENTED_EDGE ( 'NONE', *, *, #52, .F. ) ;
#21 = CARTESIAN_POINT ( 'NONE',  ( 3.061616997868383634E-17, 0.0000000000000000000, 0.2500000000000000000 ) ) ;
#22 = DIRECTION ( 'NONE',  ( -0.0000000000000000000, -0.0000000000000000000, -1.000000000000000000 ) ) ;
#23 = DIRECTION ( 'NONE',  ( 1.000000000000000000, 0.0000000000000000000, 0.0000000000000000000 ) ) ;
#24 = CARTESIAN_POINT ( 'NONE',  ( 0.0000000000000000000, 0.0000000000000000000, 1.485000000000000764 ) ) ;
#25 = CARTESIAN_POINT ( 'NONE',  ( 0.0000000000000000000, 0.0000000000000000000, 0.0000000000000000000 ) ) ;
#26 = EDGE_LOOP ( 'NONE', ( #132, #42, #273, #226 ) ) ;
#27 =( LENGTH_UNIT ( ) NAMED_UNIT ( * ) SI_UNIT ( $, .METRE. ) );
#28 =( NAMED_UNIT ( * ) PLANE_ANGLE_UNIT ( ) SI_UNIT ( $, .RADIAN. ) );
#29 = AXIS2_PLACEMENT_3D ( 'NONE', #21, #112, #37 ) ;
#30 = DIRECTION ( 'NONE',  ( -1.224646799147353454E-16, -0.0000000000000000000, -1.000000000000000000 ) ) ;
#31 = CARTESIAN_POINT ( 'NONE',  ( 9.364125142994977476E-34, 0.0000000000000000000, 7.646388452176288915E-18 ) ) ;
#32 = EDGE_CURVE ( 'NONE', #51, #250, #93, .T. ) ;
#33 = DIRECTION ( 'NONE',  ( 1.224646799147353454E-16, 0.0000000000000000000, 1.000000000000000000 ) ) ;
#34 = APPLICATION_CONTEXT ( 'automotive_design' ) ;
#35 = SURFACE_STYLE_FILL_AREA ( #285 ) ;
#36 = EDGE_CURVE ( 'NONE', #139, #193, #260, .T. ) ;
#37 = DIRECTION ( 'NONE',  ( -1.000000000000000000, 0.0000000000000000000, 0.0000000000000000000 ) ) ;
#38 = ORIENTED_EDGE ( 'NONE', *, *, #243, .T. ) ;
#39 = ORIENTED_EDGE ( 'NONE', *, *, #295, .F. ) ;
#40 = DIMENSIONAL_EXPONENTS ( 1.000000000000000000, 0.0000000000000000000, 0.0000000000000000000, 0.0000000000000000000, 0.0000000000000000000, 0.0000000000000000000, 0.0000000000000000000 ) ;
#41 = ORIENTED_EDGE ( 'NONE', *, *, #77, .T. ) ;
#42 = ORIENTED_EDGE ( 'NONE', *, *, #287, .T. ) ;
#43 = VECTOR ( 'NONE', #148, 39.37007874015748143 ) ;
#44 = APPLICATION_PROTOCOL_DEFINITION ( 'draft international standard', 'automotive_design', 1998, #34 ) ;
#45 = DIRECTION ( 'NONE',  ( 1.000000000000000000, 0.0000000000000000000, 0.0000000000000000000 ) ) ;
#46 = DIRECTION ( 'NONE',  ( -1.000000000000000000, 0.0000000000000000000, 0.0000000000000000000 ) ) ;
#47 = CARTESIAN_POINT ( 'NONE',  ( 0.0000000000000000000, 0.0000000000000000000, 1.500000000000000222 ) ) ;
#48 =( NAMED_UNIT ( * ) SI_UNIT ( $, .STERADIAN. ) SOLID_ANGLE_UNIT ( ) );
#49 = ORIENTED_EDGE ( 'NONE', *, *, #36, .F. ) ;
#50 = CONICAL_SURFACE ( 'NONE', #84, 0.06243750000000001382, 0.1745329251994338637 ) ;
#51 = VERTEX_POINT ( 'NONE', #172 ) ;
#52 = EDGE_CURVE ( 'NONE', #141, #16, #233, .T. ) ;
#53 = FACE_OUTER_BOUND ( 'NONE', #62, .T. ) ;
#54 = DIRECTION ( 'NONE',  ( 1.000000000000000000, 0.0000000000000000000, 0.0000000000000000000 ) ) ;
#55 = VECTOR ( 'NONE', #22, 39.37007874015748143 ) ;
#56 = CIRCLE ( 'NONE', #18, 0.06243749999999999994 ) ;
#57 = PRESENTATION_STYLE_ASSIGNMENT (( #195 ) ) ;
#58 = DIRECTION ( 'NONE',  ( -0.0000000000000000000, -0.0000000000000000000, -1.000000000000000000 ) ) ;
#59 = CARTESIAN_POINT ( 'NONE',  ( 0.0000000000000000000, 0.0000000000000000000, 0.0000000000000000000 ) ) ;
#60 = EDGE_CURVE ( 'NONE', #237, #141, #247, .T. ) ;
#61 = DIRECTION ( 'NONE',  ( 0.7071067811865456854, 8.659560562354911904E-17, -0.7071067811865493491 ) ) ;
#62 = EDGE_LOOP ( 'NONE', ( #39, #92, #292, #258 ) ) ;
#63 = CONICAL_SURFACE ( 'NONE', #234, 0.06243750000000001382, 0.1745329251994338637 ) ;
#64 = AXIS2_PLACEMENT_3D ( 'NONE', #68, #11, #244 ) ;
#65 = ORIENTED_EDGE ( 'NONE', *, *, #206, .F. ) ;
#66 = ORIENTED_EDGE ( 'NONE', *, *, #87, .F. ) ;
#67 = DIRECTION ( 'NONE',  ( 0.0000000000000000000, 0.0000000000000000000, 1.000000000000000000 ) ) ;
#68 = CARTESIAN_POINT ( 'NONE',  ( 9.364125142994977476E-34, 0.0000000000000000000, 7.646388452176288915E-18 ) ) ;
#69 = ORIENTED_EDGE ( 'NONE', *, *, #118, .F. ) ;
#70 = ORIENTED_EDGE ( 'NONE', *, *, #295, .T. ) ;
#71 = DIRECTION ( 'NONE',  ( -1.224646799147353454E-16, -0.0000000000000000000, -1.000000000000000000 ) ) ;
#72 = EDGE_CURVE ( 'NONE', #141, #237, #271, .T. ) ;
#73 = CLOSED_SHELL ( 'NONE', ( #106, #89, #264, #249, #204, #17, #149, #134, #14, #269 ) ) ;
#74 = DIRECTION ( 'NONE',  ( 0.0000000000000000000, 0.0000000000000000000, -1.000000000000000000 ) ) ;
#75 = DIRECTION ( 'NONE',  ( 1.224646799147353454E-16, 0.0000000000000000000, 1.000000000000000000 ) ) ;
#76 = CIRCLE ( 'NONE', #152, 0.06250000000000000000 ) ;
#77 = EDGE_CURVE ( 'NONE', #237, #83, #259, .T. ) ;
#78 = CARTESIAN_POINT ( 'NONE',  ( -0.04750000000000064587, 0.0000000000000000000, 1.500000000000000222 ) ) ;
#79 = CARTESIAN_POINT ( 'NONE',  ( -0.06243749999999999994, 0.0000000000000000000, 1.529277690435257783E-17 ) ) ;
#80 = AXIS2_PLACEMENT_3D ( 'NONE', #221, #58, #155 ) ;
#81 = AXIS2_PLACEMENT_3D ( 'NONE', #59, #82, #183 ) ;
#82 = DIRECTION ( 'NONE',  ( 0.0000000000000000000, 0.0000000000000000000, 1.000000000000000000 ) ) ;
#83 = VERTEX_POINT ( 'NONE', #277 ) ;
#84 = AXIS2_PLACEMENT_3D ( 'NONE', #241, #33, #288 ) ;
#85 = LINE ( 'NONE', #274, #13 ) ;
#86 = ORIENTED_EDGE ( 'NONE', *, *, #77, .F. ) ;
#87 = EDGE_CURVE ( 'NONE', #186, #270, #116, .T. ) ;
#88 = DIRECTION ( 'NONE',  ( -1.224646799147353454E-16, -0.0000000000000000000, -1.000000000000000000 ) ) ;
#89 = ADVANCED_FACE ( 'NONE', ( #99 ), #63, .T. ) ;
#90 =( LENGTH_UNIT ( ) NAMED_UNIT ( * ) SI_UNIT ( $, .METRE. ) );
#91 = CARTESIAN_POINT ( 'NONE',  ( -0.06250000000000000000, 0.0000000000000000000, 1.500000000000000222 ) ) ;
#92 = ORIENTED_EDGE ( 'NONE', *, *, #169, .F. ) ;
#93 = LINE ( 'NONE', #235, #190 ) ;
#94 = UNCERTAINTY_MEASURE_WITH_UNIT (LENGTH_MEASURE( 1.000000000000000082E-05 ), #185, 'distance_accuracy_value', 'NONE');
#95 = DIRECTION ( 'NONE',  ( -1.000000000000000000, 0.0000000000000000000, 0.0000000000000000000 ) ) ;
#96 = AXIS2_PLACEMENT_3D ( 'NONE', #128, #97, #220 ) ;
#97 = DIRECTION ( 'NONE',  ( 0.0000000000000000000, 0.0000000000000000000, 1.000000000000000000 ) ) ;
#98 = FACE_OUTER_BOUND ( 'NONE', #180, .T. ) ;
#99 = FACE_OUTER_BOUND ( 'NONE', #278, .T. ) ;
#100 = CIRCLE ( 'NONE', #109, 0.06250000000000000000 ) ;
#101 = DIRECTION ( 'NONE',  ( -1.224646799147353454E-16, -0.0000000000000000000, -1.000000000000000000 ) ) ;
#102 = SURFACE_STYLE_FILL_AREA ( #211 ) ;
#103 = CARTESIAN_POINT ( 'NONE',  ( 0.0000000000000000000, 0.0000000000000000000, 1.500000000000000222 ) ) ;
#104 = EDGE_LOOP ( 'NONE', ( #275, #135 ) ) ;
#105 =( GEOMETRIC_REPRESENTATION_CONTEXT ( 3 ) GLOBAL_UNCERTAINTY_ASSIGNED_CONTEXT ( ( #212 ) ) GLOBAL_UNIT_ASSIGNED_CONTEXT ( ( #175, #122, #48 ) ) REPRESENTATION_CONTEXT ( 'NONE', 'WORKASPACE' ) );
#106 = ADVANCED_FACE ( 'NONE', ( #7 ), #283, .T. ) ;
#107 = ORIENTED_EDGE ( 'NONE', *, *, #229, .F. ) ;
#108 = DIRECTION ( 'NONE',  ( -1.000000000000000000, 0.0000000000000000000, 0.0000000000000000000 ) ) ;
#109 = AXIS2_PLACEMENT_3D ( 'NONE', #222, #101, #200 ) ;
#110 = VECTOR ( 'NONE', #251, 39.37007874015748143 ) ;
#111 = ORIENTED_EDGE ( 'NONE', *, *, #32, .T. ) ;
#112 = DIRECTION ( 'NONE',  ( -1.224646799147353454E-16, -0.0000000000000000000, -1.000000000000000000 ) ) ;
#113 = ORIENTED_EDGE ( 'NONE', *, *, #60, .T. ) ;
#114 = APPLICATION_PROTOCOL_DEFINITION ( 'draft international standard', 'automotive_design', 1998, #156 ) ;
#115 = AXIS2_PLACEMENT_3D ( 'NONE', #24, #218, #215 ) ;
#116 = LINE ( 'NONE', #217, #43 ) ;
#117 = MECHANICAL_DESIGN_GEOMETRIC_PRESENTATION_REPRESENTATION (  '', ( #253 ), #105 ) ;
#118 = EDGE_CURVE ( 'NONE', #16, #83, #100, .T. ) ;
#119 = ADVANCED_BREP_SHAPE_REPRESENTATION ( 'Micro_SEM-125-02X', ( #194, #182 ), #138 ) ;
#120 = PRODUCT_DEFINITION_CONTEXT ( 'detailed design', #156, 'design' ) ;
#121 = PLANE ( 'NONE',  #181 ) ;
#122 =( NAMED_UNIT ( * ) PLANE_ANGLE_UNIT ( ) SI_UNIT ( $, .RADIAN. ) );
#123 = EDGE_LOOP ( 'NONE', ( #49, #70, #232, #225 ) ) ;
#124 = DIRECTION ( 'NONE',  ( 0.0000000000000000000, 0.0000000000000000000, 1.000000000000000000 ) ) ;
#125 =( NAMED_UNIT ( * ) SI_UNIT ( $, .STERADIAN. ) SOLID_ANGLE_UNIT ( ) );
#126 = LINE ( 'NONE', #238, #129 ) ;
#127 = SURFACE_SIDE_STYLE ('',( #35 ) ) ;
#128 = CARTESIAN_POINT ( 'NONE',  ( 0.0000000000000000000, 0.0000000000000000000, 1.500000000000000222 ) ) ;
#129 = VECTOR ( 'NONE', #177, 39.37007874015747433 ) ;
#130 = CARTESIAN_POINT ( 'NONE',  ( 0.0000000000000000000, 0.0000000000000000000, 0.0000000000000000000 ) ) ;
#131 = CARTESIAN_POINT ( 'NONE',  ( 3.065957821073043634E-17, 0.0000000000000000000, 0.2503544551137260044 ) ) ;
#132 = ORIENTED_EDGE ( 'NONE', *, *, #32, .F. ) ;
#133 =( NAMED_UNIT ( * ) PLANE_ANGLE_UNIT ( ) SI_UNIT ( $, .RADIAN. ) );
#134 = ADVANCED_FACE ( 'NONE', ( #286 ), #50, .T. ) ;
#135 = ORIENTED_EDGE ( 'NONE', *, *, #36, .T. ) ;
#136 = DIRECTION ( 'NONE',  ( -1.224646799147353454E-16, -0.0000000000000000000, -1.000000000000000000 ) ) ;
#137 = UNCERTAINTY_MEASURE_WITH_UNIT (LENGTH_MEASURE( 1.000000000000000082E-05 ), #174, 'distance_accuracy_value', 'NONE');
#138 =( GEOMETRIC_REPRESENTATION_CONTEXT ( 3 ) GLOBAL_UNCERTAINTY_ASSIGNED_CONTEXT ( ( #94 ) ) GLOBAL_UNIT_ASSIGNED_CONTEXT ( ( #185, #133, #159 ) ) REPRESENTATION_CONTEXT ( 'NONE', 'WORKASPACE' ) );
#139 = VERTEX_POINT ( 'NONE', #199 ) ;
#140 = CARTESIAN_POINT ( 'NONE',  ( 0.06250000000000000000, 7.654042494670956004E-18, 1.500000000000000222 ) ) ;
#141 = VERTEX_POINT ( 'NONE', #10 ) ;
#142 = AXIS2_PLACEMENT_3D ( 'NONE', #130, #30, #178 ) ;
#143 = FACE_OUTER_BOUND ( 'NONE', #104, .T. ) ;
#144 = CIRCLE ( 'NONE', #96, 0.04750000000000064587 ) ;
#145 = PRODUCT_DEFINITION ( 'UNKNOWN', '', #242, #120 ) ;
#146 = SHAPE_DEFINITION_REPRESENTATION ( #202, #119 ) ;
#147 = FACE_OUTER_BOUND ( 'NONE', #26, .T. ) ;
#148 = DIRECTION ( 'NONE',  ( -1.224646799147353454E-16, -0.0000000000000000000, -1.000000000000000000 ) ) ;
#149 = ADVANCED_FACE ( 'NONE', ( #53 ), #281, .T. ) ;
#150 = DIRECTION ( 'NONE',  ( -0.7071067811865456854, 0.0000000000000000000, -0.7071067811865493491 ) ) ;
#151 = AXIS2_PLACEMENT_3D ( 'NONE', #47, #167, #45 ) ;
#152 = AXIS2_PLACEMENT_3D ( 'NONE', #131, #136, #165 ) ;
#153 = CYLINDRICAL_SURFACE ( 'NONE', #80, 0.06250000000000000000 ) ;
#154 = EDGE_CURVE ( 'NONE', #193, #237, #261, .T. ) ;
#155 = DIRECTION ( 'NONE',  ( -1.000000000000000000, 0.0000000000000000000, 0.0000000000000000000 ) ) ;
#156 = APPLICATION_CONTEXT ( 'automotive_design' ) ;
#157 = AXIS2_PLACEMENT_3D ( 'NONE', #176, #74, #95 ) ;
#158 = CIRCLE ( 'NONE', #29, 0.06243750000000001382 ) ;
#159 =( NAMED_UNIT ( * ) SI_UNIT ( $, .STERADIAN. ) SOLID_ANGLE_UNIT ( ) );
#160 = AXIS2_PLACEMENT_3D ( 'NONE', #5, #1, #23 ) ;
#161 = DIMENSIONAL_EXPONENTS ( 1.000000000000000000, 0.0000000000000000000, 0.0000000000000000000, 0.0000000000000000000, 0.0000000000000000000, 0.0000000000000000000, 0.0000000000000000000 ) ;
#162 = ORIENTED_EDGE ( 'NONE', *, *, #52, .T. ) ;
#163 = DIRECTION ( 'NONE',  ( -0.0000000000000000000, -0.0000000000000000000, -1.000000000000000000 ) ) ;
#164 = ORIENTED_EDGE ( 'NONE', *, *, #229, .T. ) ;
#165 = DIRECTION ( 'NONE',  ( 1.000000000000000000, 0.0000000000000000000, 0.0000000000000000000 ) ) ;
#166 = MECHANICAL_DESIGN_GEOMETRIC_PRESENTATION_REPRESENTATION (  '', ( #294 ), #216 ) ;
#167 = DIRECTION ( 'NONE',  ( 0.0000000000000000000, 0.0000000000000000000, 1.000000000000000000 ) ) ;
#168 = ORIENTED_EDGE ( 'NONE', *, *, #118, .T. ) ;
#169 = EDGE_CURVE ( 'NONE', #193, #139, #144, .T. ) ;
#170 = CARTESIAN_POINT ( 'NONE',  ( 0.0000000000000000000, 0.0000000000000000000, 0.0000000000000000000 ) ) ;
#171 = VECTOR ( 'NONE', #150, 39.37007874015748143 ) ;
#172 = CARTESIAN_POINT ( 'NONE',  ( 0.06243750000000004852, 0.0000000000000000000, 0.2500000000000000000 ) ) ;
#173 = CIRCLE ( 'NONE', #64, 0.06243749999999999994 ) ;
#174 =( CONVERSION_BASED_UNIT ( 'INCH', #240 ) LENGTH_UNIT ( ) NAMED_UNIT ( #161 ) );
#175 =( CONVERSION_BASED_UNIT ( 'INCH', #6 ) LENGTH_UNIT ( ) NAMED_UNIT ( #40 ) );
#176 = CARTESIAN_POINT ( 'NONE',  ( 0.0000000000000000000, 0.0000000000000000000, 1.500000000000000222 ) ) ;
#177 = DIRECTION ( 'NONE',  ( -0.1736481776669311639, 2.126576849575783008E-17, 0.9848077530122080203 ) ) ;
#178 = DIRECTION ( 'NONE',  ( -1.000000000000000000, 0.0000000000000000000, 1.224646799147353207E-16 ) ) ;
#179 = CARTESIAN_POINT ( 'NONE',  ( -0.06243749999999997913, 7.650215473423623230E-18, 0.2500000000000000000 ) ) ;
#180 = EDGE_LOOP ( 'NONE', ( #20, #296, #41, #69 ) ) ;
#181 = AXIS2_PLACEMENT_3D ( 'NONE', #280, #67, #257 ) ;
#182 = AXIS2_PLACEMENT_3D ( 'NONE', #25, #124, #8 ) ;
#183 = DIRECTION ( 'NONE',  ( 1.000000000000000000, 0.0000000000000000000, -0.0000000000000000000 ) ) ;
#184 = ORIENTED_EDGE ( 'NONE', *, *, #223, .F. ) ;
#185 =( CONVERSION_BASED_UNIT ( 'INCH', #246 ) LENGTH_UNIT ( ) NAMED_UNIT ( #248 ) );
#186 = VERTEX_POINT ( 'NONE', #179 ) ;
#187 = DIRECTION ( 'NONE',  ( 0.0000000000000000000, 0.0000000000000000000, -1.000000000000000000 ) ) ;
#188 = CARTESIAN_POINT ( 'NONE',  ( 0.06250000000000002776, 7.654042494670959086E-18, 0.2503544551137260044 ) ) ;
#189 = EDGE_CURVE ( 'NONE', #186, #83, #126, .T. ) ;
#190 = VECTOR ( 'NONE', #71, 39.37007874015748143 ) ;
#191 = DIRECTION ( 'NONE',  ( -0.0000000000000000000, -0.0000000000000000000, -1.000000000000000000 ) ) ;
#192 = EDGE_LOOP ( 'NONE', ( #113, #162, #207, #86 ) ) ;
#193 = VERTEX_POINT ( 'NONE', #263 ) ;
#194 = MANIFOLD_SOLID_BREP ( 'Cut-Revolve1', #73 ) ;
#195 = SURFACE_STYLE_USAGE ( .BOTH. , #127 ) ;
#196 = COLOUR_RGB ( '',0.7921568627450980005, 0.8196078431372548767, 0.9333333333333333481 ) ;
#197 = CARTESIAN_POINT ( 'NONE',  ( 3.061616997868383634E-17, 0.0000000000000000000, 0.2500000000000000000 ) ) ;
#198 = DIRECTION ( 'NONE',  ( -1.224646799147353454E-16, -0.0000000000000000000, -1.000000000000000000 ) ) ;
#199 = CARTESIAN_POINT ( 'NONE',  ( 0.04750000000000064587, 6.735557395310482421E-18, 1.500000000000000222 ) ) ;
#200 = DIRECTION ( 'NONE',  ( 1.000000000000000000, 0.0000000000000000000, 0.0000000000000000000 ) ) ;
#201 = EDGE_CURVE ( 'NONE', #250, #270, #56, .T. ) ;
#202 = PRODUCT_DEFINITION_SHAPE ( 'NONE', 'NONE',  #145 ) ;
#203 = FACE_OUTER_BOUND ( 'NONE', #12, .T. ) ;
#204 = ADVANCED_FACE ( 'NONE', ( #98 ), #153, .T. ) ;
#205 = AXIS2_PLACEMENT_3D ( 'NONE', #256, #187, #46 ) ;
#206 = EDGE_CURVE ( 'NONE', #270, #250, #173, .T. ) ;
#207 = ORIENTED_EDGE ( 'NONE', *, *, #243, .F. ) ;
#208 = ORIENTED_EDGE ( 'NONE', *, *, #189, .T. ) ;
#209 = CARTESIAN_POINT ( 'NONE',  ( -0.06250000000000000000, 0.0000000000000000000, 1.485000000000000764 ) ) ;
#210 = COLOUR_RGB ( '',0.7921568627450980005, 0.8196078431372548767, 0.9333333333333333481 ) ;
#211 = FILL_AREA_STYLE ('',( #272 ) ) ;
#212 = UNCERTAINTY_MEASURE_WITH_UNIT (LENGTH_MEASURE( 1.000000000000000082E-05 ), #175, 'distance_accuracy_value', 'NONE');
#213 = ORIENTED_EDGE ( 'NONE', *, *, #206, .T. ) ;
#214 = CARTESIAN_POINT ( 'NONE',  ( 3.061616997868383634E-17, 0.0000000000000000000, 0.2500000000000000000 ) ) ;
#215 = DIRECTION ( 'NONE',  ( 1.000000000000000000, 0.0000000000000000000, 0.0000000000000000000 ) ) ;
#216 =( GEOMETRIC_REPRESENTATION_CONTEXT ( 3 ) GLOBAL_UNCERTAINTY_ASSIGNED_CONTEXT ( ( #137 ) ) GLOBAL_UNIT_ASSIGNED_CONTEXT ( ( #174, #28, #125 ) ) REPRESENTATION_CONTEXT ( 'NONE', 'WORKASPACE' ) );
#217 = CARTESIAN_POINT ( 'NONE',  ( -0.06243750000000001382, 0.0000000000000000000, 7.646388452176288915E-18 ) ) ;
#218 = DIRECTION ( 'NONE',  ( 0.0000000000000000000, 0.0000000000000000000, -1.000000000000000000 ) ) ;
#219 = ORIENTED_EDGE ( 'NONE', *, *, #287, .F. ) ;
#220 = DIRECTION ( 'NONE',  ( 1.000000000000000000, 0.0000000000000000000, 0.0000000000000000000 ) ) ;
#221 = CARTESIAN_POINT ( 'NONE',  ( 0.0000000000000000000, 0.0000000000000000000, 1.500000000000000222 ) ) ;
#222 = CARTESIAN_POINT ( 'NONE',  ( 3.065957821073043634E-17, 0.0000000000000000000, 0.2503544551137260044 ) ) ;
#223 = EDGE_CURVE ( 'NONE', #186, #51, #158, .T. ) ;
#224 = CARTESIAN_POINT ( 'NONE',  ( 0.06243750000000004852, 0.0000000000000000000, 0.2500000000000000000 ) ) ;
#225 = ORIENTED_EDGE ( 'NONE', *, *, #154, .F. ) ;
#226 = ORIENTED_EDGE ( 'NONE', *, *, #201, .F. ) ;
#227 = CYLINDRICAL_SURFACE ( 'NONE', #267, 0.06250000000000000000 ) ;
#228 = CIRCLE ( 'NONE', #239, 0.06243750000000001382 ) ;
#229 = EDGE_CURVE ( 'NONE', #51, #16, #289, .T. ) ;
#230 = ORIENTED_EDGE ( 'NONE', *, *, #223, .T. ) ;
#231 = FACE_OUTER_BOUND ( 'NONE', #192, .T. ) ;
#232 = ORIENTED_EDGE ( 'NONE', *, *, #60, .F. ) ;
#233 = LINE ( 'NONE', #140, #55 ) ;
#234 = AXIS2_PLACEMENT_3D ( 'NONE', #197, #75, #54 ) ;
#235 = CARTESIAN_POINT ( 'NONE',  ( 0.06243750000000001382, 7.646388452176288915E-18, -7.646388452176288915E-18 ) ) ;
#236 = PRODUCT_RELATED_PRODUCT_CATEGORY ( 'part', '', ( #245 ) ) ;
#237 = VERTEX_POINT ( 'NONE', #209 ) ;
#238 = CARTESIAN_POINT ( 'NONE',  ( -0.06243749999999997913, 7.646388452176288915E-18, 0.2500000000000000000 ) ) ;
#239 = AXIS2_PLACEMENT_3D ( 'NONE', #214, #299, #268 ) ;
#240 = LENGTH_MEASURE_WITH_UNIT ( LENGTH_MEASURE( 0.02539999999999999897 ), #9 );
#241 = CARTESIAN_POINT ( 'NONE',  ( 3.061616997868383634E-17, 0.0000000000000000000, 0.2500000000000000000 ) ) ;
#242 = PRODUCT_DEFINITION_FORMATION_WITH_SPECIFIED_SOURCE ( 'ANY', '', #245, .NOT_KNOWN. ) ;
#243 = EDGE_CURVE ( 'NONE', #83, #16, #76, .T. ) ;
#244 = DIRECTION ( 'NONE',  ( -1.000000000000000000, 0.0000000000000000000, 1.224646799147353700E-16 ) ) ;
#245 = PRODUCT ( 'Micro_SEM-125-02X', 'Micro_SEM-125-02X', '', ( #279 ) ) ;
#246 = LENGTH_MEASURE_WITH_UNIT ( LENGTH_MEASURE( 0.02539999999999999897 ), #90 );
#247 = CIRCLE ( 'NONE', #115, 0.06250000000000000000 ) ;
#248 = DIMENSIONAL_EXPONENTS ( 1.000000000000000000, 0.0000000000000000000, 0.0000000000000000000, 0.0000000000000000000, 0.0000000000000000000, 0.0000000000000000000, 0.0000000000000000000 ) ;
#249 = ADVANCED_FACE ( 'NONE', ( #231 ), #227, .T. ) ;
#250 = VERTEX_POINT ( 'NONE', #19 ) ;
#251 = DIRECTION ( 'NONE',  ( 0.1736481776669313581, 0.0000000000000000000, 0.9848077530122077983 ) ) ;
#252 = ORIENTED_EDGE ( 'NONE', *, *, #201, .T. ) ;
#253 = STYLED_ITEM ( 'NONE', ( #276 ), #119 ) ;
#254 = SURFACE_STYLE_USAGE ( .BOTH. , #297 ) ;
#255 = DIRECTION ( 'NONE',  ( -1.000000000000000000, 0.0000000000000000000, 1.224646799147353207E-16 ) ) ;
#256 = CARTESIAN_POINT ( 'NONE',  ( 0.0000000000000000000, 0.0000000000000000000, 1.500000000000000222 ) ) ;
#257 = DIRECTION ( 'NONE',  ( 1.000000000000000000, 0.0000000000000000000, -0.0000000000000000000 ) ) ;
#258 = ORIENTED_EDGE ( 'NONE', *, *, #72, .F. ) ;
#259 = LINE ( 'NONE', #91, #2 ) ;
#260 = CIRCLE ( 'NONE', #151, 0.04750000000000064587 ) ;
#261 = LINE ( 'NONE', #78, #171 ) ;
#262 = DIRECTION ( 'NONE',  ( -1.000000000000000000, 0.0000000000000000000, 1.224646799147353700E-16 ) ) ;
#263 = CARTESIAN_POINT ( 'NONE',  ( -0.04750000000000064587, 0.0000000000000000000, 1.500000000000000222 ) ) ;
#264 = ADVANCED_FACE ( 'NONE', ( #265 ), #3, .T. ) ;
#265 = FACE_OUTER_BOUND ( 'NONE', #123, .T. ) ;
#266 = EDGE_LOOP ( 'NONE', ( #230, #111, #65, #66 ) ) ;
#267 = AXIS2_PLACEMENT_3D ( 'NONE', #103, #163, #108 ) ;
#268 = DIRECTION ( 'NONE',  ( -1.000000000000000000, 0.0000000000000000000, 0.0000000000000000000 ) ) ;
#269 = ADVANCED_FACE ( 'NONE', ( #203 ), #290, .F. ) ;
#270 = VERTEX_POINT ( 'NONE', #79 ) ;
#271 = CIRCLE ( 'NONE', #160, 0.06250000000000000000 ) ;
#272 = FILL_AREA_STYLE_COLOUR ( '', #210 ) ;
#273 = ORIENTED_EDGE ( 'NONE', *, *, #87, .T. ) ;
#274 = CARTESIAN_POINT ( 'NONE',  ( 0.04750000000000064587, 5.817072295950006528E-18, 1.500000000000000222 ) ) ;
#275 = ORIENTED_EDGE ( 'NONE', *, *, #169, .T. ) ;
#276 = PRESENTATION_STYLE_ASSIGNMENT (( #254 ) ) ;
#277 = CARTESIAN_POINT ( 'NONE',  ( -0.06249999999999996531, 0.0000000000000000000, 0.2503544551137260044 ) ) ;
#278 = EDGE_LOOP ( 'NONE', ( #184, #208, #38, #107 ) ) ;
#279 = PRODUCT_CONTEXT ( 'NONE', #34, 'mechanical' ) ;
#280 = CARTESIAN_POINT ( 'NONE',  ( 0.0000000000000000000, 0.0000000000000000000, 1.500000000000000222 ) ) ;
#281 = CONICAL_SURFACE ( 'NONE', #157, 0.04750000000000064587, 0.7853981633974457255 ) ;
#282 = PRESENTATION_LAYER_ASSIGNMENT (  '', '', ( #253 ) ) ;
#283 = CYLINDRICAL_SURFACE ( 'NONE', #142, 0.06243750000000001382 ) ;
#284 = FILL_AREA_STYLE_COLOUR ( '', #196 ) ;
#285 = FILL_AREA_STYLE ('',( #284 ) ) ;
#286 = FACE_OUTER_BOUND ( 'NONE', #15, .T. ) ;
#287 = EDGE_CURVE ( 'NONE', #51, #186, #228, .T. ) ;
#288 = DIRECTION ( 'NONE',  ( 1.000000000000000000, 0.0000000000000000000, 0.0000000000000000000 ) ) ;
#289 = LINE ( 'NONE', #224, #110 ) ;
#290 = PLANE ( 'NONE',  #81 ) ;
#291 = PRESENTATION_LAYER_ASSIGNMENT (  '', '', ( #294 ) ) ;
#292 = ORIENTED_EDGE ( 'NONE', *, *, #154, .T. ) ;
#293 = AXIS2_PLACEMENT_3D ( 'NONE', #170, #88, #255 ) ;
#294 = STYLED_ITEM ( 'NONE', ( #57 ), #194 ) ;
#295 = EDGE_CURVE ( 'NONE', #139, #141, #85, .T. ) ;
#296 = ORIENTED_EDGE ( 'NONE', *, *, #72, .T. ) ;
#297 = SURFACE_SIDE_STYLE ('',( #102 ) ) ;
#298 = CYLINDRICAL_SURFACE ( 'NONE', #293, 0.06243750000000001382 ) ;
#299 = DIRECTION ( 'NONE',  ( -1.224646799147353454E-16, -0.0000000000000000000, -1.000000000000000000 ) ) ;
ENDSEC;
END-ISO-10303-21;
