ISO-10303-21;
HEADER;
FILE_DESCRIPTION (( 'STEP AP214' ),
    '1' );
FILE_NAME ('83808.STEP',
    '2023-07-05T16:09:25',
    ( '' ),
    ( '' ),
    'SwSTEP 2.0',
    'SolidWorks 2023',
    '' );
FILE_SCHEMA (( 'AUTOMOTIVE_DESIGN' ));
ENDSEC;

DATA;
#1 = CYLINDRICAL_SURFACE ( 'NONE', #160, 0.1249999999999999029 ) ;
#2 = VECTOR ( 'NONE', #127, 39.37007874015748143 ) ;
#3 = CARTESIAN_POINT ( 'NONE',  ( -6.123233995736766036E-17, 2.500000000000000000, 0.000000000000000000 ) ) ;
#4 = DIRECTION ( 'NONE',  ( -1.000000000000000000, 0.000000000000000000, 0.000000000000000000 ) ) ;
#5 = ADVANCED_FACE ( 'NONE', ( #174 ), #132, .F. ) ;
#6 = DIMENSIONAL_EXPONENTS ( 1.000000000000000000, 0.000000000000000000, 0.000000000000000000, 0.000000000000000000, 0.000000000000000000, 0.000000000000000000, 0.000000000000000000 ) ;
#7 = ADVANCED_FACE ( 'NONE', ( #213 ), #93, .T. ) ;
#8 = FACE_OUTER_BOUND ( 'NONE', #171, .T. ) ;
#9 = FACE_OUTER_BOUND ( 'NONE', #261, .T. ) ;
#10 = EDGE_LOOP ( 'NONE', ( #105, #231, #27, #87 ) ) ;
#11 = STYLED_ITEM ( 'NONE', ( #212 ), #49 ) ;
#12 = LENGTH_MEASURE_WITH_UNIT ( LENGTH_MEASURE( 0.02539999999999999897 ), #214 );
#13 =( LENGTH_UNIT ( ) NAMED_UNIT ( * ) SI_UNIT ( $, .METRE. ) );
#14 = DIRECTION ( 'NONE',  ( -6.296165443231977236E-18, -1.000000000000000000, -0.000000000000000000 ) ) ;
#15 =( LENGTH_UNIT ( ) NAMED_UNIT ( * ) SI_UNIT ( $, .METRE. ) );
#16 = COLOUR_RGB ( '',0.7921568627450980005, 0.8196078431372548767, 0.9333333333333333481 ) ;
#17 = ORIENTED_EDGE ( 'NONE', *, *, #22, .T. ) ;
#18 = LINE ( 'NONE', #41, #197 ) ;
#19 = SHAPE_DEFINITION_REPRESENTATION ( #60, #155 ) ;
#20 = AXIS2_PLACEMENT_3D ( 'NONE', #248, #68, #251 ) ;
#21 = CARTESIAN_POINT ( 'NONE',  ( -6.123233995736766036E-17, 2.500000000000000000, 0.000000000000000000 ) ) ;
#22 = EDGE_CURVE ( 'NONE', #187, #218, #224, .T. ) ;
#23 =( NAMED_UNIT ( * ) PLANE_ANGLE_UNIT ( ) SI_UNIT ( $, .RADIAN. ) );
#24 =( GEOMETRIC_REPRESENTATION_CONTEXT ( 3 ) GLOBAL_UNCERTAINTY_ASSIGNED_CONTEXT ( ( #144 ) ) GLOBAL_UNIT_ASSIGNED_CONTEXT ( ( #238, #38, #112 ) ) REPRESENTATION_CONTEXT ( 'NONE', 'WORKASPACE' ) );
#25 = LENGTH_MEASURE_WITH_UNIT ( LENGTH_MEASURE( 0.02539999999999999897 ), #106 );
#26 = PLANE ( 'NONE',  #20 ) ;
#27 = ORIENTED_EDGE ( 'NONE', *, *, #53, .T. ) ;
#28 = AXIS2_PLACEMENT_3D ( 'NONE', #76, #154, #234 ) ;
#29 = DIRECTION ( 'NONE',  ( -1.228345323885430886E-16, 1.000000000000000000, -0.000000000000000000 ) ) ;
#30 = SURFACE_SIDE_STYLE ('',( #153 ) ) ;
#31 = CARTESIAN_POINT ( 'NONE',  ( 2.304996744654222029E-16, 0.1249999999999996253, 0.000000000000000000 ) ) ;
#32 = SURFACE_STYLE_FILL_AREA ( #208 ) ;
#33 = DIRECTION ( 'NONE',  ( -1.228345323885430886E-16, 1.000000000000000000, -0.000000000000000000 ) ) ;
#34 = CONICAL_SURFACE ( 'NONE', #129, 39.37007874015762354, 0.7853981633974500554 ) ;
#35 = LENGTH_MEASURE_WITH_UNIT ( LENGTH_MEASURE( 0.02539999999999999897 ), #54 );
#36 = PRODUCT_DEFINITION ( 'UNKNOWN', '', #47, #63 ) ;
#37 = UNCERTAINTY_MEASURE_WITH_UNIT (LENGTH_MEASURE( 1.000000000000000082E-05 ), #80, 'distance_accuracy_value', 'NONE');
#38 =( NAMED_UNIT ( * ) PLANE_ANGLE_UNIT ( ) SI_UNIT ( $, .RADIAN. ) );
#39 =( LENGTH_UNIT ( ) NAMED_UNIT ( * ) SI_UNIT ( $, .METRE. ) );
#40 = VERTEX_POINT ( 'NONE', #139 ) ;
#41 = CARTESIAN_POINT ( 'NONE',  ( 0.000000000000000000, 0.000000000000000000, 0.000000000000000000 ) ) ;
#42 = EDGE_CURVE ( 'NONE', #45, #52, #167, .T. ) ;
#43 = STYLED_ITEM ( 'NONE', ( #237 ), #7 ) ;
#44 = CIRCLE ( 'NONE', #88, 0.1250000000000000555 ) ;
#45 = VERTEX_POINT ( 'NONE', #55 ) ;
#46 = ORIENTED_EDGE ( 'NONE', *, *, #22, .F. ) ;
#47 = PRODUCT_DEFINITION_FORMATION_WITH_SPECIFIED_SOURCE ( 'ANY', '', #196, .NOT_KNOWN. ) ;
#48 = ORIENTED_EDGE ( 'NONE', *, *, #42, .F. ) ;
#49 = MANIFOLD_SOLID_BREP ( 'Revolve - Cutting Edge', #90 ) ;
#50 = ORIENTED_EDGE ( 'NONE', *, *, #219, .T. ) ;
#51 = CARTESIAN_POINT ( 'NONE',  ( -0.1249999999999999861, 0.1249999999999995559, 0.000000000000000000 ) ) ;
#52 = VERTEX_POINT ( 'NONE', #121 ) ;
#53 = EDGE_CURVE ( 'NONE', #52, #40, #198, .T. ) ;
#54 =( LENGTH_UNIT ( ) NAMED_UNIT ( * ) SI_UNIT ( $, .METRE. ) );
#55 = CARTESIAN_POINT ( 'NONE',  ( 0.1249999999999999584, 0.1249999999999996392, 1.530808498934190893E-17 ) ) ;
#56 = APPLICATION_CONTEXT ( 'automotive_design' ) ;
#57 = CARTESIAN_POINT ( 'NONE',  ( 2.304996744654222029E-16, 0.1249999999999995559, 0.000000000000000000 ) ) ;
#58 = EDGE_CURVE ( 'NONE', #166, #187, #66, .T. ) ;
#59 = UNCERTAINTY_MEASURE_WITH_UNIT (LENGTH_MEASURE( 1.000000000000000082E-05 ), #128, 'distance_accuracy_value', 'NONE');
#60 = PRODUCT_DEFINITION_SHAPE ( 'NONE', 'NONE',  #36 ) ;
#61 = AXIS2_PLACEMENT_3D ( 'NONE', #31, #33, #114 ) ;
#62 = ADVANCED_FACE ( 'NONE', ( #183 ), #1, .T. ) ;
#63 = PRODUCT_DEFINITION_CONTEXT ( 'detailed design', #56, 'design' ) ;
#64 =( GEOMETRIC_REPRESENTATION_CONTEXT ( 3 ) GLOBAL_UNCERTAINTY_ASSIGNED_CONTEXT ( ( #37 ) ) GLOBAL_UNIT_ASSIGNED_CONTEXT ( ( #80, #263, #142 ) ) REPRESENTATION_CONTEXT ( 'NONE', 'WORKASPACE' ) );
#65 = CIRCLE ( 'NONE', #227, 0.1249999999999997641 ) ;
#66 = LINE ( 'NONE', #164, #115 ) ;
#67 = DIMENSIONAL_EXPONENTS ( 1.000000000000000000, 0.000000000000000000, 0.000000000000000000, 0.000000000000000000, 0.000000000000000000, 0.000000000000000000, 0.000000000000000000 ) ;
#68 = DIRECTION ( 'NONE',  ( 1.228345323885430886E-16, -1.000000000000000000, 0.000000000000000000 ) ) ;
#69 =( GEOMETRIC_REPRESENTATION_CONTEXT ( 3 ) GLOBAL_UNCERTAINTY_ASSIGNED_CONTEXT ( ( #161 ) ) GLOBAL_UNIT_ASSIGNED_CONTEXT ( ( #221, #113, #140 ) ) REPRESENTATION_CONTEXT ( 'NONE', 'WORKASPACE' ) );
#70 = EDGE_CURVE ( 'NONE', #147, #40, #44, .T. ) ;
#71 = DIRECTION ( 'NONE',  ( -1.000000000000000000, 0.000000000000000000, 0.000000000000000000 ) ) ;
#72 = DIRECTION ( 'NONE',  ( -1.000000000000000000, -1.365923996832134074E-16, 0.000000000000000000 ) ) ;
#73 = FILL_AREA_STYLE ('',( #175 ) ) ;
#74 = CONICAL_SURFACE ( 'NONE', #81, 39.37007874015762354, 0.7853981633974500554 ) ;
#75 = DIRECTION ( 'NONE',  ( -1.000000000000000000, 6.296165443231976466E-18, 0.000000000000000000 ) ) ;
#76 = CARTESIAN_POINT ( 'NONE',  ( 7.870206804039943619E-19, 0.1249999999999995559, 0.000000000000000000 ) ) ;
#77 = DIRECTION ( 'NONE',  ( 6.296165443231977236E-18, 1.000000000000000000, 0.000000000000000000 ) ) ;
#78 = COLOUR_RGB ( '',1.000000000000000000, 0.000000000000000000, 0.000000000000000000 ) ;
#79 = FILL_AREA_STYLE_COLOUR ( '', #120 ) ;
#80 =( CONVERSION_BASED_UNIT ( 'INCH', #99 ) LENGTH_UNIT ( ) NAMED_UNIT ( #165 ) );
#81 = AXIS2_PLACEMENT_3D ( 'NONE', #252, #77, #107 ) ;
#82 = UNCERTAINTY_MEASURE_WITH_UNIT (LENGTH_MEASURE( 1.000000000000000082E-05 ), #225, 'distance_accuracy_value', 'NONE');
#83 = LENGTH_MEASURE_WITH_UNIT ( LENGTH_MEASURE( 0.02539999999999999897 ), #13 );
#84 = AXIS2_PLACEMENT_3D ( 'NONE', #21, #101, #182 ) ;
#85 = CARTESIAN_POINT ( 'NONE',  ( -6.123233995736766036E-17, 2.500000000000000000, 0.000000000000000000 ) ) ;
#86 = FACE_OUTER_BOUND ( 'NONE', #258, .T. ) ;
#87 = ORIENTED_EDGE ( 'NONE', *, *, #70, .F. ) ;
#88 = AXIS2_PLACEMENT_3D ( 'NONE', #3, #146, #71 ) ;
#89 =( NAMED_UNIT ( * ) SI_UNIT ( $, .STERADIAN. ) SOLID_ANGLE_UNIT ( ) );
#90 = CLOSED_SHELL ( 'NONE', ( #156, #7, #241 ) ) ;
#91 = SURFACE_SIDE_STYLE ('',( #191 ) ) ;
#92 =( GEOMETRIC_REPRESENTATION_CONTEXT ( 3 ) GLOBAL_UNCERTAINTY_ASSIGNED_CONTEXT ( ( #59 ) ) GLOBAL_UNIT_ASSIGNED_CONTEXT ( ( #128, #173, #189 ) ) REPRESENTATION_CONTEXT ( 'NONE', 'WORKASPACE' ) );
#93 = PLANE ( 'NONE',  #136 ) ;
#94 = SURFACE_SIDE_STYLE ('',( #158 ) ) ;
#95 = ADVANCED_FACE ( 'NONE', ( #86 ), #26, .F. ) ;
#96 = CARTESIAN_POINT ( 'NONE',  ( 0.1249999999999999861, 0.1249999999999995559, 1.530808498934191509E-17 ) ) ;
#97 = COLOUR_RGB ( '',1.000000000000000000, 0.000000000000000000, 0.000000000000000000 ) ;
#98 = ORIENTED_EDGE ( 'NONE', *, *, #254, .T. ) ;
#99 = LENGTH_MEASURE_WITH_UNIT ( LENGTH_MEASURE( 0.02539999999999999897 ), #15 );
#100 = VECTOR ( 'NONE', #29, 39.37007874015748143 ) ;
#101 = DIRECTION ( 'NONE',  ( -1.228345323885430886E-16, 1.000000000000000000, -0.000000000000000000 ) ) ;
#102 = CARTESIAN_POINT ( 'NONE',  ( 0.000000000000000000, 0.000000000000000000, 0.000000000000000000 ) ) ;
#103 = DIMENSIONAL_EXPONENTS ( 1.000000000000000000, 0.000000000000000000, 0.000000000000000000, 0.000000000000000000, 0.000000000000000000, 0.000000000000000000, 0.000000000000000000 ) ;
#104 = DIRECTION ( 'NONE',  ( -1.228345323885430886E-16, 1.000000000000000000, -0.000000000000000000 ) ) ;
#105 = ORIENTED_EDGE ( 'NONE', *, *, #124, .F. ) ;
#106 =( LENGTH_UNIT ( ) NAMED_UNIT ( * ) SI_UNIT ( $, .METRE. ) );
#107 = DIRECTION ( 'NONE',  ( -1.000000000000000000, 0.000000000000000000, 0.000000000000000000 ) ) ;
#108 = SURFACE_STYLE_FILL_AREA ( #73 ) ;
#109 = FILL_AREA_STYLE ('',( #135 ) ) ;
#110 = SURFACE_SIDE_STYLE ('',( #32 ) ) ;
#111 = ORIENTED_EDGE ( 'NONE', *, *, #186, .F. ) ;
#112 =( NAMED_UNIT ( * ) SI_UNIT ( $, .STERADIAN. ) SOLID_ANGLE_UNIT ( ) );
#113 =( NAMED_UNIT ( * ) PLANE_ANGLE_UNIT ( ) SI_UNIT ( $, .RADIAN. ) );
#114 = DIRECTION ( 'NONE',  ( -1.000000000000000000, -1.365923996832134074E-16, 0.000000000000000000 ) ) ;
#115 = VECTOR ( 'NONE', #162, 39.37007874015748854 ) ;
#116 = ORIENTED_EDGE ( 'NONE', *, *, #199, .F. ) ;
#117 = PRODUCT_RELATED_PRODUCT_CATEGORY ( 'part', '', ( #196 ) ) ;
#118 = FACE_OUTER_BOUND ( 'NONE', #209, .T. ) ;
#119 = MECHANICAL_DESIGN_GEOMETRIC_PRESENTATION_REPRESENTATION (  '', ( #236 ), #69 ) ;
#120 = COLOUR_RGB ( '',1.000000000000000000, 0.000000000000000000, 0.000000000000000000 ) ;
#121 = CARTESIAN_POINT ( 'NONE',  ( -0.1249999999999995143, 0.1249999999999996114, 0.000000000000000000 ) ) ;
#122 = ORIENTED_EDGE ( 'NONE', *, *, #254, .F. ) ;
#123 = PRESENTATION_STYLE_ASSIGNMENT (( #126 ) ) ;
#124 = EDGE_CURVE ( 'NONE', #45, #147, #125, .T. ) ;
#125 = LINE ( 'NONE', #228, #2 ) ;
#126 = SURFACE_STYLE_USAGE ( .BOTH. , #188 ) ;
#127 = DIRECTION ( 'NONE',  ( -1.228345323885430886E-16, 1.000000000000000000, -0.000000000000000000 ) ) ;
#128 =( CONVERSION_BASED_UNIT ( 'INCH', #35 ) LENGTH_UNIT ( ) NAMED_UNIT ( #6 ) );
#129 = AXIS2_PLACEMENT_3D ( 'NONE', #232, #138, #217 ) ;
#130 = ORIENTED_EDGE ( 'NONE', *, *, #58, .T. ) ;
#131 = FILL_AREA_STYLE_COLOUR ( '', #97 ) ;
#132 = PLANE ( 'NONE',  #148 ) ;
#133 = CARTESIAN_POINT ( 'NONE',  ( 0.1249999999999999861, 2.500000000000000000, 1.530808498934191201E-17 ) ) ;
#134 = MECHANICAL_DESIGN_GEOMETRIC_PRESENTATION_REPRESENTATION (  '', ( #43 ), #24 ) ;
#135 = FILL_AREA_STYLE_COLOUR ( '', #249 ) ;
#136 = AXIS2_PLACEMENT_3D ( 'NONE', #179, #176, #75 ) ;
#137 = ORIENTED_EDGE ( 'NONE', *, *, #53, .F. ) ;
#138 = DIRECTION ( 'NONE',  ( 6.296165443231977236E-18, 1.000000000000000000, 0.000000000000000000 ) ) ;
#139 = CARTESIAN_POINT ( 'NONE',  ( -0.1250000000000001110, 2.500000000000000000, 0.000000000000000000 ) ) ;
#140 =( NAMED_UNIT ( * ) SI_UNIT ( $, .STERADIAN. ) SOLID_ANGLE_UNIT ( ) );
#141 = MECHANICAL_DESIGN_GEOMETRIC_PRESENTATION_REPRESENTATION (  '', ( #230 ), #92 ) ;
#142 =( NAMED_UNIT ( * ) SI_UNIT ( $, .STERADIAN. ) SOLID_ANGLE_UNIT ( ) );
#143 = ORIENTED_EDGE ( 'NONE', *, *, #58, .F. ) ;
#144 = UNCERTAINTY_MEASURE_WITH_UNIT (LENGTH_MEASURE( 1.000000000000000082E-05 ), #238, 'distance_accuracy_value', 'NONE');
#145 = PRESENTATION_LAYER_ASSIGNMENT (  '', '', ( #230 ) ) ;
#146 = DIRECTION ( 'NONE',  ( -1.228345323885430886E-16, 1.000000000000000000, -0.000000000000000000 ) ) ;
#147 = VERTEX_POINT ( 'NONE', #133 ) ;
#148 = AXIS2_PLACEMENT_3D ( 'NONE', #57, #257, #195 ) ;
#149 = CARTESIAN_POINT ( 'NONE',  ( 0.000000000000000000, 0.000000000000000000, 0.000000000000000000 ) ) ;
#150 = EDGE_LOOP ( 'NONE', ( #111, #46 ) ) ;
#151 = CARTESIAN_POINT ( 'NONE',  ( 2.304996744654222029E-16, 0.1249999999999996253, 0.000000000000000000 ) ) ;
#152 = SURFACE_STYLE_USAGE ( .BOTH. , #91 ) ;
#153 = SURFACE_STYLE_FILL_AREA ( #210 ) ;
#154 = DIRECTION ( 'NONE',  ( -6.296165443231977236E-18, -1.000000000000000000, -0.000000000000000000 ) ) ;
#155 = ADVANCED_BREP_SHAPE_REPRESENTATION ( '83808', ( #49, #216, #178 ), #64 ) ;
#156 = ADVANCED_FACE ( 'NONE', ( #8 ), #74, .T. ) ;
#157 = CARTESIAN_POINT ( 'NONE',  ( 7.870206804039943619E-19, 0.1249999999999995559, 0.000000000000000000 ) ) ;
#158 = SURFACE_STYLE_FILL_AREA ( #233 ) ;
#159 = SURFACE_STYLE_USAGE ( .BOTH. , #94 ) ;
#160 = AXIS2_PLACEMENT_3D ( 'NONE', #85, #104, #4 ) ;
#161 = UNCERTAINTY_MEASURE_WITH_UNIT (LENGTH_MEASURE( 1.000000000000000082E-05 ), #221, 'distance_accuracy_value', 'NONE');
#162 = DIRECTION ( 'NONE',  ( 0.7071067811865486830, 0.7071067811865462405, 8.659560562354947649E-17 ) ) ;
#163 = UNCERTAINTY_MEASURE_WITH_UNIT (LENGTH_MEASURE( 1.000000000000000082E-05 ), #223, 'distance_accuracy_value', 'NONE');
#164 = CARTESIAN_POINT ( 'NONE',  ( 0.000000000000000000, 0.000000000000000000, 0.000000000000000000 ) ) ;
#165 = DIMENSIONAL_EXPONENTS ( 1.000000000000000000, 0.000000000000000000, 0.000000000000000000, 0.000000000000000000, 0.000000000000000000, 0.000000000000000000, 0.000000000000000000 ) ;
#166 = VERTEX_POINT ( 'NONE', #149 ) ;
#167 = CIRCLE ( 'NONE', #61, 0.1249999999999997641 ) ;
#168 = ORIENTED_EDGE ( 'NONE', *, *, #199, .T. ) ;
#169 = DIMENSIONAL_EXPONENTS ( 1.000000000000000000, 0.000000000000000000, 0.000000000000000000, 0.000000000000000000, 0.000000000000000000, 0.000000000000000000, 0.000000000000000000 ) ;
#170 = ORIENTED_EDGE ( 'NONE', *, *, #124, .T. ) ;
#171 = EDGE_LOOP ( 'NONE', ( #122, #130, #17 ) ) ;
#172 = PRESENTATION_LAYER_ASSIGNMENT (  '', '', ( #194 ) ) ;
#173 =( NAMED_UNIT ( * ) PLANE_ANGLE_UNIT ( ) SI_UNIT ( $, .RADIAN. ) );
#174 = FACE_OUTER_BOUND ( 'NONE', #226, .T. ) ;
#175 = FILL_AREA_STYLE_COLOUR ( '', #78 ) ;
#176 = DIRECTION ( 'NONE',  ( 6.296165443231976466E-18, 1.000000000000000000, 0.000000000000000000 ) ) ;
#177 = DIRECTION ( 'NONE',  ( 1.000000000000000000, 0.000000000000000000, 0.000000000000000000 ) ) ;
#178 = AXIS2_PLACEMENT_3D ( 'NONE', #102, #220, #264 ) ;
#179 = CARTESIAN_POINT ( 'NONE',  ( 7.870206804039943619E-19, 0.1249999999999995559, 0.000000000000000000 ) ) ;
#180 = DIRECTION ( 'NONE',  ( -0.7071067811865486830, 0.7071067811865462405, 0.000000000000000000 ) ) ;
#181 = LENGTH_MEASURE_WITH_UNIT ( LENGTH_MEASURE( 0.02539999999999999897 ), #39 );
#182 = DIRECTION ( 'NONE',  ( -1.000000000000000000, 0.000000000000000000, 0.000000000000000000 ) ) ;
#183 = FACE_OUTER_BOUND ( 'NONE', #10, .T. ) ;
#184 =( GEOMETRIC_REPRESENTATION_CONTEXT ( 3 ) GLOBAL_UNCERTAINTY_ASSIGNED_CONTEXT ( ( #82 ) ) GLOBAL_UNIT_ASSIGNED_CONTEXT ( ( #225, #245, #202 ) ) REPRESENTATION_CONTEXT ( 'NONE', 'WORKASPACE' ) );
#185 = PRODUCT_CONTEXT ( 'NONE', #203, 'mechanical' ) ;
#186 = EDGE_CURVE ( 'NONE', #218, #187, #260, .T. ) ;
#187 = VERTEX_POINT ( 'NONE', #96 ) ;
#188 = SURFACE_SIDE_STYLE ('',( #108 ) ) ;
#189 =( NAMED_UNIT ( * ) SI_UNIT ( $, .STERADIAN. ) SOLID_ANGLE_UNIT ( ) );
#190 = FILL_AREA_STYLE_COLOUR ( '', #16 ) ;
#191 = SURFACE_STYLE_FILL_AREA ( #109 ) ;
#192 = SURFACE_STYLE_USAGE ( .BOTH. , #110 ) ;
#193 = PRESENTATION_LAYER_ASSIGNMENT (  '', '', ( #43 ) ) ;
#194 = STYLED_ITEM ( 'NONE', ( #123 ), #156 ) ;
#195 = DIRECTION ( 'NONE',  ( -1.000000000000000000, -1.228345323885430886E-16, 0.000000000000000000 ) ) ;
#196 = PRODUCT ( '83808', '83808', '', ( #185 ) ) ;
#197 = VECTOR ( 'NONE', #180, 39.37007874015748854 ) ;
#198 = LINE ( 'NONE', #205, #100 ) ;
#199 = EDGE_CURVE ( 'NONE', #40, #147, #215, .T. ) ;
#200 = AXIS2_PLACEMENT_3D ( 'NONE', #157, #14, #177 ) ;
#201 = CYLINDRICAL_SURFACE ( 'NONE', #84, 0.1249999999999999029 ) ;
#202 =( NAMED_UNIT ( * ) SI_UNIT ( $, .STERADIAN. ) SOLID_ANGLE_UNIT ( ) );
#203 = APPLICATION_CONTEXT ( 'automotive_design' ) ;
#204 = AXIS2_PLACEMENT_3D ( 'NONE', #235, #256, #259 ) ;
#205 = CARTESIAN_POINT ( 'NONE',  ( -0.1249999999999999584, 2.500000000000000000, 0.000000000000000000 ) ) ;
#206 = ORIENTED_EDGE ( 'NONE', *, *, #219, .F. ) ;
#207 = DIRECTION ( 'NONE',  ( -1.228345323885430886E-16, 1.000000000000000000, -0.000000000000000000 ) ) ;
#208 = FILL_AREA_STYLE ('',( #131 ) ) ;
#209 = EDGE_LOOP ( 'NONE', ( #50, #170, #116, #137 ) ) ;
#210 = FILL_AREA_STYLE ('',( #190 ) ) ;
#211 =( GEOMETRIC_REPRESENTATION_CONTEXT ( 3 ) GLOBAL_UNCERTAINTY_ASSIGNED_CONTEXT ( ( #163 ) ) GLOBAL_UNIT_ASSIGNED_CONTEXT ( ( #223, #23, #89 ) ) REPRESENTATION_CONTEXT ( 'NONE', 'WORKASPACE' ) );
#212 = PRESENTATION_STYLE_ASSIGNMENT (( #152 ) ) ;
#213 = FACE_OUTER_BOUND ( 'NONE', #150, .T. ) ;
#214 =( LENGTH_UNIT ( ) NAMED_UNIT ( * ) SI_UNIT ( $, .METRE. ) );
#215 = CIRCLE ( 'NONE', #204, 0.1250000000000000555 ) ;
#216 = MANIFOLD_SOLID_BREP ( 'Revolve - Tool Body (Pointed)', #239 ) ;
#217 = DIRECTION ( 'NONE',  ( -1.000000000000000000, 0.000000000000000000, 0.000000000000000000 ) ) ;
#218 = VERTEX_POINT ( 'NONE', #51 ) ;
#219 = EDGE_CURVE ( 'NONE', #52, #45, #65, .T. ) ;
#220 = DIRECTION ( 'NONE',  ( 0.000000000000000000, 0.000000000000000000, 1.000000000000000000 ) ) ;
#221 =( CONVERSION_BASED_UNIT ( 'INCH', #181 ) LENGTH_UNIT ( ) NAMED_UNIT ( #246 ) );
#222 = APPLICATION_PROTOCOL_DEFINITION ( 'draft international standard', 'automotive_design', 1998, #203 ) ;
#223 =( CONVERSION_BASED_UNIT ( 'INCH', #83 ) LENGTH_UNIT ( ) NAMED_UNIT ( #103 ) );
#224 = CIRCLE ( 'NONE', #28, 0.1249999999999999861 ) ;
#225 =( CONVERSION_BASED_UNIT ( 'INCH', #25 ) LENGTH_UNIT ( ) NAMED_UNIT ( #67 ) );
#226 = EDGE_LOOP ( 'NONE', ( #206, #48 ) ) ;
#227 = AXIS2_PLACEMENT_3D ( 'NONE', #151, #207, #72 ) ;
#228 = CARTESIAN_POINT ( 'NONE',  ( 0.1249999999999998335, 2.500000000000000000, 1.530808498934190276E-17 ) ) ;
#229 = PRESENTATION_STYLE_ASSIGNMENT (( #253 ) ) ;
#230 = STYLED_ITEM ( 'NONE', ( #229 ), #216 ) ;
#231 = ORIENTED_EDGE ( 'NONE', *, *, #42, .T. ) ;
#232 = CARTESIAN_POINT ( 'NONE',  ( 2.478805292611014523E-16, 39.37007874015748143, 0.000000000000000000 ) ) ;
#233 = FILL_AREA_STYLE ('',( #79 ) ) ;
#234 = DIRECTION ( 'NONE',  ( 1.000000000000000000, 0.000000000000000000, 0.000000000000000000 ) ) ;
#235 = CARTESIAN_POINT ( 'NONE',  ( -6.123233995736766036E-17, 2.500000000000000000, 0.000000000000000000 ) ) ;
#236 = STYLED_ITEM ( 'NONE', ( #262 ), #241 ) ;
#237 = PRESENTATION_STYLE_ASSIGNMENT (( #159 ) ) ;
#238 =( CONVERSION_BASED_UNIT ( 'INCH', #12 ) LENGTH_UNIT ( ) NAMED_UNIT ( #169 ) );
#239 = CLOSED_SHELL ( 'NONE', ( #250, #5, #62, #95 ) ) ;
#240 = PRESENTATION_LAYER_ASSIGNMENT (  '', '', ( #11 ) ) ;
#241 = ADVANCED_FACE ( 'NONE', ( #9 ), #34, .T. ) ;
#242 = APPLICATION_PROTOCOL_DEFINITION ( 'draft international standard', 'automotive_design', 1998, #56 ) ;
#243 = PRESENTATION_LAYER_ASSIGNMENT (  '', '', ( #236 ) ) ;
#244 = MECHANICAL_DESIGN_GEOMETRIC_PRESENTATION_REPRESENTATION (  '', ( #194 ), #184 ) ;
#245 =( NAMED_UNIT ( * ) PLANE_ANGLE_UNIT ( ) SI_UNIT ( $, .RADIAN. ) );
#246 = DIMENSIONAL_EXPONENTS ( 1.000000000000000000, 0.000000000000000000, 0.000000000000000000, 0.000000000000000000, 0.000000000000000000, 0.000000000000000000, 0.000000000000000000 ) ;
#247 = ORIENTED_EDGE ( 'NONE', *, *, #70, .T. ) ;
#248 = CARTESIAN_POINT ( 'NONE',  ( 0.1249999999999999861, 2.500000000000000000, 0.000000000000000000 ) ) ;
#249 = COLOUR_RGB ( '',0.7921568627450980005, 0.8196078431372548767, 0.9333333333333333481 ) ;
#250 = ADVANCED_FACE ( 'NONE', ( #118 ), #201, .T. ) ;
#251 = DIRECTION ( 'NONE',  ( 1.000000000000000000, 1.228345323885430886E-16, 0.000000000000000000 ) ) ;
#252 = CARTESIAN_POINT ( 'NONE',  ( 2.478805292611014523E-16, 39.37007874015748143, 0.000000000000000000 ) ) ;
#253 = SURFACE_STYLE_USAGE ( .BOTH. , #30 ) ;
#254 = EDGE_CURVE ( 'NONE', #166, #218, #18, .T. ) ;
#255 = ORIENTED_EDGE ( 'NONE', *, *, #186, .T. ) ;
#256 = DIRECTION ( 'NONE',  ( -1.228345323885430886E-16, 1.000000000000000000, -0.000000000000000000 ) ) ;
#257 = DIRECTION ( 'NONE',  ( -1.228345323885430886E-16, 1.000000000000000000, 0.000000000000000000 ) ) ;
#258 = EDGE_LOOP ( 'NONE', ( #168, #247 ) ) ;
#259 = DIRECTION ( 'NONE',  ( -1.000000000000000000, 0.000000000000000000, 0.000000000000000000 ) ) ;
#260 = CIRCLE ( 'NONE', #200, 0.1249999999999999861 ) ;
#261 = EDGE_LOOP ( 'NONE', ( #143, #98, #255 ) ) ;
#262 = PRESENTATION_STYLE_ASSIGNMENT (( #192 ) ) ;
#263 =( NAMED_UNIT ( * ) PLANE_ANGLE_UNIT ( ) SI_UNIT ( $, .RADIAN. ) );
#264 = DIRECTION ( 'NONE',  ( 1.000000000000000000, 0.000000000000000000, 0.000000000000000000 ) ) ;
#265 = MECHANICAL_DESIGN_GEOMETRIC_PRESENTATION_REPRESENTATION (  '', ( #11 ), #211 ) ;
ENDSEC;
END-ISO-10303-21;
