ISO-10303-21;
HEADER;
FILE_DESCRIPTION (( 'STEP AP214' ),
    '1' );
FILE_NAME ('44322.STEP',
    '2023-06-22T20:05:45',
    ( '' ),
    ( '' ),
    'SwSTEP 2.0',
    'SolidWorks 2023',
    '' );
FILE_SCHEMA (( 'AUTOMOTIVE_DESIGN' ));
ENDSEC;

DATA;
#1 = LENGTH_MEASURE_WITH_UNIT ( LENGTH_MEASURE( 0.02539999999999999897 ), #178 );
#2 = DIRECTION ( 'NONE',  ( -1.000000000000000000, -2.721437331438560697E-17, 0.000000000000000000 ) ) ;
#3 = ADVANCED_FACE ( 'NONE', ( #130 ), #57, .T. ) ;
#4 = DIRECTION ( 'NONE',  ( -2.721437331438560389E-17, 1.000000000000000000, -0.000000000000000000 ) ) ;
#5 = MECHANICAL_DESIGN_GEOMETRIC_PRESENTATION_REPRESENTATION (  '', ( #151 ), #100 ) ;
#6 = AXIS2_PLACEMENT_3D ( 'NONE', #39, #285, #71 ) ;
#7 = LENGTH_MEASURE_WITH_UNIT ( LENGTH_MEASURE( 0.02539999999999999897 ), #291 );
#8 = ORIENTED_EDGE ( 'NONE', *, *, #180, .F. ) ;
#9 = FILL_AREA_STYLE ('',( #148 ) ) ;
#10 = DIRECTION ( 'NONE',  ( -2.721437331438560389E-17, 1.000000000000000000, -0.000000000000000000 ) ) ;
#11 =( NAMED_UNIT ( * ) PLANE_ANGLE_UNIT ( ) SI_UNIT ( $, .RADIAN. ) );
#12 = ORIENTED_EDGE ( 'NONE', *, *, #84, .T. ) ;
#13 = APPLICATION_PROTOCOL_DEFINITION ( 'draft international standard', 'automotive_design', 1998, #242 ) ;
#14 = EDGE_LOOP ( 'NONE', ( #31, #35, #131, #233 ) ) ;
#15 = APPLICATION_PROTOCOL_DEFINITION ( 'draft international standard', 'automotive_design', 1998, #218 ) ;
#16 = PRESENTATION_LAYER_ASSIGNMENT (  '', '', ( #40 ) ) ;
#17 =( NAMED_UNIT ( * ) PLANE_ANGLE_UNIT ( ) SI_UNIT ( $, .RADIAN. ) );
#18 = DIRECTION ( 'NONE',  ( 0.000000000000000000, 0.000000000000000000, -1.000000000000000000 ) ) ;
#19 = DIRECTION ( 'NONE',  ( -0.000000000000000000, -1.000000000000000000, -0.000000000000000000 ) ) ;
#20 = LINE ( 'NONE', #118, #21 ) ;
#21 = VECTOR ( 'NONE', #221, 39.37007874015748143 ) ;
#22 = UNCERTAINTY_MEASURE_WITH_UNIT (LENGTH_MEASURE( 1.000000000000000082E-05 ), #215, 'distance_accuracy_value', 'NONE');
#23 = AXIS2_PLACEMENT_3D ( 'NONE', #122, #26, #2 ) ;
#24 = PLANE ( 'NONE',  #23 ) ;
#25 = LENGTH_MEASURE_WITH_UNIT ( LENGTH_MEASURE( 0.02539999999999999897 ), #152 );
#26 = DIRECTION ( 'NONE',  ( -2.721437331438560697E-17, 1.000000000000000000, 0.000000000000000000 ) ) ;
#27 = DIRECTION ( 'NONE',  ( 0.000000000000000000, 0.000000000000000000, -1.000000000000000000 ) ) ;
#28 = VECTOR ( 'NONE', #226, 39.37007874015748143 ) ;
#29 = CIRCLE ( 'NONE', #196, 0.3125000000000000555 ) ;
#30 = SURFACE_SIDE_STYLE ('',( #58 ) ) ;
#31 = ORIENTED_EDGE ( 'NONE', *, *, #143, .T. ) ;
#32 = DIRECTION ( 'NONE',  ( -2.721437331438560389E-17, 1.000000000000000000, -0.000000000000000000 ) ) ;
#33 = DIRECTION ( 'NONE',  ( -0.000000000000000000, -1.000000000000000000, -0.000000000000000000 ) ) ;
#34 =( NAMED_UNIT ( * ) SI_UNIT ( $, .STERADIAN. ) SOLID_ANGLE_UNIT ( ) );
#35 = ORIENTED_EDGE ( 'NONE', *, *, #262, .T. ) ;
#36 = AXIS2_PLACEMENT_3D ( 'NONE', #46, #66, #260 ) ;
#37 = ADVANCED_BREP_SHAPE_REPRESENTATION ( '44322', ( #162, #164, #141 ), #97 ) ;
#38 = DIRECTION ( 'NONE',  ( 1.000000000000000000, 0.000000000000000000, 0.000000000000000000 ) ) ;
#39 = CARTESIAN_POINT ( 'NONE',  ( -6.123233995736759873E-17, 3.500000000000000000, 0.000000000000000000 ) ) ;
#40 = STYLED_ITEM ( 'NONE', ( #144 ), #266 ) ;
#41 = FACE_OUTER_BOUND ( 'NONE', #111, .T. ) ;
#42 = FILL_AREA_STYLE ('',( #50 ) ) ;
#43 = CARTESIAN_POINT ( 'NONE',  ( 0.3125000000000000000, 1.250000000000000000, 3.827021247335478926E-17 ) ) ;
#44 = DIMENSIONAL_EXPONENTS ( 1.000000000000000000, 0.000000000000000000, 0.000000000000000000, 0.000000000000000000, 0.000000000000000000, 0.000000000000000000, 0.000000000000000000 ) ;
#45 = SURFACE_STYLE_FILL_AREA ( #42 ) ;
#46 = CARTESIAN_POINT ( 'NONE',  ( 0.000000000000000000, 1.250000000000000000, 0.000000000000000000 ) ) ;
#47 = MECHANICAL_DESIGN_GEOMETRIC_PRESENTATION_REPRESENTATION (  '', ( #156 ), #239 ) ;
#48 = COLOUR_RGB ( '',1.000000000000000000, 0.000000000000000000, 0.000000000000000000 ) ;
#49 = LINE ( 'NONE', #286, #28 ) ;
#50 = FILL_AREA_STYLE_COLOUR ( '', #177 ) ;
#51 = VECTOR ( 'NONE', #142, 39.37007874015748143 ) ;
#52 =( NAMED_UNIT ( * ) PLANE_ANGLE_UNIT ( ) SI_UNIT ( $, .RADIAN. ) );
#53 = FILL_AREA_STYLE_COLOUR ( '', #194 ) ;
#54 = VERTEX_POINT ( 'NONE', #280 ) ;
#55 = MECHANICAL_DESIGN_GEOMETRIC_PRESENTATION_REPRESENTATION (  '', ( #40 ), #157 ) ;
#56 = CIRCLE ( 'NONE', #167, 0.3125000000000000000 ) ;
#57 = CYLINDRICAL_SURFACE ( 'NONE', #189, 0.3125000000000000000 ) ;
#58 = SURFACE_STYLE_FILL_AREA ( #104 ) ;
#59 =( LENGTH_UNIT ( ) NAMED_UNIT ( * ) SI_UNIT ( $, .METRE. ) );
#60 = DIRECTION ( 'NONE',  ( -2.721437331438560697E-17, 1.000000000000000000, -0.000000000000000000 ) ) ;
#61 = UNCERTAINTY_MEASURE_WITH_UNIT (LENGTH_MEASURE( 1.000000000000000082E-05 ), #205, 'distance_accuracy_value', 'NONE');
#62 = VERTEX_POINT ( 'NONE', #168 ) ;
#63 = EDGE_CURVE ( 'NONE', #64, #278, #68, .T. ) ;
#64 = VERTEX_POINT ( 'NONE', #145 ) ;
#65 = DIRECTION ( 'NONE',  ( 0.000000000000000000, 0.000000000000000000, 1.000000000000000000 ) ) ;
#66 = DIRECTION ( 'NONE',  ( -0.000000000000000000, -1.000000000000000000, -0.000000000000000000 ) ) ;
#67 = CARTESIAN_POINT ( 'NONE',  ( 0.000000000000000000, 1.250000000000000000, 0.000000000000000000 ) ) ;
#68 = LINE ( 'NONE', #120, #51 ) ;
#69 = EDGE_CURVE ( 'NONE', #54, #64, #80, .T. ) ;
#70 = CARTESIAN_POINT ( 'NONE',  ( 0.000000000000000000, 0.000000000000000000, 0.000000000000000000 ) ) ;
#71 = DIRECTION ( 'NONE',  ( -1.000000000000000000, 0.000000000000000000, 0.000000000000000000 ) ) ;
#72 = SURFACE_SIDE_STYLE ('',( #45 ) ) ;
#73 = FACE_OUTER_BOUND ( 'NONE', #103, .T. ) ;
#74 = COLOUR_RGB ( '',0.7921568627450980005, 0.8196078431372548767, 0.9333333333333333481 ) ;
#75 = PRODUCT_DEFINITION_SHAPE ( 'NONE', 'NONE',  #125 ) ;
#76 = PLANE ( 'NONE',  #95 ) ;
#77 = PRODUCT ( '44322', '44322', '', ( #298 ) ) ;
#78 =( NAMED_UNIT ( * ) PLANE_ANGLE_UNIT ( ) SI_UNIT ( $, .RADIAN. ) );
#79 =( NAMED_UNIT ( * ) PLANE_ANGLE_UNIT ( ) SI_UNIT ( $, .RADIAN. ) );
#80 = CIRCLE ( 'NONE', #36, 0.3125000000000000000 ) ;
#81 = SURFACE_STYLE_USAGE ( .BOTH. , #209 ) ;
#82 = DIRECTION ( 'NONE',  ( 2.721437331438560697E-17, -1.000000000000000000, 0.000000000000000000 ) ) ;
#83 = VERTEX_POINT ( 'NONE', #43 ) ;
#84 = EDGE_CURVE ( 'NONE', #278, #135, #222, .T. ) ;
#85 = ORIENTED_EDGE ( 'NONE', *, *, #262, .F. ) ;
#86 = EDGE_LOOP ( 'NONE', ( #212, #290 ) ) ;
#87 = CARTESIAN_POINT ( 'NONE',  ( 0.000000000000000000, 0.000000000000000000, 0.000000000000000000 ) ) ;
#88 = ADVANCED_FACE ( 'NONE', ( #244 ), #281, .T. ) ;
#89 = DIRECTION ( 'NONE',  ( 0.000000000000000000, 0.000000000000000000, -1.000000000000000000 ) ) ;
#90 = PLANE ( 'NONE',  #113 ) ;
#91 = MECHANICAL_DESIGN_GEOMETRIC_PRESENTATION_REPRESENTATION (  '', ( #147 ), #171 ) ;
#92 = CARTESIAN_POINT ( 'NONE',  ( 0.000000000000000000, 0.000000000000000000, -0.3125000000000000000 ) ) ;
#93 = CARTESIAN_POINT ( 'NONE',  ( 0.000000000000000000, 0.000000000000000000, 0.000000000000000000 ) ) ;
#94 = DIMENSIONAL_EXPONENTS ( 1.000000000000000000, 0.000000000000000000, 0.000000000000000000, 0.000000000000000000, 0.000000000000000000, 0.000000000000000000, 0.000000000000000000 ) ;
#95 = AXIS2_PLACEMENT_3D ( 'NONE', #296, #136, #110 ) ;
#96 = AXIS2_PLACEMENT_3D ( 'NONE', #295, #82, #181 ) ;
#97 =( GEOMETRIC_REPRESENTATION_CONTEXT ( 3 ) GLOBAL_UNCERTAINTY_ASSIGNED_CONTEXT ( ( #129 ) ) GLOBAL_UNIT_ASSIGNED_CONTEXT ( ( #112, #11, #34 ) ) REPRESENTATION_CONTEXT ( 'NONE', 'WORKASPACE' ) );
#98 = DIRECTION ( 'NONE',  ( -2.721437331438560389E-17, 1.000000000000000000, -0.000000000000000000 ) ) ;
#99 = CARTESIAN_POINT ( 'NONE',  ( -0.3125000000000001665, 3.500000000000000000, 0.000000000000000000 ) ) ;
#100 =( GEOMETRIC_REPRESENTATION_CONTEXT ( 3 ) GLOBAL_UNCERTAINTY_ASSIGNED_CONTEXT ( ( #61 ) ) GLOBAL_UNIT_ASSIGNED_CONTEXT ( ( #205, #79, #252 ) ) REPRESENTATION_CONTEXT ( 'NONE', 'WORKASPACE' ) );
#101 = DIRECTION ( 'NONE',  ( -1.000000000000000000, 0.000000000000000000, 0.000000000000000000 ) ) ;
#102 = PRESENTATION_STYLE_ASSIGNMENT (( #269 ) ) ;
#103 = EDGE_LOOP ( 'NONE', ( #159, #8 ) ) ;
#104 = FILL_AREA_STYLE ('',( #126 ) ) ;
#105 = CARTESIAN_POINT ( 'NONE',  ( 0.000000000000000000, 0.000000000000000000, 0.000000000000000000 ) ) ;
#106 = ORIENTED_EDGE ( 'NONE', *, *, #84, .F. ) ;
#107 = CARTESIAN_POINT ( 'NONE',  ( 0.3124999999999999445, 3.500000000000000000, 3.827021247335478926E-17 ) ) ;
#108 = COLOUR_RGB ( '',0.7921568627450980005, 0.8196078431372548767, 0.9333333333333333481 ) ;
#109 = EDGE_LOOP ( 'NONE', ( #250, #12 ) ) ;
#110 = DIRECTION ( 'NONE',  ( 0.000000000000000000, -0.000000000000000000, 1.000000000000000000 ) ) ;
#111 = EDGE_LOOP ( 'NONE', ( #85, #183, #299, #185 ) ) ;
#112 =( CONVERSION_BASED_UNIT ( 'INCH', #303 ) LENGTH_UNIT ( ) NAMED_UNIT ( #284 ) );
#113 = AXIS2_PLACEMENT_3D ( 'NONE', #105, #208, #27 ) ;
#114 = DIRECTION ( 'NONE',  ( -2.721437331438560389E-17, 1.000000000000000000, -0.000000000000000000 ) ) ;
#115 = PRESENTATION_LAYER_ASSIGNMENT (  '', '', ( #227 ) ) ;
#116 = DIRECTION ( 'NONE',  ( 0.000000000000000000, 0.000000000000000000, -1.000000000000000000 ) ) ;
#117 = FILL_AREA_STYLE ('',( #238 ) ) ;
#118 = CARTESIAN_POINT ( 'NONE',  ( 0.000000000000000000, 0.000000000000000000, -0.3125000000000000000 ) ) ;
#119 = EDGE_CURVE ( 'NONE', #54, #135, #20, .T. ) ;
#120 = CARTESIAN_POINT ( 'NONE',  ( 3.827021247335478926E-17, 0.000000000000000000, 0.3125000000000000000 ) ) ;
#121 = MECHANICAL_DESIGN_GEOMETRIC_PRESENTATION_REPRESENTATION (  '', ( #294 ), #288 ) ;
#122 = CARTESIAN_POINT ( 'NONE',  ( 1.157222054523036369E-34, 1.250000000000000000, 0.000000000000000000 ) ) ;
#123 = CARTESIAN_POINT ( 'NONE',  ( -6.123233995736759873E-17, 3.500000000000000000, 0.000000000000000000 ) ) ;
#124 = SURFACE_STYLE_FILL_AREA ( #292 ) ;
#125 = PRODUCT_DEFINITION ( 'UNKNOWN', '', #308, #223 ) ;
#126 = FILL_AREA_STYLE_COLOUR ( '', #108 ) ;
#127 = AXIS2_PLACEMENT_3D ( 'NONE', #123, #32, #232 ) ;
#128 = ORIENTED_EDGE ( 'NONE', *, *, #69, .T. ) ;
#129 = UNCERTAINTY_MEASURE_WITH_UNIT (LENGTH_MEASURE( 1.000000000000000082E-05 ), #112, 'distance_accuracy_value', 'NONE');
#130 = FACE_OUTER_BOUND ( 'NONE', #182, .T. ) ;
#131 = ORIENTED_EDGE ( 'NONE', *, *, #271, .F. ) ;
#132 = DIRECTION ( 'NONE',  ( 0.000000000000000000, 0.000000000000000000, -1.000000000000000000 ) ) ;
#133 = CLOSED_SHELL ( 'NONE', ( #88, #289, #3, #266 ) ) ;
#134 = EDGE_LOOP ( 'NONE', ( #237, #213 ) ) ;
#135 = VERTEX_POINT ( 'NONE', #92 ) ;
#136 = DIRECTION ( 'NONE',  ( 0.000000000000000000, 1.000000000000000000, 0.000000000000000000 ) ) ;
#137 = DIRECTION ( 'NONE',  ( -0.000000000000000000, -1.000000000000000000, -0.000000000000000000 ) ) ;
#138 = ADVANCED_FACE ( 'NONE', ( #41 ), #259, .T. ) ;
#139 = DIRECTION ( 'NONE',  ( -0.000000000000000000, -1.000000000000000000, -0.000000000000000000 ) ) ;
#140 = AXIS2_PLACEMENT_3D ( 'NONE', #277, #33, #132 ) ;
#141 = AXIS2_PLACEMENT_3D ( 'NONE', #87, #65, #38 ) ;
#142 = DIRECTION ( 'NONE',  ( -0.000000000000000000, -1.000000000000000000, -0.000000000000000000 ) ) ;
#143 = EDGE_CURVE ( 'NONE', #279, #83, #225, .T. ) ;
#144 = PRESENTATION_STYLE_ASSIGNMENT (( #307 ) ) ;
#145 = CARTESIAN_POINT ( 'NONE',  ( 3.827021247335478926E-17, 1.250000000000000000, 0.3125000000000000000 ) ) ;
#146 = COLOUR_RGB ( '',1.000000000000000000, 0.000000000000000000, 0.000000000000000000 ) ;
#147 = STYLED_ITEM ( 'NONE', ( #276 ), #3 ) ;
#148 = FILL_AREA_STYLE_COLOUR ( '', #74 ) ;
#149 = DIMENSIONAL_EXPONENTS ( 1.000000000000000000, 0.000000000000000000, 0.000000000000000000, 0.000000000000000000, 0.000000000000000000, 0.000000000000000000, 0.000000000000000000 ) ;
#150 = EDGE_CURVE ( 'NONE', #64, #54, #248, .T. ) ;
#151 = STYLED_ITEM ( 'NONE', ( #102 ), #162 ) ;
#152 =( LENGTH_UNIT ( ) NAMED_UNIT ( * ) SI_UNIT ( $, .METRE. ) );
#153 = PRODUCT_RELATED_PRODUCT_CATEGORY ( 'part', '', ( #77 ) ) ;
#154 = SURFACE_SIDE_STYLE ('',( #124 ) ) ;
#155 = LENGTH_MEASURE_WITH_UNIT ( LENGTH_MEASURE( 0.02539999999999999897 ), #253 );
#156 = STYLED_ITEM ( 'NONE', ( #268 ), #289 ) ;
#157 =( GEOMETRIC_REPRESENTATION_CONTEXT ( 3 ) GLOBAL_UNCERTAINTY_ASSIGNED_CONTEXT ( ( #197 ) ) GLOBAL_UNIT_ASSIGNED_CONTEXT ( ( #175, #52, #204 ) ) REPRESENTATION_CONTEXT ( 'NONE', 'WORKASPACE' ) );
#158 = CYLINDRICAL_SURFACE ( 'NONE', #127, 0.3125000000000000000 ) ;
#159 = ORIENTED_EDGE ( 'NONE', *, *, #143, .F. ) ;
#160 = PLANE ( 'NONE',  #96 ) ;
#161 = EDGE_LOOP ( 'NONE', ( #128, #273, #255, #297 ) ) ;
#162 = MANIFOLD_SOLID_BREP ( 'Revolve - Cutting Edge', #133 ) ;
#163 = SURFACE_STYLE_FILL_AREA ( #176 ) ;
#164 = MANIFOLD_SOLID_BREP ( 'Revolve - Tool Body (Straight Shanked)', #300 ) ;
#165 = CARTESIAN_POINT ( 'NONE',  ( 0.000000000000000000, 0.000000000000000000, 0.000000000000000000 ) ) ;
#166 = DIRECTION ( 'NONE',  ( -0.000000000000000000, -1.000000000000000000, -0.000000000000000000 ) ) ;
#167 = AXIS2_PLACEMENT_3D ( 'NONE', #249, #10, #191 ) ;
#168 = CARTESIAN_POINT ( 'NONE',  ( 0.3125000000000000000, 3.500000000000000000, 3.827021247335478926E-17 ) ) ;
#169 =( NAMED_UNIT ( * ) PLANE_ANGLE_UNIT ( ) SI_UNIT ( $, .RADIAN. ) );
#170 = UNCERTAINTY_MEASURE_WITH_UNIT (LENGTH_MEASURE( 1.000000000000000082E-05 ), #257, 'distance_accuracy_value', 'NONE');
#171 =( GEOMETRIC_REPRESENTATION_CONTEXT ( 3 ) GLOBAL_UNCERTAINTY_ASSIGNED_CONTEXT ( ( #170 ) ) GLOBAL_UNIT_ASSIGNED_CONTEXT ( ( #257, #78, #188 ) ) REPRESENTATION_CONTEXT ( 'NONE', 'WORKASPACE' ) );
#172 = ADVANCED_FACE ( 'NONE', ( #275 ), #158, .T. ) ;
#173 = SURFACE_SIDE_STYLE ('',( #267 ) ) ;
#174 = PRESENTATION_STYLE_ASSIGNMENT (( #228 ) ) ;
#175 =( CONVERSION_BASED_UNIT ( 'INCH', #1 ) LENGTH_UNIT ( ) NAMED_UNIT ( #94 ) );
#176 = FILL_AREA_STYLE ('',( #231 ) ) ;
#177 = COLOUR_RGB ( '',1.000000000000000000, 0.000000000000000000, 0.000000000000000000 ) ;
#178 =( LENGTH_UNIT ( ) NAMED_UNIT ( * ) SI_UNIT ( $, .METRE. ) );
#179 = ORIENTED_EDGE ( 'NONE', *, *, #63, .F. ) ;
#180 = EDGE_CURVE ( 'NONE', #83, #279, #56, .T. ) ;
#181 = DIRECTION ( 'NONE',  ( 1.000000000000000000, 2.721437331438560697E-17, 0.000000000000000000 ) ) ;
#182 = EDGE_LOOP ( 'NONE', ( #179, #230, #293, #106 ) ) ;
#183 = ORIENTED_EDGE ( 'NONE', *, *, #180, .T. ) ;
#184 = EDGE_CURVE ( 'NONE', #279, #206, #49, .T. ) ;
#185 = ORIENTED_EDGE ( 'NONE', *, *, #214, .F. ) ;
#186 = SHAPE_DEFINITION_REPRESENTATION ( #75, #37 ) ;
#187 =( CONVERSION_BASED_UNIT ( 'INCH', #246 ) LENGTH_UNIT ( ) NAMED_UNIT ( #149 ) );
#188 =( NAMED_UNIT ( * ) SI_UNIT ( $, .STERADIAN. ) SOLID_ANGLE_UNIT ( ) );
#189 = AXIS2_PLACEMENT_3D ( 'NONE', #93, #137, #243 ) ;
#190 =( LENGTH_UNIT ( ) NAMED_UNIT ( * ) SI_UNIT ( $, .METRE. ) );
#191 = DIRECTION ( 'NONE',  ( -1.000000000000000000, 0.000000000000000000, 0.000000000000000000 ) ) ;
#192 = DIMENSIONAL_EXPONENTS ( 1.000000000000000000, 0.000000000000000000, 0.000000000000000000, 0.000000000000000000, 0.000000000000000000, 0.000000000000000000, 0.000000000000000000 ) ;
#193 = ADVANCED_FACE ( 'NONE', ( #73 ), #24, .F. ) ;
#194 = COLOUR_RGB ( '',1.000000000000000000, 0.000000000000000000, 0.000000000000000000 ) ;
#195 = MECHANICAL_DESIGN_GEOMETRIC_PRESENTATION_REPRESENTATION (  '', ( #227 ), #264 ) ;
#196 = AXIS2_PLACEMENT_3D ( 'NONE', #198, #4, #101 ) ;
#197 = UNCERTAINTY_MEASURE_WITH_UNIT (LENGTH_MEASURE( 1.000000000000000082E-05 ), #175, 'distance_accuracy_value', 'NONE');
#198 = CARTESIAN_POINT ( 'NONE',  ( -6.123233995736759873E-17, 3.500000000000000000, 0.000000000000000000 ) ) ;
#199 = DIRECTION ( 'NONE',  ( -1.000000000000000000, 0.000000000000000000, 0.000000000000000000 ) ) ;
#200 = CARTESIAN_POINT ( 'NONE',  ( 3.827021247335478926E-17, 0.000000000000000000, 0.3125000000000000000 ) ) ;
#201 = AXIS2_PLACEMENT_3D ( 'NONE', #67, #139, #18 ) ;
#202 = CARTESIAN_POINT ( 'NONE',  ( -6.123233995736759873E-17, 3.500000000000000000, 0.000000000000000000 ) ) ;
#203 = UNCERTAINTY_MEASURE_WITH_UNIT (LENGTH_MEASURE( 1.000000000000000082E-05 ), #187, 'distance_accuracy_value', 'NONE');
#204 =( NAMED_UNIT ( * ) SI_UNIT ( $, .STERADIAN. ) SOLID_ANGLE_UNIT ( ) );
#205 =( CONVERSION_BASED_UNIT ( 'INCH', #7 ) LENGTH_UNIT ( ) NAMED_UNIT ( #192 ) );
#206 = VERTEX_POINT ( 'NONE', #99 ) ;
#207 =( NAMED_UNIT ( * ) SI_UNIT ( $, .STERADIAN. ) SOLID_ANGLE_UNIT ( ) );
#208 = DIRECTION ( 'NONE',  ( 0.000000000000000000, -1.000000000000000000, -0.000000000000000000 ) ) ;
#209 = SURFACE_SIDE_STYLE ('',( #163 ) ) ;
#210 = FACE_OUTER_BOUND ( 'NONE', #109, .T. ) ;
#211 = AXIS2_PLACEMENT_3D ( 'NONE', #263, #114, #302 ) ;
#212 = ORIENTED_EDGE ( 'NONE', *, *, #271, .T. ) ;
#213 = ORIENTED_EDGE ( 'NONE', *, *, #150, .F. ) ;
#214 = EDGE_CURVE ( 'NONE', #62, #206, #282, .T. ) ;
#215 =( CONVERSION_BASED_UNIT ( 'INCH', #258 ) LENGTH_UNIT ( ) NAMED_UNIT ( #261 ) );
#216 = AXIS2_PLACEMENT_3D ( 'NONE', #70, #166, #89 ) ;
#217 =( NAMED_UNIT ( * ) SI_UNIT ( $, .STERADIAN. ) SOLID_ANGLE_UNIT ( ) );
#218 = APPLICATION_CONTEXT ( 'automotive_design' ) ;
#219 = ADVANCED_FACE ( 'NONE', ( #254 ), #160, .F. ) ;
#220 = DIMENSIONAL_EXPONENTS ( 1.000000000000000000, 0.000000000000000000, 0.000000000000000000, 0.000000000000000000, 0.000000000000000000, 0.000000000000000000, 0.000000000000000000 ) ;
#221 = DIRECTION ( 'NONE',  ( -0.000000000000000000, -1.000000000000000000, -0.000000000000000000 ) ) ;
#222 = CIRCLE ( 'NONE', #235, 0.3125000000000000000 ) ;
#223 = PRODUCT_DEFINITION_CONTEXT ( 'detailed design', #218, 'design' ) ;
#224 = SURFACE_STYLE_FILL_AREA ( #117 ) ;
#225 = CIRCLE ( 'NONE', #211, 0.3125000000000000000 ) ;
#226 = DIRECTION ( 'NONE',  ( -2.721437331438560697E-17, 1.000000000000000000, -0.000000000000000000 ) ) ;
#227 = STYLED_ITEM ( 'NONE', ( #174 ), #164 ) ;
#228 = SURFACE_STYLE_USAGE ( .BOTH. , #30 ) ;
#229 = CARTESIAN_POINT ( 'NONE',  ( -0.3125000000000000000, 1.250000000000000000, 0.000000000000000000 ) ) ;
#230 = ORIENTED_EDGE ( 'NONE', *, *, #150, .T. ) ;
#231 = FILL_AREA_STYLE_COLOUR ( '', #48 ) ;
#232 = DIRECTION ( 'NONE',  ( -1.000000000000000000, 0.000000000000000000, 0.000000000000000000 ) ) ;
#233 = ORIENTED_EDGE ( 'NONE', *, *, #184, .F. ) ;
#234 = LINE ( 'NONE', #107, #309 ) ;
#235 = AXIS2_PLACEMENT_3D ( 'NONE', #165, #19, #116 ) ;
#236 =( LENGTH_UNIT ( ) NAMED_UNIT ( * ) SI_UNIT ( $, .METRE. ) );
#237 = ORIENTED_EDGE ( 'NONE', *, *, #69, .F. ) ;
#238 = FILL_AREA_STYLE_COLOUR ( '', #146 ) ;
#239 =( GEOMETRIC_REPRESENTATION_CONTEXT ( 3 ) GLOBAL_UNCERTAINTY_ASSIGNED_CONTEXT ( ( #22 ) ) GLOBAL_UNIT_ASSIGNED_CONTEXT ( ( #215, #17, #301 ) ) REPRESENTATION_CONTEXT ( 'NONE', 'WORKASPACE' ) );
#240 = AXIS2_PLACEMENT_3D ( 'NONE', #202, #98, #199 ) ;
#241 =( NAMED_UNIT ( * ) PLANE_ANGLE_UNIT ( ) SI_UNIT ( $, .RADIAN. ) );
#242 = APPLICATION_CONTEXT ( 'automotive_design' ) ;
#243 = DIRECTION ( 'NONE',  ( 0.000000000000000000, 0.000000000000000000, -1.000000000000000000 ) ) ;
#244 = FACE_OUTER_BOUND ( 'NONE', #161, .T. ) ;
#245 = EDGE_CURVE ( 'NONE', #135, #278, #274, .T. ) ;
#246 = LENGTH_MEASURE_WITH_UNIT ( LENGTH_MEASURE( 0.02539999999999999897 ), #190 );
#247 = UNCERTAINTY_MEASURE_WITH_UNIT (LENGTH_MEASURE( 1.000000000000000082E-05 ), #265, 'distance_accuracy_value', 'NONE');
#248 = CIRCLE ( 'NONE', #201, 0.3125000000000000000 ) ;
#249 = CARTESIAN_POINT ( 'NONE',  ( 0.000000000000000000, 1.250000000000000000, 0.000000000000000000 ) ) ;
#250 = ORIENTED_EDGE ( 'NONE', *, *, #245, .T. ) ;
#251 = PRESENTATION_LAYER_ASSIGNMENT (  '', '', ( #151 ) ) ;
#252 =( NAMED_UNIT ( * ) SI_UNIT ( $, .STERADIAN. ) SOLID_ANGLE_UNIT ( ) );
#253 =( LENGTH_UNIT ( ) NAMED_UNIT ( * ) SI_UNIT ( $, .METRE. ) );
#254 = FACE_OUTER_BOUND ( 'NONE', #86, .T. ) ;
#255 = ORIENTED_EDGE ( 'NONE', *, *, #245, .F. ) ;
#256 = PRESENTATION_LAYER_ASSIGNMENT (  '', '', ( #294 ) ) ;
#257 =( CONVERSION_BASED_UNIT ( 'INCH', #155 ) LENGTH_UNIT ( ) NAMED_UNIT ( #220 ) );
#258 = LENGTH_MEASURE_WITH_UNIT ( LENGTH_MEASURE( 0.02539999999999999897 ), #59 );
#259 = CYLINDRICAL_SURFACE ( 'NONE', #6, 0.3125000000000000000 ) ;
#260 = DIRECTION ( 'NONE',  ( 0.000000000000000000, 0.000000000000000000, -1.000000000000000000 ) ) ;
#261 = DIMENSIONAL_EXPONENTS ( 1.000000000000000000, 0.000000000000000000, 0.000000000000000000, 0.000000000000000000, 0.000000000000000000, 0.000000000000000000, 0.000000000000000000 ) ;
#262 = EDGE_CURVE ( 'NONE', #83, #62, #234, .T. ) ;
#263 = CARTESIAN_POINT ( 'NONE',  ( 0.000000000000000000, 1.250000000000000000, 0.000000000000000000 ) ) ;
#264 =( GEOMETRIC_REPRESENTATION_CONTEXT ( 3 ) GLOBAL_UNCERTAINTY_ASSIGNED_CONTEXT ( ( #247 ) ) GLOBAL_UNIT_ASSIGNED_CONTEXT ( ( #265, #169, #207 ) ) REPRESENTATION_CONTEXT ( 'NONE', 'WORKASPACE' ) );
#265 =( CONVERSION_BASED_UNIT ( 'INCH', #25 ) LENGTH_UNIT ( ) NAMED_UNIT ( #44 ) );
#266 = ADVANCED_FACE ( 'NONE', ( #210 ), #90, .T. ) ;
#267 = SURFACE_STYLE_FILL_AREA ( #9 ) ;
#268 = PRESENTATION_STYLE_ASSIGNMENT (( #287 ) ) ;
#269 = SURFACE_STYLE_USAGE ( .BOTH. , #173 ) ;
#270 = FACE_OUTER_BOUND ( 'NONE', #134, .T. ) ;
#271 = EDGE_CURVE ( 'NONE', #206, #62, #29, .T. ) ;
#272 = PRESENTATION_LAYER_ASSIGNMENT (  '', '', ( #156 ) ) ;
#273 = ORIENTED_EDGE ( 'NONE', *, *, #63, .T. ) ;
#274 = CIRCLE ( 'NONE', #140, 0.3125000000000000000 ) ;
#275 = FACE_OUTER_BOUND ( 'NONE', #14, .T. ) ;
#276 = PRESENTATION_STYLE_ASSIGNMENT (( #81 ) ) ;
#277 = CARTESIAN_POINT ( 'NONE',  ( 0.000000000000000000, 0.000000000000000000, 0.000000000000000000 ) ) ;
#278 = VERTEX_POINT ( 'NONE', #200 ) ;
#279 = VERTEX_POINT ( 'NONE', #229 ) ;
#280 = CARTESIAN_POINT ( 'NONE',  ( 0.000000000000000000, 1.250000000000000000, -0.3125000000000000000 ) ) ;
#281 = CYLINDRICAL_SURFACE ( 'NONE', #216, 0.3125000000000000000 ) ;
#282 = CIRCLE ( 'NONE', #240, 0.3125000000000000555 ) ;
#283 = SURFACE_STYLE_USAGE ( .BOTH. , #305 ) ;
#284 = DIMENSIONAL_EXPONENTS ( 1.000000000000000000, 0.000000000000000000, 0.000000000000000000, 0.000000000000000000, 0.000000000000000000, 0.000000000000000000, 0.000000000000000000 ) ;
#285 = DIRECTION ( 'NONE',  ( -2.721437331438560389E-17, 1.000000000000000000, -0.000000000000000000 ) ) ;
#286 = CARTESIAN_POINT ( 'NONE',  ( -0.3125000000000000555, 3.500000000000000000, 0.000000000000000000 ) ) ;
#287 = SURFACE_STYLE_USAGE ( .BOTH. , #154 ) ;
#288 =( GEOMETRIC_REPRESENTATION_CONTEXT ( 3 ) GLOBAL_UNCERTAINTY_ASSIGNED_CONTEXT ( ( #203 ) ) GLOBAL_UNIT_ASSIGNED_CONTEXT ( ( #187, #241, #217 ) ) REPRESENTATION_CONTEXT ( 'NONE', 'WORKASPACE' ) );
#289 = ADVANCED_FACE ( 'NONE', ( #270 ), #76, .T. ) ;
#290 = ORIENTED_EDGE ( 'NONE', *, *, #214, .T. ) ;
#291 =( LENGTH_UNIT ( ) NAMED_UNIT ( * ) SI_UNIT ( $, .METRE. ) );
#292 = FILL_AREA_STYLE ('',( #53 ) ) ;
#293 = ORIENTED_EDGE ( 'NONE', *, *, #119, .T. ) ;
#294 = STYLED_ITEM ( 'NONE', ( #306 ), #88 ) ;
#295 = CARTESIAN_POINT ( 'NONE',  ( 0.3125000000000000000, 3.500000000000000000, 0.000000000000000000 ) ) ;
#296 = CARTESIAN_POINT ( 'NONE',  ( 0.000000000000000000, 1.250000000000000000, 0.000000000000000000 ) ) ;
#297 = ORIENTED_EDGE ( 'NONE', *, *, #119, .F. ) ;
#298 = PRODUCT_CONTEXT ( 'NONE', #242, 'mechanical' ) ;
#299 = ORIENTED_EDGE ( 'NONE', *, *, #184, .T. ) ;
#300 = CLOSED_SHELL ( 'NONE', ( #172, #193, #138, #219 ) ) ;
#301 =( NAMED_UNIT ( * ) SI_UNIT ( $, .STERADIAN. ) SOLID_ANGLE_UNIT ( ) );
#302 = DIRECTION ( 'NONE',  ( -1.000000000000000000, 0.000000000000000000, 0.000000000000000000 ) ) ;
#303 = LENGTH_MEASURE_WITH_UNIT ( LENGTH_MEASURE( 0.02539999999999999897 ), #236 );
#304 = PRESENTATION_LAYER_ASSIGNMENT (  '', '', ( #147 ) ) ;
#305 = SURFACE_SIDE_STYLE ('',( #224 ) ) ;
#306 = PRESENTATION_STYLE_ASSIGNMENT (( #283 ) ) ;
#307 = SURFACE_STYLE_USAGE ( .BOTH. , #72 ) ;
#308 = PRODUCT_DEFINITION_FORMATION_WITH_SPECIFIED_SOURCE ( 'ANY', '', #77, .NOT_KNOWN. ) ;
#309 = VECTOR ( 'NONE', #60, 39.37007874015748143 ) ;
ENDSEC;
END-ISO-10303-21;
