ISO-10303-21;
HEADER;
FILE_DESCRIPTION (( 'STEP AP214' ),
    '1' );
FILE_NAME ('59847.STEP',
    '2023-06-22T23:24:42',
    ( '' ),
    ( '' ),
    'SwSTEP 2.0',
    'SolidWorks 2023',
    '' );
FILE_SCHEMA (( 'AUTOMOTIVE_DESIGN' ));
ENDSEC;

DATA;
#1 = PRESENTATION_LAYER_ASSIGNMENT (  '', '', ( #28 ) ) ;
#2 = PRESENTATION_LAYER_ASSIGNMENT (  '', '', ( #60 ) ) ;
#3 = UNCERTAINTY_MEASURE_WITH_UNIT (LENGTH_MEASURE( 1.000000000000000082E-05 ), #105, 'distance_accuracy_value', 'NONE');
#4 = DIMENSIONAL_EXPONENTS ( 1.000000000000000000, 0.000000000000000000, 0.000000000000000000, 0.000000000000000000, 0.000000000000000000, 0.000000000000000000, 0.000000000000000000 ) ;
#5 = ORIENTED_EDGE ( 'NONE', *, *, #121, .F. ) ;
#6 = SURFACE_STYLE_USAGE ( .BOTH. , #217 ) ;
#7 = ORIENTED_EDGE ( 'NONE', *, *, #147, .T. ) ;
#8 = AXIS2_PLACEMENT_3D ( 'NONE', #16, #268, #247 ) ;
#9 = COLOUR_RGB ( '',1.000000000000000000, 0.000000000000000000, 0.000000000000000000 ) ;
#10 = LENGTH_MEASURE_WITH_UNIT ( LENGTH_MEASURE( 0.02539999999999999897 ), #131 );
#11 = FILL_AREA_STYLE ('',( #223 ) ) ;
#12 = EDGE_LOOP ( 'NONE', ( #206, #7, #40, #130 ) ) ;
#13 = PRESENTATION_STYLE_ASSIGNMENT (( #300 ) ) ;
#14 = EDGE_LOOP ( 'NONE', ( #232, #111, #33, #253 ) ) ;
#15 = ORIENTED_EDGE ( 'NONE', *, *, #124, .F. ) ;
#16 = CARTESIAN_POINT ( 'NONE',  ( 0.2500000000000000000, 3.000000000000000444, 0.000000000000000000 ) ) ;
#17 = SURFACE_STYLE_USAGE ( .BOTH. , #263 ) ;
#18 = DIMENSIONAL_EXPONENTS ( 1.000000000000000000, 0.000000000000000000, 0.000000000000000000, 0.000000000000000000, 0.000000000000000000, 0.000000000000000000, 0.000000000000000000 ) ;
#19 = FACE_OUTER_BOUND ( 'NONE', #12, .T. ) ;
#20 = PRESENTATION_STYLE_ASSIGNMENT (( #207 ) ) ;
#21 =( CONVERSION_BASED_UNIT ( 'INCH', #240 ) LENGTH_UNIT ( ) NAMED_UNIT ( #4 ) );
#22 =( GEOMETRIC_REPRESENTATION_CONTEXT ( 3 ) GLOBAL_UNCERTAINTY_ASSIGNED_CONTEXT ( ( #3 ) ) GLOBAL_UNIT_ASSIGNED_CONTEXT ( ( #105, #116, #212 ) ) REPRESENTATION_CONTEXT ( 'NONE', 'WORKASPACE' ) );
#23 = FACE_OUTER_BOUND ( 'NONE', #159, .T. ) ;
#24 = PRODUCT_CONTEXT ( 'NONE', #225, 'mechanical' ) ;
#25 = PLANE ( 'NONE',  #99 ) ;
#26 = DIRECTION ( 'NONE',  ( 0.000000000000000000, 0.000000000000000000, 1.000000000000000000 ) ) ;
#27 =( NAMED_UNIT ( * ) SI_UNIT ( $, .STERADIAN. ) SOLID_ANGLE_UNIT ( ) );
#28 = STYLED_ITEM ( 'NONE', ( #13 ), #61 ) ;
#29 = DIRECTION ( 'NONE',  ( 0.000000000000000000, 0.000000000000000000, -1.000000000000000000 ) ) ;
#30 = CARTESIAN_POINT ( 'NONE',  ( 0.000000000000000000, 0.000000000000000000, 0.000000000000000000 ) ) ;
#31 = SHAPE_DEFINITION_REPRESENTATION ( #218, #237 ) ;
#32 = MANIFOLD_SOLID_BREP ( 'Revolve - Tool Body (Straight Shanked)', #198 ) ;
#33 = ORIENTED_EDGE ( 'NONE', *, *, #166, .T. ) ;
#34 = VERTEX_POINT ( 'NONE', #103 ) ;
#35 = ORIENTED_EDGE ( 'NONE', *, *, #78, .T. ) ;
#36 =( NAMED_UNIT ( * ) SI_UNIT ( $, .STERADIAN. ) SOLID_ANGLE_UNIT ( ) );
#37 = AXIS2_PLACEMENT_3D ( 'NONE', #203, #294, #77 ) ;
#38 = UNCERTAINTY_MEASURE_WITH_UNIT (LENGTH_MEASURE( 1.000000000000000082E-05 ), #267, 'distance_accuracy_value', 'NONE');
#39 = VERTEX_POINT ( 'NONE', #296 ) ;
#40 = ORIENTED_EDGE ( 'NONE', *, *, #78, .F. ) ;
#41 = STYLED_ITEM ( 'NONE', ( #20 ), #139 ) ;
#42 = COLOUR_RGB ( '',1.000000000000000000, 0.000000000000000000, 0.000000000000000000 ) ;
#43 = CIRCLE ( 'NONE', #204, 0.2500000000000000000 ) ;
#44 = SURFACE_SIDE_STYLE ('',( #244 ) ) ;
#45 = DIRECTION ( 'NONE',  ( -3.498990854706726443E-17, 1.000000000000000000, -0.000000000000000000 ) ) ;
#46 = DIRECTION ( 'NONE',  ( -1.000000000000000000, 0.000000000000000000, 0.000000000000000000 ) ) ;
#47 = PRESENTATION_STYLE_ASSIGNMENT (( #17 ) ) ;
#48 = PRODUCT_DEFINITION_CONTEXT ( 'detailed design', #290, 'design' ) ;
#49 = VERTEX_POINT ( 'NONE', #245 ) ;
#50 = FILL_AREA_STYLE ('',( #264 ) ) ;
#51 = CIRCLE ( 'NONE', #84, 0.2500000000000000000 ) ;
#52 = VECTOR ( 'NONE', #274, 39.37007874015748143 ) ;
#53 = PLANE ( 'NONE',  #8 ) ;
#54 = DIRECTION ( 'NONE',  ( -1.000000000000000000, 0.000000000000000000, 0.000000000000000000 ) ) ;
#55 =( NAMED_UNIT ( * ) SI_UNIT ( $, .STERADIAN. ) SOLID_ANGLE_UNIT ( ) );
#56 = MECHANICAL_DESIGN_GEOMETRIC_PRESENTATION_REPRESENTATION (  '', ( #60 ), #193 ) ;
#57 = DIRECTION ( 'NONE',  ( -3.498990854706726443E-17, 1.000000000000000000, -0.000000000000000000 ) ) ;
#58 = ORIENTED_EDGE ( 'NONE', *, *, #179, .T. ) ;
#59 = STYLED_ITEM ( 'NONE', ( #251 ), #32 ) ;
#60 = STYLED_ITEM ( 'NONE', ( #47 ), #162 ) ;
#61 = ADVANCED_FACE ( 'NONE', ( #127 ), #271, .T. ) ;
#62 = DIMENSIONAL_EXPONENTS ( 1.000000000000000000, 0.000000000000000000, 0.000000000000000000, 0.000000000000000000, 0.000000000000000000, 0.000000000000000000, 0.000000000000000000 ) ;
#63 = UNCERTAINTY_MEASURE_WITH_UNIT (LENGTH_MEASURE( 1.000000000000000082E-05 ), #136, 'distance_accuracy_value', 'NONE');
#64 = DIRECTION ( 'NONE',  ( 0.000000000000000000, 0.000000000000000000, -1.000000000000000000 ) ) ;
#65 = LENGTH_MEASURE_WITH_UNIT ( LENGTH_MEASURE( 0.02539999999999999897 ), #146 );
#66 = DIRECTION ( 'NONE',  ( 0.000000000000000000, 0.000000000000000000, -1.000000000000000000 ) ) ;
#67 =( CONVERSION_BASED_UNIT ( 'INCH', #180 ) LENGTH_UNIT ( ) NAMED_UNIT ( #192 ) );
#68 = SURFACE_STYLE_USAGE ( .BOTH. , #44 ) ;
#69 = UNCERTAINTY_MEASURE_WITH_UNIT (LENGTH_MEASURE( 1.000000000000000082E-05 ), #67, 'distance_accuracy_value', 'NONE');
#70 = FILL_AREA_STYLE_COLOUR ( '', #42 ) ;
#71 = CARTESIAN_POINT ( 'NONE',  ( 0.000000000000000000, 0.000000000000000000, 0.000000000000000000 ) ) ;
#72 = APPLICATION_PROTOCOL_DEFINITION ( 'draft international standard', 'automotive_design', 1998, #225 ) ;
#73 = PRODUCT_RELATED_PRODUCT_CATEGORY ( 'part', '', ( #101 ) ) ;
#74 =( GEOMETRIC_REPRESENTATION_CONTEXT ( 3 ) GLOBAL_UNCERTAINTY_ASSIGNED_CONTEXT ( ( #69 ) ) GLOBAL_UNIT_ASSIGNED_CONTEXT ( ( #67, #190, #169 ) ) REPRESENTATION_CONTEXT ( 'NONE', 'WORKASPACE' ) );
#75 = CARTESIAN_POINT ( 'NONE',  ( 0.2499999999999999722, 3.000000000000000444, 3.061616997868383634E-17 ) ) ;
#76 =( GEOMETRIC_REPRESENTATION_CONTEXT ( 3 ) GLOBAL_UNCERTAINTY_ASSIGNED_CONTEXT ( ( #275 ) ) GLOBAL_UNIT_ASSIGNED_CONTEXT ( ( #83, #279, #171 ) ) REPRESENTATION_CONTEXT ( 'NONE', 'WORKASPACE' ) );
#77 = DIRECTION ( 'NONE',  ( 0.000000000000000000, -0.000000000000000000, 1.000000000000000000 ) ) ;
#78 = EDGE_CURVE ( 'NONE', #34, #226, #242, .T. ) ;
#79 =( GEOMETRIC_REPRESENTATION_CONTEXT ( 3 ) GLOBAL_UNCERTAINTY_ASSIGNED_CONTEXT ( ( #38 ) ) GLOBAL_UNIT_ASSIGNED_CONTEXT ( ( #267, #143, #36 ) ) REPRESENTATION_CONTEXT ( 'NONE', 'WORKASPACE' ) );
#80 = AXIS2_PLACEMENT_3D ( 'NONE', #261, #86, #46 ) ;
#81 = ORIENTED_EDGE ( 'NONE', *, *, #82, .F. ) ;
#82 = EDGE_CURVE ( 'NONE', #152, #229, #241, .T. ) ;
#83 =( CONVERSION_BASED_UNIT ( 'INCH', #262 ) LENGTH_UNIT ( ) NAMED_UNIT ( #89 ) );
#84 = AXIS2_PLACEMENT_3D ( 'NONE', #129, #57, #224 ) ;
#85 = AXIS2_PLACEMENT_3D ( 'NONE', #197, #200, #29 ) ;
#86 = DIRECTION ( 'NONE',  ( -3.498990854706726443E-17, 1.000000000000000000, -0.000000000000000000 ) ) ;
#87 = FACE_OUTER_BOUND ( 'NONE', #270, .T. ) ;
#88 = DIRECTION ( 'NONE',  ( 0.000000000000000000, -1.000000000000000000, -0.000000000000000000 ) ) ;
#89 = DIMENSIONAL_EXPONENTS ( 1.000000000000000000, 0.000000000000000000, 0.000000000000000000, 0.000000000000000000, 0.000000000000000000, 0.000000000000000000, 0.000000000000000000 ) ;
#90 =( LENGTH_UNIT ( ) NAMED_UNIT ( * ) SI_UNIT ( $, .METRE. ) );
#91 = EDGE_CURVE ( 'NONE', #152, #49, #282, .T. ) ;
#92 = FILL_AREA_STYLE_COLOUR ( '', #280 ) ;
#93 = FILL_AREA_STYLE ('',( #256 ) ) ;
#94 = AXIS2_PLACEMENT_3D ( 'NONE', #161, #306, #239 ) ;
#95 = CARTESIAN_POINT ( 'NONE',  ( 0.000000000000000000, 0.000000000000000000, 0.000000000000000000 ) ) ;
#96 = DIRECTION ( 'NONE',  ( 0.000000000000000000, 0.000000000000000000, -1.000000000000000000 ) ) ;
#97 = ADVANCED_FACE ( 'NONE', ( #125 ), #53, .F. ) ;
#98 = DIRECTION ( 'NONE',  ( 0.000000000000000000, 0.000000000000000000, -1.000000000000000000 ) ) ;
#99 = AXIS2_PLACEMENT_3D ( 'NONE', #100, #142, #150 ) ;
#100 = CARTESIAN_POINT ( 'NONE',  ( 1.530367125165163595E-34, 1.250000000000000000, 0.000000000000000000 ) ) ;
#101 = PRODUCT ( '59847', '59847', '', ( #24 ) ) ;
#102 = CLOSED_SHELL ( 'NONE', ( #254, #162, #61, #135 ) ) ;
#103 = CARTESIAN_POINT ( 'NONE',  ( 0.000000000000000000, 0.000000000000000000, -0.2500000000000000000 ) ) ;
#104 = ADVANCED_FACE ( 'NONE', ( #215 ), #25, .F. ) ;
#105 =( CONVERSION_BASED_UNIT ( 'INCH', #117 ) LENGTH_UNIT ( ) NAMED_UNIT ( #307 ) );
#106 = EDGE_LOOP ( 'NONE', ( #155, #205 ) ) ;
#107 = ORIENTED_EDGE ( 'NONE', *, *, #124, .T. ) ;
#108 = STYLED_ITEM ( 'NONE', ( #170 ), #135 ) ;
#109 = AXIS2_PLACEMENT_3D ( 'NONE', #309, #266, #219 ) ;
#110 = ORIENTED_EDGE ( 'NONE', *, *, #91, .F. ) ;
#111 = ORIENTED_EDGE ( 'NONE', *, *, #304, .T. ) ;
#112 =( LENGTH_UNIT ( ) NAMED_UNIT ( * ) SI_UNIT ( $, .METRE. ) );
#113 = DIRECTION ( 'NONE',  ( -0.000000000000000000, -1.000000000000000000, -0.000000000000000000 ) ) ;
#114 =( LENGTH_UNIT ( ) NAMED_UNIT ( * ) SI_UNIT ( $, .METRE. ) );
#115 =( NAMED_UNIT ( * ) PLANE_ANGLE_UNIT ( ) SI_UNIT ( $, .RADIAN. ) );
#116 =( NAMED_UNIT ( * ) PLANE_ANGLE_UNIT ( ) SI_UNIT ( $, .RADIAN. ) );
#117 = LENGTH_MEASURE_WITH_UNIT ( LENGTH_MEASURE( 0.02539999999999999897 ), #181 );
#118 = AXIS2_PLACEMENT_3D ( 'NONE', #95, #26, #293 ) ;
#119 = DIRECTION ( 'NONE',  ( -0.000000000000000000, -1.000000000000000000, -0.000000000000000000 ) ) ;
#120 = ORIENTED_EDGE ( 'NONE', *, *, #195, .F. ) ;
#121 = EDGE_CURVE ( 'NONE', #39, #49, #246, .T. ) ;
#122 = CARTESIAN_POINT ( 'NONE',  ( 0.000000000000000000, 0.000000000000000000, 0.000000000000000000 ) ) ;
#123 = PLANE ( 'NONE',  #37 ) ;
#124 = EDGE_CURVE ( 'NONE', #229, #152, #51, .T. ) ;
#125 = FACE_OUTER_BOUND ( 'NONE', #106, .T. ) ;
#126 = AXIS2_PLACEMENT_3D ( 'NONE', #164, #283, #96 ) ;
#127 = FACE_OUTER_BOUND ( 'NONE', #14, .T. ) ;
#128 = SURFACE_STYLE_FILL_AREA ( #277 ) ;
#129 = CARTESIAN_POINT ( 'NONE',  ( 0.000000000000000000, 1.250000000000000000, 0.000000000000000000 ) ) ;
#130 = ORIENTED_EDGE ( 'NONE', *, *, #166, .F. ) ;
#131 =( LENGTH_UNIT ( ) NAMED_UNIT ( * ) SI_UNIT ( $, .METRE. ) );
#132 = EDGE_CURVE ( 'NONE', #182, #265, #177, .T. ) ;
#133 = LENGTH_MEASURE_WITH_UNIT ( LENGTH_MEASURE( 0.02539999999999999897 ), #250 );
#134 = PRESENTATION_LAYER_ASSIGNMENT (  '', '', ( #222 ) ) ;
#135 = ADVANCED_FACE ( 'NONE', ( #23 ), #168, .T. ) ;
#136 =( CONVERSION_BASED_UNIT ( 'INCH', #65 ) LENGTH_UNIT ( ) NAMED_UNIT ( #18 ) );
#137 = ORIENTED_EDGE ( 'NONE', *, *, #230, .T. ) ;
#138 = CARTESIAN_POINT ( 'NONE',  ( 0.000000000000000000, 0.000000000000000000, 0.000000000000000000 ) ) ;
#139 = MANIFOLD_SOLID_BREP ( 'Revolve - Cutting Edge', #102 ) ;
#140 = DIRECTION ( 'NONE',  ( -0.000000000000000000, -1.000000000000000000, -0.000000000000000000 ) ) ;
#141 = PRESENTATION_LAYER_ASSIGNMENT (  '', '', ( #59 ) ) ;
#142 = DIRECTION ( 'NONE',  ( -3.498990854706726443E-17, 1.000000000000000000, 0.000000000000000000 ) ) ;
#143 =( NAMED_UNIT ( * ) PLANE_ANGLE_UNIT ( ) SI_UNIT ( $, .RADIAN. ) );
#144 = CARTESIAN_POINT ( 'NONE',  ( 3.061616997868383018E-17, 0.000000000000000000, 0.2500000000000000000 ) ) ;
#145 = FILL_AREA_STYLE_COLOUR ( '', #308 ) ;
#146 =( LENGTH_UNIT ( ) NAMED_UNIT ( * ) SI_UNIT ( $, .METRE. ) );
#147 = EDGE_CURVE ( 'NONE', #265, #226, #194, .T. ) ;
#148 = VECTOR ( 'NONE', #281, 39.37007874015748143 ) ;
#149 =( NAMED_UNIT ( * ) SI_UNIT ( $, .STERADIAN. ) SOLID_ANGLE_UNIT ( ) );
#150 = DIRECTION ( 'NONE',  ( -1.000000000000000000, -3.498990854706726443E-17, 0.000000000000000000 ) ) ;
#151 = CARTESIAN_POINT ( 'NONE',  ( 0.000000000000000000, 0.000000000000000000, -0.2500000000000000000 ) ) ;
#152 = VERTEX_POINT ( 'NONE', #286 ) ;
#153 = MECHANICAL_DESIGN_GEOMETRIC_PRESENTATION_REPRESENTATION (  '', ( #108 ), #154 ) ;
#154 =( GEOMETRIC_REPRESENTATION_CONTEXT ( 3 ) GLOBAL_UNCERTAINTY_ASSIGNED_CONTEXT ( ( #201 ) ) GLOBAL_UNIT_ASSIGNED_CONTEXT ( ( #21, #115, #149 ) ) REPRESENTATION_CONTEXT ( 'NONE', 'WORKASPACE' ) );
#155 = ORIENTED_EDGE ( 'NONE', *, *, #195, .T. ) ;
#156 = SURFACE_STYLE_USAGE ( .BOTH. , #273 ) ;
#157 = ORIENTED_EDGE ( 'NONE', *, *, #91, .T. ) ;
#158 = CIRCLE ( 'NONE', #94, 0.2500000000000000555 ) ;
#159 = EDGE_LOOP ( 'NONE', ( #35, #137 ) ) ;
#160 = ORIENTED_EDGE ( 'NONE', *, *, #132, .F. ) ;
#161 = CARTESIAN_POINT ( 'NONE',  ( -6.123233995736772199E-17, 3.000000000000000444, 0.000000000000000000 ) ) ;
#162 = ADVANCED_FACE ( 'NONE', ( #165 ), #123, .T. ) ;
#163 = AXIS2_PLACEMENT_3D ( 'NONE', #189, #196, #287 ) ;
#164 = CARTESIAN_POINT ( 'NONE',  ( 0.000000000000000000, 0.000000000000000000, 0.000000000000000000 ) ) ;
#165 = FACE_OUTER_BOUND ( 'NONE', #183, .T. ) ;
#166 = EDGE_CURVE ( 'NONE', #182, #34, #248, .T. ) ;
#167 = DIRECTION ( 'NONE',  ( -0.000000000000000000, -1.000000000000000000, -0.000000000000000000 ) ) ;
#168 = PLANE ( 'NONE',  #175 ) ;
#169 =( NAMED_UNIT ( * ) SI_UNIT ( $, .STERADIAN. ) SOLID_ANGLE_UNIT ( ) );
#170 = PRESENTATION_STYLE_ASSIGNMENT (( #68 ) ) ;
#171 =( NAMED_UNIT ( * ) SI_UNIT ( $, .STERADIAN. ) SOLID_ANGLE_UNIT ( ) );
#172 = CYLINDRICAL_SURFACE ( 'NONE', #109, 0.2500000000000000555 ) ;
#173 = MECHANICAL_DESIGN_GEOMETRIC_PRESENTATION_REPRESENTATION (  '', ( #222 ), #74 ) ;
#174 =( CONVERSION_BASED_UNIT ( 'INCH', #133 ) LENGTH_UNIT ( ) NAMED_UNIT ( #62 ) );
#175 = AXIS2_PLACEMENT_3D ( 'NONE', #30, #88, #66 ) ;
#176 = ORIENTED_EDGE ( 'NONE', *, *, #304, .F. ) ;
#177 = CIRCLE ( 'NONE', #163, 0.2500000000000000000 ) ;
#178 = VECTOR ( 'NONE', #202, 39.37007874015748143 ) ;
#179 = EDGE_CURVE ( 'NONE', #229, #39, #291, .T. ) ;
#180 = LENGTH_MEASURE_WITH_UNIT ( LENGTH_MEASURE( 0.02539999999999999897 ), #114 );
#181 =( LENGTH_UNIT ( ) NAMED_UNIT ( * ) SI_UNIT ( $, .METRE. ) );
#182 = VERTEX_POINT ( 'NONE', #185 ) ;
#183 = EDGE_LOOP ( 'NONE', ( #160, #176 ) ) ;
#184 = AXIS2_PLACEMENT_3D ( 'NONE', #210, #260, #278 ) ;
#185 = CARTESIAN_POINT ( 'NONE',  ( 0.000000000000000000, 1.250000000000000000, -0.2500000000000000000 ) ) ;
#186 = CARTESIAN_POINT ( 'NONE',  ( 0.2500000000000000000, 1.250000000000000000, 3.061616997868383634E-17 ) ) ;
#187 =( NAMED_UNIT ( * ) PLANE_ANGLE_UNIT ( ) SI_UNIT ( $, .RADIAN. ) );
#188 = DIRECTION ( 'NONE',  ( 0.000000000000000000, 0.000000000000000000, -1.000000000000000000 ) ) ;
#189 = CARTESIAN_POINT ( 'NONE',  ( 0.000000000000000000, 1.250000000000000000, 0.000000000000000000 ) ) ;
#190 =( NAMED_UNIT ( * ) PLANE_ANGLE_UNIT ( ) SI_UNIT ( $, .RADIAN. ) );
#191 = PRODUCT_DEFINITION ( 'UNKNOWN', '', #243, #48 ) ;
#192 = DIMENSIONAL_EXPONENTS ( 1.000000000000000000, 0.000000000000000000, 0.000000000000000000, 0.000000000000000000, 0.000000000000000000, 0.000000000000000000, 0.000000000000000000 ) ;
#193 =( GEOMETRIC_REPRESENTATION_CONTEXT ( 3 ) GLOBAL_UNCERTAINTY_ASSIGNED_CONTEXT ( ( #63 ) ) GLOBAL_UNIT_ASSIGNED_CONTEXT ( ( #136, #187, #27 ) ) REPRESENTATION_CONTEXT ( 'NONE', 'WORKASPACE' ) );
#194 = LINE ( 'NONE', #258, #231 ) ;
#195 = EDGE_CURVE ( 'NONE', #49, #39, #158, .T. ) ;
#196 = DIRECTION ( 'NONE',  ( -0.000000000000000000, -1.000000000000000000, -0.000000000000000000 ) ) ;
#197 = CARTESIAN_POINT ( 'NONE',  ( 0.000000000000000000, 1.250000000000000000, 0.000000000000000000 ) ) ;
#198 = CLOSED_SHELL ( 'NONE', ( #213, #104, #301, #97 ) ) ;
#199 = CARTESIAN_POINT ( 'NONE',  ( -0.2500000000000001110, 3.000000000000000444, 0.000000000000000000 ) ) ;
#200 = DIRECTION ( 'NONE',  ( -0.000000000000000000, -1.000000000000000000, -0.000000000000000000 ) ) ;
#201 = UNCERTAINTY_MEASURE_WITH_UNIT (LENGTH_MEASURE( 1.000000000000000082E-05 ), #21, 'distance_accuracy_value', 'NONE');
#202 = DIRECTION ( 'NONE',  ( -0.000000000000000000, -1.000000000000000000, -0.000000000000000000 ) ) ;
#203 = CARTESIAN_POINT ( 'NONE',  ( 0.000000000000000000, 1.250000000000000000, 0.000000000000000000 ) ) ;
#204 = AXIS2_PLACEMENT_3D ( 'NONE', #138, #113, #64 ) ;
#205 = ORIENTED_EDGE ( 'NONE', *, *, #121, .T. ) ;
#206 = ORIENTED_EDGE ( 'NONE', *, *, #132, .T. ) ;
#207 = SURFACE_STYLE_USAGE ( .BOTH. , #227 ) ;
#208 = ORIENTED_EDGE ( 'NONE', *, *, #179, .F. ) ;
#209 = ORIENTED_EDGE ( 'NONE', *, *, #82, .T. ) ;
#210 = CARTESIAN_POINT ( 'NONE',  ( -6.123233995736772199E-17, 3.000000000000000444, 0.000000000000000000 ) ) ;
#211 = CYLINDRICAL_SURFACE ( 'NONE', #126, 0.2500000000000000000 ) ;
#212 =( NAMED_UNIT ( * ) SI_UNIT ( $, .STERADIAN. ) SOLID_ANGLE_UNIT ( ) );
#213 = ADVANCED_FACE ( 'NONE', ( #87 ), #238, .T. ) ;
#214 = SURFACE_STYLE_FILL_AREA ( #257 ) ;
#215 = FACE_OUTER_BOUND ( 'NONE', #276, .T. ) ;
#216 = APPLICATION_PROTOCOL_DEFINITION ( 'draft international standard', 'automotive_design', 1998, #290 ) ;
#217 = SURFACE_SIDE_STYLE ('',( #128 ) ) ;
#218 = PRODUCT_DEFINITION_SHAPE ( 'NONE', 'NONE',  #191 ) ;
#219 = DIRECTION ( 'NONE',  ( -1.000000000000000000, 0.000000000000000000, 0.000000000000000000 ) ) ;
#220 = SURFACE_STYLE_FILL_AREA ( #50 ) ;
#221 = AXIS2_PLACEMENT_3D ( 'NONE', #122, #119, #98 ) ;
#222 = STYLED_ITEM ( 'NONE', ( #249 ), #254 ) ;
#223 = FILL_AREA_STYLE_COLOUR ( '', #255 ) ;
#224 = DIRECTION ( 'NONE',  ( -1.000000000000000000, 0.000000000000000000, 0.000000000000000000 ) ) ;
#225 = APPLICATION_CONTEXT ( 'automotive_design' ) ;
#226 = VERTEX_POINT ( 'NONE', #144 ) ;
#227 = SURFACE_SIDE_STYLE ('',( #220 ) ) ;
#228 = UNCERTAINTY_MEASURE_WITH_UNIT (LENGTH_MEASURE( 1.000000000000000082E-05 ), #174, 'distance_accuracy_value', 'NONE');
#229 = VERTEX_POINT ( 'NONE', #186 ) ;
#230 = EDGE_CURVE ( 'NONE', #226, #34, #43, .T. ) ;
#231 = VECTOR ( 'NONE', #167, 39.37007874015748143 ) ;
#232 = ORIENTED_EDGE ( 'NONE', *, *, #147, .F. ) ;
#233 = AXIS2_PLACEMENT_3D ( 'NONE', #269, #45, #54 ) ;
#234 =( NAMED_UNIT ( * ) PLANE_ANGLE_UNIT ( ) SI_UNIT ( $, .RADIAN. ) );
#235 = SURFACE_STYLE_FILL_AREA ( #11 ) ;
#236 = FACE_OUTER_BOUND ( 'NONE', #299, .T. ) ;
#237 = ADVANCED_BREP_SHAPE_REPRESENTATION ( '59847', ( #139, #32, #118 ), #76 ) ;
#238 = CYLINDRICAL_SURFACE ( 'NONE', #80, 0.2500000000000000555 ) ;
#239 = DIRECTION ( 'NONE',  ( -1.000000000000000000, 0.000000000000000000, 0.000000000000000000 ) ) ;
#240 = LENGTH_MEASURE_WITH_UNIT ( LENGTH_MEASURE( 0.02539999999999999897 ), #90 );
#241 = CIRCLE ( 'NONE', #233, 0.2500000000000000000 ) ;
#242 = CIRCLE ( 'NONE', #297, 0.2500000000000000000 ) ;
#243 = PRODUCT_DEFINITION_FORMATION_WITH_SPECIFIED_SOURCE ( 'ANY', '', #101, .NOT_KNOWN. ) ;
#244 = SURFACE_STYLE_FILL_AREA ( #289 ) ;
#245 = CARTESIAN_POINT ( 'NONE',  ( -0.2500000000000001110, 3.000000000000000444, 0.000000000000000000 ) ) ;
#246 = CIRCLE ( 'NONE', #184, 0.2500000000000000555 ) ;
#247 = DIRECTION ( 'NONE',  ( 1.000000000000000000, 3.498990854706726443E-17, 0.000000000000000000 ) ) ;
#248 = LINE ( 'NONE', #151, #178 ) ;
#249 = PRESENTATION_STYLE_ASSIGNMENT (( #156 ) ) ;
#250 =( LENGTH_UNIT ( ) NAMED_UNIT ( * ) SI_UNIT ( $, .METRE. ) );
#251 = PRESENTATION_STYLE_ASSIGNMENT (( #6 ) ) ;
#252 = MECHANICAL_DESIGN_GEOMETRIC_PRESENTATION_REPRESENTATION (  '', ( #41 ), #22 ) ;
#253 = ORIENTED_EDGE ( 'NONE', *, *, #230, .F. ) ;
#254 = ADVANCED_FACE ( 'NONE', ( #19 ), #211, .T. ) ;
#255 = COLOUR_RGB ( '',1.000000000000000000, 0.000000000000000000, 0.000000000000000000 ) ;
#256 = FILL_AREA_STYLE_COLOUR ( '', #9 ) ;
#257 = FILL_AREA_STYLE ('',( #92 ) ) ;
#258 = CARTESIAN_POINT ( 'NONE',  ( 3.061616997868383018E-17, 0.000000000000000000, 0.2500000000000000000 ) ) ;
#259 =( GEOMETRIC_REPRESENTATION_CONTEXT ( 3 ) GLOBAL_UNCERTAINTY_ASSIGNED_CONTEXT ( ( #228 ) ) GLOBAL_UNIT_ASSIGNED_CONTEXT ( ( #174, #234, #55 ) ) REPRESENTATION_CONTEXT ( 'NONE', 'WORKASPACE' ) );
#260 = DIRECTION ( 'NONE',  ( -3.498990854706726443E-17, 1.000000000000000000, -0.000000000000000000 ) ) ;
#261 = CARTESIAN_POINT ( 'NONE',  ( -6.123233995736772199E-17, 3.000000000000000444, 0.000000000000000000 ) ) ;
#262 = LENGTH_MEASURE_WITH_UNIT ( LENGTH_MEASURE( 0.02539999999999999897 ), #112 );
#263 = SURFACE_SIDE_STYLE ('',( #284 ) ) ;
#264 = FILL_AREA_STYLE_COLOUR ( '', #298 ) ;
#265 = VERTEX_POINT ( 'NONE', #288 ) ;
#266 = DIRECTION ( 'NONE',  ( -3.498990854706726443E-17, 1.000000000000000000, -0.000000000000000000 ) ) ;
#267 =( CONVERSION_BASED_UNIT ( 'INCH', #10 ) LENGTH_UNIT ( ) NAMED_UNIT ( #292 ) );
#268 = DIRECTION ( 'NONE',  ( 3.498990854706726443E-17, -1.000000000000000000, 0.000000000000000000 ) ) ;
#269 = CARTESIAN_POINT ( 'NONE',  ( 0.000000000000000000, 1.250000000000000000, 0.000000000000000000 ) ) ;
#270 = EDGE_LOOP ( 'NONE', ( #209, #58, #120, #110 ) ) ;
#271 = CYLINDRICAL_SURFACE ( 'NONE', #221, 0.2500000000000000000 ) ;
#272 = CIRCLE ( 'NONE', #85, 0.2500000000000000000 ) ;
#273 = SURFACE_SIDE_STYLE ('',( #214 ) ) ;
#274 = DIRECTION ( 'NONE',  ( -3.498990854706726443E-17, 1.000000000000000000, -0.000000000000000000 ) ) ;
#275 = UNCERTAINTY_MEASURE_WITH_UNIT (LENGTH_MEASURE( 1.000000000000000082E-05 ), #83, 'distance_accuracy_value', 'NONE');
#276 = EDGE_LOOP ( 'NONE', ( #81, #15 ) ) ;
#277 = FILL_AREA_STYLE ('',( #145 ) ) ;
#278 = DIRECTION ( 'NONE',  ( -1.000000000000000000, 0.000000000000000000, 0.000000000000000000 ) ) ;
#279 =( NAMED_UNIT ( * ) PLANE_ANGLE_UNIT ( ) SI_UNIT ( $, .RADIAN. ) );
#280 = COLOUR_RGB ( '',1.000000000000000000, 0.000000000000000000, 0.000000000000000000 ) ;
#281 = DIRECTION ( 'NONE',  ( -3.498990854706726443E-17, 1.000000000000000000, -0.000000000000000000 ) ) ;
#282 = LINE ( 'NONE', #199, #148 ) ;
#283 = DIRECTION ( 'NONE',  ( -0.000000000000000000, -1.000000000000000000, -0.000000000000000000 ) ) ;
#284 = SURFACE_STYLE_FILL_AREA ( #93 ) ;
#285 = PRESENTATION_LAYER_ASSIGNMENT (  '', '', ( #108 ) ) ;
#286 = CARTESIAN_POINT ( 'NONE',  ( -0.2500000000000000000, 1.250000000000000000, 0.000000000000000000 ) ) ;
#287 = DIRECTION ( 'NONE',  ( 0.000000000000000000, 0.000000000000000000, -1.000000000000000000 ) ) ;
#288 = CARTESIAN_POINT ( 'NONE',  ( 3.061616997868383018E-17, 1.250000000000000000, 0.2500000000000000000 ) ) ;
#289 = FILL_AREA_STYLE ('',( #70 ) ) ;
#290 = APPLICATION_CONTEXT ( 'automotive_design' ) ;
#291 = LINE ( 'NONE', #75, #52 ) ;
#292 = DIMENSIONAL_EXPONENTS ( 1.000000000000000000, 0.000000000000000000, 0.000000000000000000, 0.000000000000000000, 0.000000000000000000, 0.000000000000000000, 0.000000000000000000 ) ;
#293 = DIRECTION ( 'NONE',  ( 1.000000000000000000, 0.000000000000000000, 0.000000000000000000 ) ) ;
#294 = DIRECTION ( 'NONE',  ( 0.000000000000000000, 1.000000000000000000, 0.000000000000000000 ) ) ;
#295 = MECHANICAL_DESIGN_GEOMETRIC_PRESENTATION_REPRESENTATION (  '', ( #59 ), #79 ) ;
#296 = CARTESIAN_POINT ( 'NONE',  ( 0.2500000000000000000, 3.000000000000000444, 3.061616997868383634E-17 ) ) ;
#297 = AXIS2_PLACEMENT_3D ( 'NONE', #71, #140, #188 ) ;
#298 = COLOUR_RGB ( '',0.7921568627450980005, 0.8196078431372548767, 0.9333333333333333481 ) ;
#299 = EDGE_LOOP ( 'NONE', ( #208, #107, #157, #5 ) ) ;
#300 = SURFACE_STYLE_USAGE ( .BOTH. , #305 ) ;
#301 = ADVANCED_FACE ( 'NONE', ( #236 ), #172, .T. ) ;
#302 = MECHANICAL_DESIGN_GEOMETRIC_PRESENTATION_REPRESENTATION (  '', ( #28 ), #259 ) ;
#303 = PRESENTATION_LAYER_ASSIGNMENT (  '', '', ( #41 ) ) ;
#304 = EDGE_CURVE ( 'NONE', #265, #182, #272, .T. ) ;
#305 = SURFACE_SIDE_STYLE ('',( #235 ) ) ;
#306 = DIRECTION ( 'NONE',  ( -3.498990854706726443E-17, 1.000000000000000000, -0.000000000000000000 ) ) ;
#307 = DIMENSIONAL_EXPONENTS ( 1.000000000000000000, 0.000000000000000000, 0.000000000000000000, 0.000000000000000000, 0.000000000000000000, 0.000000000000000000, 0.000000000000000000 ) ;
#308 = COLOUR_RGB ( '',0.7921568627450980005, 0.8196078431372548767, 0.9333333333333333481 ) ;
#309 = CARTESIAN_POINT ( 'NONE',  ( -6.123233995736772199E-17, 3.000000000000000444, 0.000000000000000000 ) ) ;
ENDSEC;
END-ISO-10303-21;
