ISO-10303-21;
HEADER;
FILE_DESCRIPTION (( 'STEP AP214' ),
    '1' );
FILE_NAME ('81397.STEP',
    '2023-06-23T01:00:01',
    ( '' ),
    ( '' ),
    'SwSTEP 2.0',
    'SolidWorks 2023',
    '' );
FILE_SCHEMA (( 'AUTOMOTIVE_DESIGN' ));
ENDSEC;

DATA;
#1 = MECHANICAL_DESIGN_GEOMETRIC_PRESENTATION_REPRESENTATION (  '', ( #136 ), #118 ) ;
#2 = EDGE_LOOP ( 'NONE', ( #269, #63, #149, #220 ) ) ;
#3 = DIRECTION ( 'NONE',  ( 1.000000000000000000, 0.000000000000000000, 0.000000000000000000 ) ) ;
#4 = DIRECTION ( 'NONE',  ( 1.749495427353361372E-16, 1.000000000000000000, -0.000000000000000000 ) ) ;
#5 = FILL_AREA_STYLE_COLOUR ( '', #285 ) ;
#6 = FILL_AREA_STYLE_COLOUR ( '', #226 ) ;
#7 = MECHANICAL_DESIGN_GEOMETRIC_PRESENTATION_REPRESENTATION (  '', ( #26 ), #261 ) ;
#8 = DIMENSIONAL_EXPONENTS ( 1.000000000000000000, 0.000000000000000000, 0.000000000000000000, 0.000000000000000000, 0.000000000000000000, 0.000000000000000000, 0.000000000000000000 ) ;
#9 = DIRECTION ( 'NONE',  ( -0.000000000000000000, -1.000000000000000000, -0.000000000000000000 ) ) ;
#10 =( LENGTH_UNIT ( ) NAMED_UNIT ( * ) SI_UNIT ( $, .METRE. ) );
#11 = LENGTH_MEASURE_WITH_UNIT ( LENGTH_MEASURE( 0.02539999999999999897 ), #168 );
#12 = VERTEX_POINT ( 'NONE', #98 ) ;
#13 = CARTESIAN_POINT ( 'NONE',  ( 0.000000000000000000, 0.7499999999999998890, 0.000000000000000000 ) ) ;
#14 = EDGE_CURVE ( 'NONE', #12, #254, #106, .T. ) ;
#15 =( GEOMETRIC_REPRESENTATION_CONTEXT ( 3 ) GLOBAL_UNCERTAINTY_ASSIGNED_CONTEXT ( ( #145 ) ) GLOBAL_UNIT_ASSIGNED_CONTEXT ( ( #116, #120, #273 ) ) REPRESENTATION_CONTEXT ( 'NONE', 'WORKASPACE' ) );
#16 = DIRECTION ( 'NONE',  ( -0.000000000000000000, -1.000000000000000000, -0.000000000000000000 ) ) ;
#17 = PRODUCT_DEFINITION_CONTEXT ( 'detailed design', #69, 'design' ) ;
#18 =( CONVERSION_BASED_UNIT ( 'INCH', #166 ) LENGTH_UNIT ( ) NAMED_UNIT ( #216 ) );
#19 =( CONVERSION_BASED_UNIT ( 'INCH', #202 ) LENGTH_UNIT ( ) NAMED_UNIT ( #31 ) );
#20 = DIRECTION ( 'NONE',  ( -0.000000000000000000, -1.000000000000000000, -0.000000000000000000 ) ) ;
#21 = STYLED_ITEM ( 'NONE', ( #39 ), #147 ) ;
#22 = PRODUCT_DEFINITION ( 'UNKNOWN', '', #173, #17 ) ;
#23 = DIRECTION ( 'NONE',  ( -1.000000000000000000, 0.000000000000000000, 0.000000000000000000 ) ) ;
#24 = DIRECTION ( 'NONE',  ( -0.000000000000000000, -1.000000000000000000, -0.000000000000000000 ) ) ;
#25 = LENGTH_MEASURE_WITH_UNIT ( LENGTH_MEASURE( 0.02539999999999999897 ), #236 );
#26 = STYLED_ITEM ( 'NONE', ( #34 ), #46 ) ;
#27 = EDGE_CURVE ( 'NONE', #12, #100, #35, .T. ) ;
#28 = CARTESIAN_POINT ( 'NONE',  ( 7.654042494670959086E-18, 0.000000000000000000, 0.06250000000000001388 ) ) ;
#29 = CARTESIAN_POINT ( 'NONE',  ( 3.061616997868383141E-16, 2.500000000000000000, 0.000000000000000000 ) ) ;
#30 = DIRECTION ( 'NONE',  ( 0.000000000000000000, 0.000000000000000000, -1.000000000000000000 ) ) ;
#31 = DIMENSIONAL_EXPONENTS ( 1.000000000000000000, 0.000000000000000000, 0.000000000000000000, 0.000000000000000000, 0.000000000000000000, 0.000000000000000000, 0.000000000000000000 ) ;
#32 = STYLED_ITEM ( 'NONE', ( #79 ), #45 ) ;
#33 = MECHANICAL_DESIGN_GEOMETRIC_PRESENTATION_REPRESENTATION (  '', ( #82 ), #15 ) ;
#34 = PRESENTATION_STYLE_ASSIGNMENT (( #240 ) ) ;
#35 = LINE ( 'NONE', #128, #125 ) ;
#36 =( CONVERSION_BASED_UNIT ( 'INCH', #11 ) LENGTH_UNIT ( ) NAMED_UNIT ( #8 ) );
#37 = ORIENTED_EDGE ( 'NONE', *, *, #83, .T. ) ;
#38 = ORIENTED_EDGE ( 'NONE', *, *, #42, .T. ) ;
#39 = PRESENTATION_STYLE_ASSIGNMENT (( #219 ) ) ;
#40 =( LENGTH_UNIT ( ) NAMED_UNIT ( * ) SI_UNIT ( $, .METRE. ) );
#41 = PLANE ( 'NONE',  #297 ) ;
#42 = EDGE_CURVE ( 'NONE', #93, #100, #301, .T. ) ;
#43 = CARTESIAN_POINT ( 'NONE',  ( 0.06250000000000001388, 2.500000000000000000, 0.000000000000000000 ) ) ;
#44 = CARTESIAN_POINT ( 'NONE',  ( 0.000000000000000000, 0.000000000000000000, 0.000000000000000000 ) ) ;
#45 = MANIFOLD_SOLID_BREP ( 'Revolve - Cutting Edge', #104 ) ;
#46 = ADVANCED_FACE ( 'NONE', ( #151 ), #189, .T. ) ;
#47 = LINE ( 'NONE', #232, #172 ) ;
#48 = MECHANICAL_DESIGN_GEOMETRIC_PRESENTATION_REPRESENTATION (  '', ( #204 ), #278 ) ;
#49 =( LENGTH_UNIT ( ) NAMED_UNIT ( * ) SI_UNIT ( $, .METRE. ) );
#50 = UNCERTAINTY_MEASURE_WITH_UNIT (LENGTH_MEASURE( 1.000000000000000082E-05 ), #36, 'distance_accuracy_value', 'NONE');
#51 = CYLINDRICAL_SURFACE ( 'NONE', #237, 0.06249999999999986122 ) ;
#52 = DIRECTION ( 'NONE',  ( 1.749495427353361372E-16, 1.000000000000000000, -0.000000000000000000 ) ) ;
#53 = CYLINDRICAL_SURFACE ( 'NONE', #224, 0.06250000000000001388 ) ;
#54 = CYLINDRICAL_SURFACE ( 'NONE', #227, 0.06249999999999986122 ) ;
#55 = UNCERTAINTY_MEASURE_WITH_UNIT (LENGTH_MEASURE( 1.000000000000000082E-05 ), #19, 'distance_accuracy_value', 'NONE');
#56 = COLOUR_RGB ( '',1.000000000000000000, 0.000000000000000000, 0.000000000000000000 ) ;
#57 = CARTESIAN_POINT ( 'NONE',  ( 9.564794532282254349E-34, 0.7499999999999998890, 0.000000000000000000 ) ) ;
#58 = APPLICATION_PROTOCOL_DEFINITION ( 'draft international standard', 'automotive_design', 1998, #165 ) ;
#59 = DIRECTION ( 'NONE',  ( -0.000000000000000000, -1.000000000000000000, -0.000000000000000000 ) ) ;
#60 = SURFACE_STYLE_FILL_AREA ( #243 ) ;
#61 = MECHANICAL_DESIGN_GEOMETRIC_PRESENTATION_REPRESENTATION (  '', ( #21 ), #159 ) ;
#62 = UNCERTAINTY_MEASURE_WITH_UNIT (LENGTH_MEASURE( 1.000000000000000082E-05 ), #137, 'distance_accuracy_value', 'NONE');
#63 = ORIENTED_EDGE ( 'NONE', *, *, #211, .T. ) ;
#64 =( CONVERSION_BASED_UNIT ( 'INCH', #101 ) LENGTH_UNIT ( ) NAMED_UNIT ( #194 ) );
#65 = PLANE ( 'NONE',  #133 ) ;
#66 = CIRCLE ( 'NONE', #248, 0.06250000000000001388 ) ;
#67 = AXIS2_PLACEMENT_3D ( 'NONE', #268, #59, #242 ) ;
#68 = DIRECTION ( 'NONE',  ( 0.000000000000000000, 0.000000000000000000, -1.000000000000000000 ) ) ;
#69 = APPLICATION_CONTEXT ( 'automotive_design' ) ;
#70 = PRODUCT_DEFINITION_SHAPE ( 'NONE', 'NONE',  #22 ) ;
#71 = MECHANICAL_DESIGN_GEOMETRIC_PRESENTATION_REPRESENTATION (  '', ( #32 ), #179 ) ;
#72 =( NAMED_UNIT ( * ) PLANE_ANGLE_UNIT ( ) SI_UNIT ( $, .RADIAN. ) );
#73 = ORIENTED_EDGE ( 'NONE', *, *, #294, .T. ) ;
#74 = PLANE ( 'NONE',  #180 ) ;
#75 = CARTESIAN_POINT ( 'NONE',  ( -0.06249999999999940326, 2.500000000000000000, 0.000000000000000000 ) ) ;
#76 = ORIENTED_EDGE ( 'NONE', *, *, #294, .F. ) ;
#77 = SURFACE_STYLE_FILL_AREA ( #190 ) ;
#78 = DIRECTION ( 'NONE',  ( 1.749495427353361372E-16, 1.000000000000000000, -0.000000000000000000 ) ) ;
#79 = PRESENTATION_STYLE_ASSIGNMENT (( #192 ) ) ;
#80 = ORIENTED_EDGE ( 'NONE', *, *, #138, .T. ) ;
#81 = CLOSED_SHELL ( 'NONE', ( #95, #284, #274, #221 ) ) ;
#82 = STYLED_ITEM ( 'NONE', ( #177 ), #245 ) ;
#83 = EDGE_CURVE ( 'NONE', #91, #105, #66, .T. ) ;
#84 = ORIENTED_EDGE ( 'NONE', *, *, #138, .F. ) ;
#85 = SURFACE_STYLE_USAGE ( .BOTH. , #109 ) ;
#86 =( NAMED_UNIT ( * ) PLANE_ANGLE_UNIT ( ) SI_UNIT ( $, .RADIAN. ) );
#87 = CARTESIAN_POINT ( 'NONE',  ( 0.000000000000000000, 0.000000000000000000, 0.000000000000000000 ) ) ;
#88 = FACE_OUTER_BOUND ( 'NONE', #277, .T. ) ;
#89 = CARTESIAN_POINT ( 'NONE',  ( 0.000000000000000000, 0.000000000000000000, -0.06250000000000001388 ) ) ;
#90 = EDGE_CURVE ( 'NONE', #292, #91, #47, .T. ) ;
#91 = VERTEX_POINT ( 'NONE', #89 ) ;
#92 = CARTESIAN_POINT ( 'NONE',  ( 0.000000000000000000, 0.7499999999999998890, -0.06250000000000001388 ) ) ;
#93 = VERTEX_POINT ( 'NONE', #114 ) ;
#94 = SURFACE_STYLE_FILL_AREA ( #117 ) ;
#95 = ADVANCED_FACE ( 'NONE', ( #88 ), #51, .T. ) ;
#96 = PRESENTATION_LAYER_ASSIGNMENT (  '', '', ( #136 ) ) ;
#97 = FILL_AREA_STYLE_COLOUR ( '', #233 ) ;
#98 = CARTESIAN_POINT ( 'NONE',  ( -0.06250000000000001388, 0.7499999999999998890, 0.000000000000000000 ) ) ;
#99 = DIMENSIONAL_EXPONENTS ( 1.000000000000000000, 0.000000000000000000, 0.000000000000000000, 0.000000000000000000, 0.000000000000000000, 0.000000000000000000, 0.000000000000000000 ) ;
#100 = VERTEX_POINT ( 'NONE', #75 ) ;
#101 = LENGTH_MEASURE_WITH_UNIT ( LENGTH_MEASURE( 0.02539999999999999897 ), #217 );
#102 = DIRECTION ( 'NONE',  ( 1.749495427353361372E-16, 1.000000000000000000, -0.000000000000000000 ) ) ;
#103 = ORIENTED_EDGE ( 'NONE', *, *, #230, .F. ) ;
#104 = CLOSED_SHELL ( 'NONE', ( #293, #46, #147, #203 ) ) ;
#105 = VERTEX_POINT ( 'NONE', #28 ) ;
#106 = CIRCLE ( 'NONE', #256, 0.06250000000000001388 ) ;
#107 = FACE_OUTER_BOUND ( 'NONE', #215, .T. ) ;
#108 =( NAMED_UNIT ( * ) SI_UNIT ( $, .STERADIAN. ) SOLID_ANGLE_UNIT ( ) );
#109 = SURFACE_SIDE_STYLE ('',( #135 ) ) ;
#110 = AXIS2_PLACEMENT_3D ( 'NONE', #121, #9, #30 ) ;
#111 =( NAMED_UNIT ( * ) PLANE_ANGLE_UNIT ( ) SI_UNIT ( $, .RADIAN. ) );
#112 = PRODUCT ( '81397', '81397', '', ( #187 ) ) ;
#113 = PRESENTATION_LAYER_ASSIGNMENT (  '', '', ( #32 ) ) ;
#114 = CARTESIAN_POINT ( 'NONE',  ( 0.06250000000000002776, 2.500000000000000000, 7.654042494670951382E-18 ) ) ;
#115 = VECTOR ( 'NONE', #161, 39.37007874015748143 ) ;
#116 =( CONVERSION_BASED_UNIT ( 'INCH', #25 ) LENGTH_UNIT ( ) NAMED_UNIT ( #251 ) );
#117 = FILL_AREA_STYLE ('',( #141 ) ) ;
#118 =( GEOMETRIC_REPRESENTATION_CONTEXT ( 3 ) GLOBAL_UNCERTAINTY_ASSIGNED_CONTEXT ( ( #303 ) ) GLOBAL_UNIT_ASSIGNED_CONTEXT ( ( #18, #134, #108 ) ) REPRESENTATION_CONTEXT ( 'NONE', 'WORKASPACE' ) );
#119 =( NAMED_UNIT ( * ) SI_UNIT ( $, .STERADIAN. ) SOLID_ANGLE_UNIT ( ) );
#120 =( NAMED_UNIT ( * ) PLANE_ANGLE_UNIT ( ) SI_UNIT ( $, .RADIAN. ) );
#121 = CARTESIAN_POINT ( 'NONE',  ( 0.000000000000000000, 0.000000000000000000, 0.000000000000000000 ) ) ;
#122 = DIRECTION ( 'NONE',  ( -1.000000000000000000, 0.000000000000000000, 0.000000000000000000 ) ) ;
#123 = CARTESIAN_POINT ( 'NONE',  ( 0.06250000000000016653, 2.500000000000000000, 7.654042494670940597E-18 ) ) ;
#124 = FACE_OUTER_BOUND ( 'NONE', #193, .T. ) ;
#125 = VECTOR ( 'NONE', #218, 39.37007874015748143 ) ;
#126 = AXIS2_PLACEMENT_3D ( 'NONE', #263, #229, #23 ) ;
#127 = SURFACE_STYLE_FILL_AREA ( #247 ) ;
#128 = CARTESIAN_POINT ( 'NONE',  ( -0.06249999999999955591, 2.500000000000000000, 0.000000000000000000 ) ) ;
#129 = ORIENTED_EDGE ( 'NONE', *, *, #27, .F. ) ;
#130 = PRESENTATION_STYLE_ASSIGNMENT (( #85 ) ) ;
#131 = ORIENTED_EDGE ( 'NONE', *, *, #299, .F. ) ;
#132 = CYLINDRICAL_SURFACE ( 'NONE', #142, 0.06250000000000001388 ) ;
#133 = AXIS2_PLACEMENT_3D ( 'NONE', #43, #210, #304 ) ;
#134 =( NAMED_UNIT ( * ) PLANE_ANGLE_UNIT ( ) SI_UNIT ( $, .RADIAN. ) );
#135 = SURFACE_STYLE_FILL_AREA ( #176 ) ;
#136 = STYLED_ITEM ( 'NONE', ( #130 ), #203 ) ;
#137 =( CONVERSION_BASED_UNIT ( 'INCH', #286 ) LENGTH_UNIT ( ) NAMED_UNIT ( #212 ) );
#138 = EDGE_CURVE ( 'NONE', #105, #91, #213, .T. ) ;
#139 = SURFACE_SIDE_STYLE ('',( #77 ) ) ;
#140 = DIRECTION ( 'NONE',  ( -1.000000000000000000, 0.000000000000000000, 0.000000000000000000 ) ) ;
#141 = FILL_AREA_STYLE_COLOUR ( '', #302 ) ;
#142 = AXIS2_PLACEMENT_3D ( 'NONE', #158, #20, #68 ) ;
#143 = PRESENTATION_LAYER_ASSIGNMENT (  '', '', ( #82 ) ) ;
#144 = DIRECTION ( 'NONE',  ( 1.749495427353361372E-16, 1.000000000000000000, -0.000000000000000000 ) ) ;
#145 = UNCERTAINTY_MEASURE_WITH_UNIT (LENGTH_MEASURE( 1.000000000000000082E-05 ), #116, 'distance_accuracy_value', 'NONE');
#146 = SURFACE_SIDE_STYLE ('',( #60 ) ) ;
#147 = ADVANCED_FACE ( 'NONE', ( #124 ), #132, .T. ) ;
#148 = ORIENTED_EDGE ( 'NONE', *, *, #211, .F. ) ;
#149 = ORIENTED_EDGE ( 'NONE', *, *, #27, .T. ) ;
#150 = SURFACE_SIDE_STYLE ('',( #94 ) ) ;
#151 = FACE_OUTER_BOUND ( 'NONE', #195, .T. ) ;
#152 = CARTESIAN_POINT ( 'NONE',  ( 0.000000000000000000, 0.7499999999999998890, 0.000000000000000000 ) ) ;
#153 = ORIENTED_EDGE ( 'NONE', *, *, #239, .T. ) ;
#154 = ORIENTED_EDGE ( 'NONE', *, *, #14, .F. ) ;
#155 = COLOUR_RGB ( '',0.7921568627450980005, 0.8196078431372548767, 0.9333333333333333481 ) ;
#156 = FACE_OUTER_BOUND ( 'NONE', #207, .T. ) ;
#157 = FILL_AREA_STYLE_COLOUR ( '', #56 ) ;
#158 = CARTESIAN_POINT ( 'NONE',  ( 0.000000000000000000, 0.000000000000000000, 0.000000000000000000 ) ) ;
#159 =( GEOMETRIC_REPRESENTATION_CONTEXT ( 3 ) GLOBAL_UNCERTAINTY_ASSIGNED_CONTEXT ( ( #280 ) ) GLOBAL_UNIT_ASSIGNED_CONTEXT ( ( #295, #72, #225 ) ) REPRESENTATION_CONTEXT ( 'NONE', 'WORKASPACE' ) );
#160 = CARTESIAN_POINT ( 'NONE',  ( 7.654042494670959086E-18, 0.000000000000000000, 0.06250000000000001388 ) ) ;
#161 = DIRECTION ( 'NONE',  ( 1.749495427353361372E-16, 1.000000000000000000, -0.000000000000000000 ) ) ;
#162 = FACE_OUTER_BOUND ( 'NONE', #2, .T. ) ;
#163 = ORIENTED_EDGE ( 'NONE', *, *, #83, .F. ) ;
#164 = PRODUCT_RELATED_PRODUCT_CATEGORY ( 'part', '', ( #112 ) ) ;
#165 = APPLICATION_CONTEXT ( 'automotive_design' ) ;
#166 = LENGTH_MEASURE_WITH_UNIT ( LENGTH_MEASURE( 0.02539999999999999897 ), #10 );
#167 = PRESENTATION_LAYER_ASSIGNMENT (  '', '', ( #26 ) ) ;
#168 =( LENGTH_UNIT ( ) NAMED_UNIT ( * ) SI_UNIT ( $, .METRE. ) );
#169 = EDGE_LOOP ( 'NONE', ( #154, #148 ) ) ;
#170 = SURFACE_SIDE_STYLE ('',( #253 ) ) ;
#171 = ORIENTED_EDGE ( 'NONE', *, *, #90, .T. ) ;
#172 = VECTOR ( 'NONE', #24, 39.37007874015748143 ) ;
#173 = PRODUCT_DEFINITION_FORMATION_WITH_SPECIFIED_SOURCE ( 'ANY', '', #112, .NOT_KNOWN. ) ;
#174 =( NAMED_UNIT ( * ) PLANE_ANGLE_UNIT ( ) SI_UNIT ( $, .RADIAN. ) );
#175 = CARTESIAN_POINT ( 'NONE',  ( 0.000000000000000000, 0.7499999999999998890, 0.000000000000000000 ) ) ;
#176 = FILL_AREA_STYLE ('',( #157 ) ) ;
#177 = PRESENTATION_STYLE_ASSIGNMENT (( #186 ) ) ;
#178 = CARTESIAN_POINT ( 'NONE',  ( 0.000000000000000000, 0.7499999999999998890, 0.000000000000000000 ) ) ;
#179 =( GEOMETRIC_REPRESENTATION_CONTEXT ( 3 ) GLOBAL_UNCERTAINTY_ASSIGNED_CONTEXT ( ( #50 ) ) GLOBAL_UNIT_ASSIGNED_CONTEXT ( ( #36, #86, #119 ) ) REPRESENTATION_CONTEXT ( 'NONE', 'WORKASPACE' ) );
#180 = AXIS2_PLACEMENT_3D ( 'NONE', #57, #144, #206 ) ;
#181 = PRESENTATION_LAYER_ASSIGNMENT (  '', '', ( #204 ) ) ;
#182 =( LENGTH_UNIT ( ) NAMED_UNIT ( * ) SI_UNIT ( $, .METRE. ) );
#183 = PRESENTATION_LAYER_ASSIGNMENT (  '', '', ( #21 ) ) ;
#184 = ORIENTED_EDGE ( 'NONE', *, *, #230, .T. ) ;
#185 = DIRECTION ( 'NONE',  ( 0.000000000000000000, -0.000000000000000000, 1.000000000000000000 ) ) ;
#186 = SURFACE_STYLE_USAGE ( .BOTH. , #139 ) ;
#187 = PRODUCT_CONTEXT ( 'NONE', #165, 'mechanical' ) ;
#188 = DIRECTION ( 'NONE',  ( -1.000000000000000000, 0.000000000000000000, 0.000000000000000000 ) ) ;
#189 = PLANE ( 'NONE',  #198 ) ;
#190 = FILL_AREA_STYLE ('',( #5 ) ) ;
#191 =( NAMED_UNIT ( * ) SI_UNIT ( $, .STERADIAN. ) SOLID_ANGLE_UNIT ( ) );
#192 = SURFACE_STYLE_USAGE ( .BOTH. , #170 ) ;
#193 = EDGE_LOOP ( 'NONE', ( #76, #184, #171, #84 ) ) ;
#194 = DIMENSIONAL_EXPONENTS ( 1.000000000000000000, 0.000000000000000000, 0.000000000000000000, 0.000000000000000000, 0.000000000000000000, 0.000000000000000000, 0.000000000000000000 ) ;
#195 = EDGE_LOOP ( 'NONE', ( #131, #103 ) ) ;
#196 = AXIS2_PLACEMENT_3D ( 'NONE', #175, #231, #283 ) ;
#197 = DIRECTION ( 'NONE',  ( 0.000000000000000000, 0.000000000000000000, -1.000000000000000000 ) ) ;
#198 = AXIS2_PLACEMENT_3D ( 'NONE', #178, #267, #185 ) ;
#199 = CIRCLE ( 'NONE', #126, 0.06249999999999970857 ) ;
#200 = LINE ( 'NONE', #160, #214 ) ;
#201 = ORIENTED_EDGE ( 'NONE', *, *, #299, .T. ) ;
#202 = LENGTH_MEASURE_WITH_UNIT ( LENGTH_MEASURE( 0.02539999999999999897 ), #40 );
#203 = ADVANCED_FACE ( 'NONE', ( #156 ), #41, .T. ) ;
#204 = STYLED_ITEM ( 'NONE', ( #282 ), #293 ) ;
#205 = SHAPE_DEFINITION_REPRESENTATION ( #70, #246 ) ;
#206 = DIRECTION ( 'NONE',  ( -1.000000000000000000, 1.749495427353361372E-16, 0.000000000000000000 ) ) ;
#207 = EDGE_LOOP ( 'NONE', ( #37, #80 ) ) ;
#208 = CARTESIAN_POINT ( 'NONE',  ( 0.000000000000000000, 0.000000000000000000, 0.000000000000000000 ) ) ;
#209 = FACE_OUTER_BOUND ( 'NONE', #296, .T. ) ;
#210 = DIRECTION ( 'NONE',  ( -1.749495427353361372E-16, -1.000000000000000000, 0.000000000000000000 ) ) ;
#211 = EDGE_CURVE ( 'NONE', #254, #12, #223, .T. ) ;
#212 = DIMENSIONAL_EXPONENTS ( 1.000000000000000000, 0.000000000000000000, 0.000000000000000000, 0.000000000000000000, 0.000000000000000000, 0.000000000000000000, 0.000000000000000000 ) ;
#213 = CIRCLE ( 'NONE', #110, 0.06250000000000001388 ) ;
#214 = VECTOR ( 'NONE', #16, 39.37007874015748143 ) ;
#215 = EDGE_LOOP ( 'NONE', ( #281, #38 ) ) ;
#216 = DIMENSIONAL_EXPONENTS ( 1.000000000000000000, 0.000000000000000000, 0.000000000000000000, 0.000000000000000000, 0.000000000000000000, 0.000000000000000000, 0.000000000000000000 ) ;
#217 =( LENGTH_UNIT ( ) NAMED_UNIT ( * ) SI_UNIT ( $, .METRE. ) );
#218 = DIRECTION ( 'NONE',  ( 1.749495427353361372E-16, 1.000000000000000000, -0.000000000000000000 ) ) ;
#219 = SURFACE_STYLE_USAGE ( .BOTH. , #258 ) ;
#220 = ORIENTED_EDGE ( 'NONE', *, *, #42, .F. ) ;
#221 = ADVANCED_FACE ( 'NONE', ( #107 ), #65, .F. ) ;
#222 = CARTESIAN_POINT ( 'NONE',  ( 0.000000000000000000, 0.000000000000000000, 0.000000000000000000 ) ) ;
#223 = CIRCLE ( 'NONE', #275, 0.06250000000000001388 ) ;
#224 = AXIS2_PLACEMENT_3D ( 'NONE', #44, #305, #197 ) ;
#225 =( NAMED_UNIT ( * ) SI_UNIT ( $, .STERADIAN. ) SOLID_ANGLE_UNIT ( ) );
#226 = COLOUR_RGB ( '',1.000000000000000000, 0.000000000000000000, 0.000000000000000000 ) ;
#227 = AXIS2_PLACEMENT_3D ( 'NONE', #238, #52, #140 ) ;
#228 = DIRECTION ( 'NONE',  ( 0.000000000000000000, 0.000000000000000000, -1.000000000000000000 ) ) ;
#229 = DIRECTION ( 'NONE',  ( 1.749495427353361372E-16, 1.000000000000000000, -0.000000000000000000 ) ) ;
#230 = EDGE_CURVE ( 'NONE', #291, #292, #307, .T. ) ;
#231 = DIRECTION ( 'NONE',  ( -0.000000000000000000, -1.000000000000000000, -0.000000000000000000 ) ) ;
#232 = CARTESIAN_POINT ( 'NONE',  ( 0.000000000000000000, 0.000000000000000000, -0.06250000000000001388 ) ) ;
#233 = COLOUR_RGB ( '',1.000000000000000000, 0.000000000000000000, 0.000000000000000000 ) ;
#234 = CARTESIAN_POINT ( 'NONE',  ( 3.061616997868383141E-16, 2.500000000000000000, 0.000000000000000000 ) ) ;
#235 = FACE_OUTER_BOUND ( 'NONE', #169, .T. ) ;
#236 =( LENGTH_UNIT ( ) NAMED_UNIT ( * ) SI_UNIT ( $, .METRE. ) );
#237 = AXIS2_PLACEMENT_3D ( 'NONE', #234, #4, #188 ) ;
#238 = CARTESIAN_POINT ( 'NONE',  ( 3.061616997868383141E-16, 2.500000000000000000, 0.000000000000000000 ) ) ;
#239 = EDGE_CURVE ( 'NONE', #254, #93, #271, .T. ) ;
#240 = SURFACE_STYLE_USAGE ( .BOTH. , #146 ) ;
#241 = ORIENTED_EDGE ( 'NONE', *, *, #90, .F. ) ;
#242 = DIRECTION ( 'NONE',  ( 0.000000000000000000, 0.000000000000000000, -1.000000000000000000 ) ) ;
#243 = FILL_AREA_STYLE ('',( #6 ) ) ;
#244 = FILL_AREA_STYLE ('',( #298 ) ) ;
#245 = MANIFOLD_SOLID_BREP ( 'Revolve - Tool Body (Straight Shanked)', #81 ) ;
#246 = ADVANCED_BREP_SHAPE_REPRESENTATION ( '81397', ( #45, #245, #249 ), #265 ) ;
#247 = FILL_AREA_STYLE ('',( #97 ) ) ;
#248 = AXIS2_PLACEMENT_3D ( 'NONE', #87, #287, #264 ) ;
#249 = AXIS2_PLACEMENT_3D ( 'NONE', #208, #272, #3 ) ;
#250 = DIRECTION ( 'NONE',  ( -1.000000000000000000, 0.000000000000000000, 0.000000000000000000 ) ) ;
#251 = DIMENSIONAL_EXPONENTS ( 1.000000000000000000, 0.000000000000000000, 0.000000000000000000, 0.000000000000000000, 0.000000000000000000, 0.000000000000000000, 0.000000000000000000 ) ;
#252 = SURFACE_STYLE_USAGE ( .BOTH. , #150 ) ;
#253 = SURFACE_STYLE_FILL_AREA ( #244 ) ;
#254 = VERTEX_POINT ( 'NONE', #289 ) ;
#255 = ORIENTED_EDGE ( 'NONE', *, *, #308, .F. ) ;
#256 = AXIS2_PLACEMENT_3D ( 'NONE', #152, #78, #250 ) ;
#257 = CIRCLE ( 'NONE', #196, 0.06250000000000001388 ) ;
#258 = SURFACE_SIDE_STYLE ('',( #127 ) ) ;
#259 = DIRECTION ( 'NONE',  ( 1.749495427353361372E-16, 1.000000000000000000, -0.000000000000000000 ) ) ;
#260 = DIRECTION ( 'NONE',  ( -1.000000000000000000, 0.000000000000000000, 0.000000000000000000 ) ) ;
#261 =( GEOMETRIC_REPRESENTATION_CONTEXT ( 3 ) GLOBAL_UNCERTAINTY_ASSIGNED_CONTEXT ( ( #276 ) ) GLOBAL_UNIT_ASSIGNED_CONTEXT ( ( #64, #306, #309 ) ) REPRESENTATION_CONTEXT ( 'NONE', 'WORKASPACE' ) );
#262 =( NAMED_UNIT ( * ) SI_UNIT ( $, .STERADIAN. ) SOLID_ANGLE_UNIT ( ) );
#263 = CARTESIAN_POINT ( 'NONE',  ( 3.061616997868383141E-16, 2.500000000000000000, 0.000000000000000000 ) ) ;
#264 = DIRECTION ( 'NONE',  ( 0.000000000000000000, 0.000000000000000000, -1.000000000000000000 ) ) ;
#265 =( GEOMETRIC_REPRESENTATION_CONTEXT ( 3 ) GLOBAL_UNCERTAINTY_ASSIGNED_CONTEXT ( ( #62 ) ) GLOBAL_UNIT_ASSIGNED_CONTEXT ( ( #137, #174, #191 ) ) REPRESENTATION_CONTEXT ( 'NONE', 'WORKASPACE' ) );
#266 = APPLICATION_PROTOCOL_DEFINITION ( 'draft international standard', 'automotive_design', 1998, #69 ) ;
#267 = DIRECTION ( 'NONE',  ( 0.000000000000000000, 1.000000000000000000, 0.000000000000000000 ) ) ;
#268 = CARTESIAN_POINT ( 'NONE',  ( 0.000000000000000000, 0.7499999999999998890, 0.000000000000000000 ) ) ;
#269 = ORIENTED_EDGE ( 'NONE', *, *, #239, .F. ) ;
#270 = CARTESIAN_POINT ( 'NONE',  ( 7.654042494670959086E-18, 0.7499999999999998890, 0.06250000000000001388 ) ) ;
#271 = LINE ( 'NONE', #123, #115 ) ;
#272 = DIRECTION ( 'NONE',  ( 0.000000000000000000, 0.000000000000000000, 1.000000000000000000 ) ) ;
#273 =( NAMED_UNIT ( * ) SI_UNIT ( $, .STERADIAN. ) SOLID_ANGLE_UNIT ( ) );
#274 = ADVANCED_FACE ( 'NONE', ( #162 ), #54, .T. ) ;
#275 = AXIS2_PLACEMENT_3D ( 'NONE', #13, #259, #260 ) ;
#276 = UNCERTAINTY_MEASURE_WITH_UNIT (LENGTH_MEASURE( 1.000000000000000082E-05 ), #64, 'distance_accuracy_value', 'NONE');
#277 = EDGE_LOOP ( 'NONE', ( #279, #153, #255, #129 ) ) ;
#278 =( GEOMETRIC_REPRESENTATION_CONTEXT ( 3 ) GLOBAL_UNCERTAINTY_ASSIGNED_CONTEXT ( ( #55 ) ) GLOBAL_UNIT_ASSIGNED_CONTEXT ( ( #19, #111, #262 ) ) REPRESENTATION_CONTEXT ( 'NONE', 'WORKASPACE' ) );
#279 = ORIENTED_EDGE ( 'NONE', *, *, #14, .T. ) ;
#280 = UNCERTAINTY_MEASURE_WITH_UNIT (LENGTH_MEASURE( 1.000000000000000082E-05 ), #295, 'distance_accuracy_value', 'NONE');
#281 = ORIENTED_EDGE ( 'NONE', *, *, #308, .T. ) ;
#282 = PRESENTATION_STYLE_ASSIGNMENT (( #252 ) ) ;
#283 = DIRECTION ( 'NONE',  ( 0.000000000000000000, 0.000000000000000000, -1.000000000000000000 ) ) ;
#284 = ADVANCED_FACE ( 'NONE', ( #235 ), #74, .F. ) ;
#285 = COLOUR_RGB ( '',0.7921568627450980005, 0.8196078431372548767, 0.9333333333333333481 ) ;
#286 = LENGTH_MEASURE_WITH_UNIT ( LENGTH_MEASURE( 0.02539999999999999897 ), #182 );
#287 = DIRECTION ( 'NONE',  ( -0.000000000000000000, -1.000000000000000000, -0.000000000000000000 ) ) ;
#288 = LENGTH_MEASURE_WITH_UNIT ( LENGTH_MEASURE( 0.02539999999999999897 ), #49 );
#289 = CARTESIAN_POINT ( 'NONE',  ( 0.06250000000000002776, 0.7499999999999998890, 7.654042494670951382E-18 ) ) ;
#290 = AXIS2_PLACEMENT_3D ( 'NONE', #29, #102, #122 ) ;
#291 = VERTEX_POINT ( 'NONE', #270 ) ;
#292 = VERTEX_POINT ( 'NONE', #92 ) ;
#293 = ADVANCED_FACE ( 'NONE', ( #209 ), #53, .T. ) ;
#294 = EDGE_CURVE ( 'NONE', #291, #105, #200, .T. ) ;
#295 =( CONVERSION_BASED_UNIT ( 'INCH', #288 ) LENGTH_UNIT ( ) NAMED_UNIT ( #99 ) );
#296 = EDGE_LOOP ( 'NONE', ( #201, #73, #163, #241 ) ) ;
#297 = AXIS2_PLACEMENT_3D ( 'NONE', #222, #300, #228 ) ;
#298 = FILL_AREA_STYLE_COLOUR ( '', #155 ) ;
#299 = EDGE_CURVE ( 'NONE', #292, #291, #257, .T. ) ;
#300 = DIRECTION ( 'NONE',  ( 0.000000000000000000, -1.000000000000000000, -0.000000000000000000 ) ) ;
#301 = CIRCLE ( 'NONE', #290, 0.06249999999999970857 ) ;
#302 = COLOUR_RGB ( '',1.000000000000000000, 0.000000000000000000, 0.000000000000000000 ) ;
#303 = UNCERTAINTY_MEASURE_WITH_UNIT (LENGTH_MEASURE( 1.000000000000000082E-05 ), #18, 'distance_accuracy_value', 'NONE');
#304 = DIRECTION ( 'NONE',  ( 1.000000000000000000, -1.749495427353361372E-16, 0.000000000000000000 ) ) ;
#305 = DIRECTION ( 'NONE',  ( -0.000000000000000000, -1.000000000000000000, -0.000000000000000000 ) ) ;
#306 =( NAMED_UNIT ( * ) PLANE_ANGLE_UNIT ( ) SI_UNIT ( $, .RADIAN. ) );
#307 = CIRCLE ( 'NONE', #67, 0.06250000000000001388 ) ;
#308 = EDGE_CURVE ( 'NONE', #100, #93, #199, .T. ) ;
#309 =( NAMED_UNIT ( * ) SI_UNIT ( $, .STERADIAN. ) SOLID_ANGLE_UNIT ( ) );
ENDSEC;
END-ISO-10303-21;
