ISO-10303-21;
HEADER;
FILE_DESCRIPTION (( 'STEP AP214' ),
    '1' );
FILE_NAME ('81564.STEP',
    '2023-06-23T02:04:20',
    ( '' ),
    ( '' ),
    'SwSTEP 2.0',
    'SolidWorks 2023',
    '' );
FILE_SCHEMA (( 'AUTOMOTIVE_DESIGN' ));
ENDSEC;

DATA;
#1 = VERTEX_POINT ( 'NONE', #212 ) ;
#2 =( NAMED_UNIT ( * ) SI_UNIT ( $, .STERADIAN. ) SOLID_ANGLE_UNIT ( ) );
#3 = ORIENTED_EDGE ( 'NONE', *, *, #69, .F. ) ;
#4 =( NAMED_UNIT ( * ) SI_UNIT ( $, .STERADIAN. ) SOLID_ANGLE_UNIT ( ) );
#5 = CARTESIAN_POINT ( 'NONE',  ( 0.000000000000000000, 0.000000000000000000, 0.000000000000000000 ) ) ;
#6 = EDGE_LOOP ( 'NONE', ( #265, #23, #21, #233 ) ) ;
#7 = DIRECTION ( 'NONE',  ( -5.442874662877125708E-17, 1.000000000000000000, -0.000000000000000000 ) ) ;
#8 = CIRCLE ( 'NONE', #208, 0.3750000000000000555 ) ;
#9 = LENGTH_MEASURE_WITH_UNIT ( LENGTH_MEASURE( 0.02539999999999999897 ), #273 );
#10 = LENGTH_MEASURE_WITH_UNIT ( LENGTH_MEASURE( 0.02539999999999999897 ), #264 );
#11 = ADVANCED_FACE ( 'NONE', ( #70 ), #294, .T. ) ;
#12 = DIRECTION ( 'NONE',  ( -0.000000000000000000, -1.000000000000000000, -0.000000000000000000 ) ) ;
#13 = VECTOR ( 'NONE', #166, 39.37007874015748143 ) ;
#14 = PLANE ( 'NONE',  #33 ) ;
#15 = APPLICATION_CONTEXT ( 'automotive_design' ) ;
#16 = ORIENTED_EDGE ( 'NONE', *, *, #128, .T. ) ;
#17 = UNCERTAINTY_MEASURE_WITH_UNIT (LENGTH_MEASURE( 1.000000000000000082E-05 ), #135, 'distance_accuracy_value', 'NONE');
#18 = ORIENTED_EDGE ( 'NONE', *, *, #214, .F. ) ;
#19 = SURFACE_STYLE_FILL_AREA ( #121 ) ;
#20 = MECHANICAL_DESIGN_GEOMETRIC_PRESENTATION_REPRESENTATION (  '', ( #161 ), #99 ) ;
#21 = ORIENTED_EDGE ( 'NONE', *, *, #79, .F. ) ;
#22 = DIRECTION ( 'NONE',  ( 5.442874662877125091E-17, -1.000000000000000000, 0.000000000000000000 ) ) ;
#23 = ORIENTED_EDGE ( 'NONE', *, *, #158, .T. ) ;
#24 = DIRECTION ( 'NONE',  ( 0.000000000000000000, 0.000000000000000000, -1.000000000000000000 ) ) ;
#25 = DIRECTION ( 'NONE',  ( -0.000000000000000000, -1.000000000000000000, -0.000000000000000000 ) ) ;
#26 = CARTESIAN_POINT ( 'NONE',  ( -1.224646799147353207E-16, 5.000000000000000000, 0.000000000000000000 ) ) ;
#27 = EDGE_CURVE ( 'NONE', #190, #236, #8, .T. ) ;
#28 = COLOUR_RGB ( '',0.7921568627450980005, 0.8196078431372548767, 0.9333333333333333481 ) ;
#29 = DIRECTION ( 'NONE',  ( 0.000000000000000000, 0.000000000000000000, -1.000000000000000000 ) ) ;
#30 =( NAMED_UNIT ( * ) SI_UNIT ( $, .STERADIAN. ) SOLID_ANGLE_UNIT ( ) );
#31 = DIRECTION ( 'NONE',  ( 0.000000000000000000, 0.000000000000000000, -1.000000000000000000 ) ) ;
#32 = FILL_AREA_STYLE_COLOUR ( '', #132 ) ;
#33 = AXIS2_PLACEMENT_3D ( 'NONE', #87, #279, #62 ) ;
#34 = STYLED_ITEM ( 'NONE', ( #307 ), #258 ) ;
#35 = DIRECTION ( 'NONE',  ( -5.442874662877125708E-17, 1.000000000000000000, -0.000000000000000000 ) ) ;
#36 = SHAPE_DEFINITION_REPRESENTATION ( #182, #138 ) ;
#37 = LENGTH_MEASURE_WITH_UNIT ( LENGTH_MEASURE( 0.02539999999999999897 ), #154 );
#38 = VECTOR ( 'NONE', #243, 39.37007874015748143 ) ;
#39 =( GEOMETRIC_REPRESENTATION_CONTEXT ( 3 ) GLOBAL_UNCERTAINTY_ASSIGNED_CONTEXT ( ( #191 ) ) GLOBAL_UNIT_ASSIGNED_CONTEXT ( ( #201, #300, #199 ) ) REPRESENTATION_CONTEXT ( 'NONE', 'WORKASPACE' ) );
#40 = DIMENSIONAL_EXPONENTS ( 1.000000000000000000, 0.000000000000000000, 0.000000000000000000, 0.000000000000000000, 0.000000000000000000, 0.000000000000000000, 0.000000000000000000 ) ;
#41 = SURFACE_STYLE_USAGE ( .BOTH. , #255 ) ;
#42 = ADVANCED_FACE ( 'NONE', ( #262 ), #244, .F. ) ;
#43 = FACE_OUTER_BOUND ( 'NONE', #171, .T. ) ;
#44 = AXIS2_PLACEMENT_3D ( 'NONE', #247, #133, #31 ) ;
#45 = CYLINDRICAL_SURFACE ( 'NONE', #204, 0.3750000000000000555 ) ;
#46 = DIRECTION ( 'NONE',  ( -0.000000000000000000, -1.000000000000000000, -0.000000000000000000 ) ) ;
#47 = CARTESIAN_POINT ( 'NONE',  ( 0.3750000000000000555, 5.000000000000000000, 0.000000000000000000 ) ) ;
#48 = PRODUCT ( '81564', '81564', '', ( #206 ) ) ;
#49 = LENGTH_MEASURE_WITH_UNIT ( LENGTH_MEASURE( 0.02539999999999999897 ), #117 );
#50 = DIRECTION ( 'NONE',  ( -5.442874662877125708E-17, 1.000000000000000000, -0.000000000000000000 ) ) ;
#51 = AXIS2_PLACEMENT_3D ( 'NONE', #275, #151, #24 ) ;
#52 = DIRECTION ( 'NONE',  ( -1.000000000000000000, 0.000000000000000000, 0.000000000000000000 ) ) ;
#53 = FILL_AREA_STYLE_COLOUR ( '', #306 ) ;
#54 = LINE ( 'NONE', #285, #38 ) ;
#55 = SURFACE_STYLE_FILL_AREA ( #152 ) ;
#56 = UNCERTAINTY_MEASURE_WITH_UNIT (LENGTH_MEASURE( 1.000000000000000082E-05 ), #229, 'distance_accuracy_value', 'NONE');
#57 = CLOSED_SHELL ( 'NONE', ( #150, #268, #277, #42 ) ) ;
#58 = SURFACE_SIDE_STYLE ('',( #249 ) ) ;
#59 = CARTESIAN_POINT ( 'NONE',  ( 0.000000000000000000, 0.000000000000000000, -0.3750000000000000555 ) ) ;
#60 = COLOUR_RGB ( '',1.000000000000000000, 0.000000000000000000, 0.000000000000000000 ) ;
#61 = AXIS2_PLACEMENT_3D ( 'NONE', #239, #66, #103 ) ;
#62 = DIRECTION ( 'NONE',  ( 0.000000000000000000, 0.000000000000000000, -1.000000000000000000 ) ) ;
#63 = UNCERTAINTY_MEASURE_WITH_UNIT (LENGTH_MEASURE( 1.000000000000000082E-05 ), #107, 'distance_accuracy_value', 'NONE');
#64 = AXIS2_PLACEMENT_3D ( 'NONE', #221, #7, #144 ) ;
#65 = FILL_AREA_STYLE ('',( #205 ) ) ;
#66 = DIRECTION ( 'NONE',  ( -5.442874662877125708E-17, 1.000000000000000000, -0.000000000000000000 ) ) ;
#67 = STYLED_ITEM ( 'NONE', ( #169 ), #254 ) ;
#68 = FILL_AREA_STYLE ('',( #234 ) ) ;
#69 = EDGE_CURVE ( 'NONE', #236, #190, #230, .T. ) ;
#70 = FACE_OUTER_BOUND ( 'NONE', #219, .T. ) ;
#71 = ORIENTED_EDGE ( 'NONE', *, *, #81, .T. ) ;
#72 = VECTOR ( 'NONE', #25, 39.37007874015748143 ) ;
#73 = ORIENTED_EDGE ( 'NONE', *, *, #128, .F. ) ;
#74 = APPLICATION_CONTEXT ( 'automotive_design' ) ;
#75 = VERTEX_POINT ( 'NONE', #238 ) ;
#76 = PRESENTATION_STYLE_ASSIGNMENT (( #203 ) ) ;
#77 = DIRECTION ( 'NONE',  ( -0.000000000000000000, -1.000000000000000000, -0.000000000000000000 ) ) ;
#78 = CARTESIAN_POINT ( 'NONE',  ( 0.000000000000000000, 0.000000000000000000, 0.000000000000000000 ) ) ;
#79 = EDGE_CURVE ( 'NONE', #185, #75, #131, .T. ) ;
#80 = LENGTH_MEASURE_WITH_UNIT ( LENGTH_MEASURE( 0.02539999999999999897 ), #106 );
#81 = EDGE_CURVE ( 'NONE', #101, #1, #139, .T. ) ;
#82 = DIMENSIONAL_EXPONENTS ( 1.000000000000000000, 0.000000000000000000, 0.000000000000000000, 0.000000000000000000, 0.000000000000000000, 0.000000000000000000, 0.000000000000000000 ) ;
#83 =( LENGTH_UNIT ( ) NAMED_UNIT ( * ) SI_UNIT ( $, .METRE. ) );
#84 = MECHANICAL_DESIGN_GEOMETRIC_PRESENTATION_REPRESENTATION (  '', ( #34 ), #39 ) ;
#85 = CARTESIAN_POINT ( 'NONE',  ( -1.224646799147353207E-16, 5.000000000000000000, 0.000000000000000000 ) ) ;
#86 = EDGE_CURVE ( 'NONE', #96, #296, #173, .T. ) ;
#87 = CARTESIAN_POINT ( 'NONE',  ( 0.000000000000000000, 0.000000000000000000, 0.000000000000000000 ) ) ;
#88 = PRESENTATION_STYLE_ASSIGNMENT (( #145 ) ) ;
#89 = SURFACE_STYLE_FILL_AREA ( #189 ) ;
#90 =( GEOMETRIC_REPRESENTATION_CONTEXT ( 3 ) GLOBAL_UNCERTAINTY_ASSIGNED_CONTEXT ( ( #17 ) ) GLOBAL_UNIT_ASSIGNED_CONTEXT ( ( #135, #253, #4 ) ) REPRESENTATION_CONTEXT ( 'NONE', 'WORKASPACE' ) );
#91 = LINE ( 'NONE', #116, #72 ) ;
#92 = ORIENTED_EDGE ( 'NONE', *, *, #261, .F. ) ;
#93 = ORIENTED_EDGE ( 'NONE', *, *, #172, .F. ) ;
#94 = DIRECTION ( 'NONE',  ( -0.000000000000000000, -1.000000000000000000, -0.000000000000000000 ) ) ;
#95 = LINE ( 'NONE', #211, #250 ) ;
#96 = VERTEX_POINT ( 'NONE', #134 ) ;
#97 = ORIENTED_EDGE ( 'NONE', *, *, #86, .T. ) ;
#98 = FACE_OUTER_BOUND ( 'NONE', #149, .T. ) ;
#99 =( GEOMETRIC_REPRESENTATION_CONTEXT ( 3 ) GLOBAL_UNCERTAINTY_ASSIGNED_CONTEXT ( ( #143 ) ) GLOBAL_UNIT_ASSIGNED_CONTEXT ( ( #267, #218, #123 ) ) REPRESENTATION_CONTEXT ( 'NONE', 'WORKASPACE' ) );
#100 = PRESENTATION_LAYER_ASSIGNMENT (  '', '', ( #34 ) ) ;
#101 = VERTEX_POINT ( 'NONE', #284 ) ;
#102 = PRODUCT_DEFINITION_CONTEXT ( 'detailed design', #15, 'design' ) ;
#103 = DIRECTION ( 'NONE',  ( -1.000000000000000000, 0.000000000000000000, 0.000000000000000000 ) ) ;
#104 = FACE_OUTER_BOUND ( 'NONE', #108, .T. ) ;
#105 = AXIS2_PLACEMENT_3D ( 'NONE', #197, #274, #155 ) ;
#106 =( LENGTH_UNIT ( ) NAMED_UNIT ( * ) SI_UNIT ( $, .METRE. ) );
#107 =( CONVERSION_BASED_UNIT ( 'INCH', #305 ) LENGTH_UNIT ( ) NAMED_UNIT ( #301 ) );
#108 = EDGE_LOOP ( 'NONE', ( #293, #270, #225, #92 ) ) ;
#109 = PRESENTATION_LAYER_ASSIGNMENT (  '', '', ( #67 ) ) ;
#110 = APPLICATION_PROTOCOL_DEFINITION ( 'draft international standard', 'automotive_design', 1998, #15 ) ;
#111 = CARTESIAN_POINT ( 'NONE',  ( 0.000000000000000000, 2.750000000000000000, 0.000000000000000000 ) ) ;
#112 = ORIENTED_EDGE ( 'NONE', *, *, #214, .T. ) ;
#113 = FACE_OUTER_BOUND ( 'NONE', #6, .T. ) ;
#114 = PRESENTATION_LAYER_ASSIGNMENT (  '', '', ( #213 ) ) ;
#115 = AXIS2_PLACEMENT_3D ( 'NONE', #177, #297, #223 ) ;
#116 = CARTESIAN_POINT ( 'NONE',  ( 0.000000000000000000, 0.000000000000000000, -0.3750000000000000555 ) ) ;
#117 =( LENGTH_UNIT ( ) NAMED_UNIT ( * ) SI_UNIT ( $, .METRE. ) );
#118 =( CONVERSION_BASED_UNIT ( 'INCH', #193 ) LENGTH_UNIT ( ) NAMED_UNIT ( #82 ) );
#119 = DIRECTION ( 'NONE',  ( 0.000000000000000000, 1.000000000000000000, 0.000000000000000000 ) ) ;
#120 = AXIS2_PLACEMENT_3D ( 'NONE', #26, #35, #200 ) ;
#121 = FILL_AREA_STYLE ('',( #53 ) ) ;
#122 = CARTESIAN_POINT ( 'NONE',  ( -0.3750000000000002220, 5.000000000000000000, 0.000000000000000000 ) ) ;
#123 =( NAMED_UNIT ( * ) SI_UNIT ( $, .STERADIAN. ) SOLID_ANGLE_UNIT ( ) );
#124 =( NAMED_UNIT ( * ) PLANE_ANGLE_UNIT ( ) SI_UNIT ( $, .RADIAN. ) );
#125 = DIRECTION ( 'NONE',  ( 1.000000000000000000, 5.442874662877125091E-17, 0.000000000000000000 ) ) ;
#126 = ORIENTED_EDGE ( 'NONE', *, *, #286, .T. ) ;
#127 = CARTESIAN_POINT ( 'NONE',  ( 0.000000000000000000, 2.750000000000000000, 0.000000000000000000 ) ) ;
#128 = EDGE_CURVE ( 'NONE', #1, #101, #156, .T. ) ;
#129 = ORIENTED_EDGE ( 'NONE', *, *, #172, .T. ) ;
#130 = FACE_OUTER_BOUND ( 'NONE', #181, .T. ) ;
#131 = CIRCLE ( 'NONE', #120, 0.3750000000000001665 ) ;
#132 = COLOUR_RGB ( '',1.000000000000000000, 0.000000000000000000, 0.000000000000000000 ) ;
#133 = DIRECTION ( 'NONE',  ( -0.000000000000000000, -1.000000000000000000, -0.000000000000000000 ) ) ;
#134 = CARTESIAN_POINT ( 'NONE',  ( 4.592425496802575451E-17, 0.000000000000000000, 0.3750000000000000555 ) ) ;
#135 =( CONVERSION_BASED_UNIT ( 'INCH', #37 ) LENGTH_UNIT ( ) NAMED_UNIT ( #303 ) );
#136 = CLOSED_SHELL ( 'NONE', ( #248, #11, #302, #140 ) ) ;
#137 = AXIS2_PLACEMENT_3D ( 'NONE', #162, #179, #276 ) ;
#138 = ADVANCED_BREP_SHAPE_REPRESENTATION ( '81564', ( #258, #254, #137 ), #90 ) ;
#139 = CIRCLE ( 'NONE', #44, 0.3750000000000000555 ) ;
#140 = ADVANCED_FACE ( 'NONE', ( #43 ), #14, .T. ) ;
#141 = ORIENTED_EDGE ( 'NONE', *, *, #27, .F. ) ;
#142 = SURFACE_STYLE_USAGE ( .BOTH. , #194 ) ;
#143 = UNCERTAINTY_MEASURE_WITH_UNIT (LENGTH_MEASURE( 1.000000000000000082E-05 ), #267, 'distance_accuracy_value', 'NONE');
#144 = DIRECTION ( 'NONE',  ( -1.000000000000000000, 0.000000000000000000, 0.000000000000000000 ) ) ;
#145 = SURFACE_STYLE_USAGE ( .BOTH. , #289 ) ;
#146 = AXIS2_PLACEMENT_3D ( 'NONE', #127, #119, #192 ) ;
#147 =( GEOMETRIC_REPRESENTATION_CONTEXT ( 3 ) GLOBAL_UNCERTAINTY_ASSIGNED_CONTEXT ( ( #184 ) ) GLOBAL_UNIT_ASSIGNED_CONTEXT ( ( #178, #159, #30 ) ) REPRESENTATION_CONTEXT ( 'NONE', 'WORKASPACE' ) );
#148 = LINE ( 'NONE', #122, #13 ) ;
#149 = EDGE_LOOP ( 'NONE', ( #3, #141 ) ) ;
#150 = ADVANCED_FACE ( 'NONE', ( #113 ), #207, .T. ) ;
#151 = DIRECTION ( 'NONE',  ( -0.000000000000000000, -1.000000000000000000, -0.000000000000000000 ) ) ;
#152 = FILL_AREA_STYLE ('',( #187 ) ) ;
#153 = ORIENTED_EDGE ( 'NONE', *, *, #261, .T. ) ;
#154 =( LENGTH_UNIT ( ) NAMED_UNIT ( * ) SI_UNIT ( $, .METRE. ) );
#155 = DIRECTION ( 'NONE',  ( -1.000000000000000000, 0.000000000000000000, 0.000000000000000000 ) ) ;
#156 = CIRCLE ( 'NONE', #245, 0.3750000000000000555 ) ;
#157 = CIRCLE ( 'NONE', #61, 0.3750000000000001665 ) ;
#158 = EDGE_CURVE ( 'NONE', #190, #75, #54, .T. ) ;
#159 =( NAMED_UNIT ( * ) PLANE_ANGLE_UNIT ( ) SI_UNIT ( $, .RADIAN. ) );
#160 = CYLINDRICAL_SURFACE ( 'NONE', #51, 0.3750000000000000555 ) ;
#161 = STYLED_ITEM ( 'NONE', ( #88 ), #11 ) ;
#162 = CARTESIAN_POINT ( 'NONE',  ( 0.000000000000000000, 0.000000000000000000, 0.000000000000000000 ) ) ;
#163 = PRESENTATION_LAYER_ASSIGNMENT (  '', '', ( #161 ) ) ;
#164 = SURFACE_STYLE_FILL_AREA ( #65 ) ;
#165 = FILL_AREA_STYLE_COLOUR ( '', #28 ) ;
#166 = DIRECTION ( 'NONE',  ( -5.442874662877125091E-17, 1.000000000000000000, -0.000000000000000000 ) ) ;
#167 = EDGE_LOOP ( 'NONE', ( #16, #112, #198, #93 ) ) ;
#168 =( GEOMETRIC_REPRESENTATION_CONTEXT ( 3 ) GLOBAL_UNCERTAINTY_ASSIGNED_CONTEXT ( ( #56 ) ) GLOBAL_UNIT_ASSIGNED_CONTEXT ( ( #229, #124, #2 ) ) REPRESENTATION_CONTEXT ( 'NONE', 'WORKASPACE' ) );
#169 = PRESENTATION_STYLE_ASSIGNMENT (( #186 ) ) ;
#170 = SURFACE_STYLE_FILL_AREA ( #68 ) ;
#171 = EDGE_LOOP ( 'NONE', ( #126, #97 ) ) ;
#172 = EDGE_CURVE ( 'NONE', #1, #296, #91, .T. ) ;
#173 = CIRCLE ( 'NONE', #299, 0.3750000000000000555 ) ;
#174 = DIRECTION ( 'NONE',  ( -5.442874662877125708E-17, 1.000000000000000000, -0.000000000000000000 ) ) ;
#175 = PLANE ( 'NONE',  #115 ) ;
#176 = FILL_AREA_STYLE ('',( #32 ) ) ;
#177 = CARTESIAN_POINT ( 'NONE',  ( 5.554665861710585348E-34, 2.750000000000000000, 0.000000000000000000 ) ) ;
#178 =( CONVERSION_BASED_UNIT ( 'INCH', #80 ) LENGTH_UNIT ( ) NAMED_UNIT ( #227 ) );
#179 = DIRECTION ( 'NONE',  ( 0.000000000000000000, 0.000000000000000000, 1.000000000000000000 ) ) ;
#180 =( GEOMETRIC_REPRESENTATION_CONTEXT ( 3 ) GLOBAL_UNCERTAINTY_ASSIGNED_CONTEXT ( ( #235 ) ) GLOBAL_UNIT_ASSIGNED_CONTEXT ( ( #118, #266, #263 ) ) REPRESENTATION_CONTEXT ( 'NONE', 'WORKASPACE' ) );
#181 = EDGE_LOOP ( 'NONE', ( #18, #71, #129, #280 ) ) ;
#182 = PRODUCT_DEFINITION_SHAPE ( 'NONE', 'NONE',  #226 ) ;
#183 = PRESENTATION_STYLE_ASSIGNMENT (( #41 ) ) ;
#184 = UNCERTAINTY_MEASURE_WITH_UNIT (LENGTH_MEASURE( 1.000000000000000082E-05 ), #178, 'distance_accuracy_value', 'NONE');
#185 = VERTEX_POINT ( 'NONE', #217 ) ;
#186 = SURFACE_STYLE_USAGE ( .BOTH. , #308 ) ;
#187 = FILL_AREA_STYLE_COLOUR ( '', #188 ) ;
#188 = COLOUR_RGB ( '',1.000000000000000000, 0.000000000000000000, 0.000000000000000000 ) ;
#189 = FILL_AREA_STYLE ('',( #165 ) ) ;
#190 = VERTEX_POINT ( 'NONE', #220 ) ;
#191 = UNCERTAINTY_MEASURE_WITH_UNIT (LENGTH_MEASURE( 1.000000000000000082E-05 ), #201, 'distance_accuracy_value', 'NONE');
#192 = DIRECTION ( 'NONE',  ( 0.000000000000000000, -0.000000000000000000, 1.000000000000000000 ) ) ;
#193 = LENGTH_MEASURE_WITH_UNIT ( LENGTH_MEASURE( 0.02539999999999999897 ), #257 );
#194 = SURFACE_SIDE_STYLE ('',( #170 ) ) ;
#195 = MECHANICAL_DESIGN_GEOMETRIC_PRESENTATION_REPRESENTATION (  '', ( #260 ), #278 ) ;
#196 = ORIENTED_EDGE ( 'NONE', *, *, #81, .F. ) ;
#197 = CARTESIAN_POINT ( 'NONE',  ( -1.224646799147353207E-16, 5.000000000000000000, 0.000000000000000000 ) ) ;
#198 = ORIENTED_EDGE ( 'NONE', *, *, #286, .F. ) ;
#199 =( NAMED_UNIT ( * ) SI_UNIT ( $, .STERADIAN. ) SOLID_ANGLE_UNIT ( ) );
#200 = DIRECTION ( 'NONE',  ( -1.000000000000000000, 0.000000000000000000, 0.000000000000000000 ) ) ;
#201 =( CONVERSION_BASED_UNIT ( 'INCH', #9 ) LENGTH_UNIT ( ) NAMED_UNIT ( #252 ) );
#202 = PRESENTATION_LAYER_ASSIGNMENT (  '', '', ( #260 ) ) ;
#203 = SURFACE_STYLE_USAGE ( .BOTH. , #58 ) ;
#204 = AXIS2_PLACEMENT_3D ( 'NONE', #5, #94, #291 ) ;
#205 = FILL_AREA_STYLE_COLOUR ( '', #60 ) ;
#206 = PRODUCT_CONTEXT ( 'NONE', #74, 'mechanical' ) ;
#207 = CYLINDRICAL_SURFACE ( 'NONE', #222, 0.3750000000000001110 ) ;
#208 = AXIS2_PLACEMENT_3D ( 'NONE', #240, #174, #52 ) ;
#209 = SURFACE_SIDE_STYLE ('',( #19 ) ) ;
#210 = CARTESIAN_POINT ( 'NONE',  ( 0.000000000000000000, 0.000000000000000000, 0.000000000000000000 ) ) ;
#211 = CARTESIAN_POINT ( 'NONE',  ( 4.592425496802575451E-17, 0.000000000000000000, 0.3750000000000000555 ) ) ;
#212 = CARTESIAN_POINT ( 'NONE',  ( 0.000000000000000000, 2.750000000000000000, -0.3750000000000000555 ) ) ;
#213 = STYLED_ITEM ( 'NONE', ( #237 ), #248 ) ;
#214 = EDGE_CURVE ( 'NONE', #101, #96, #95, .T. ) ;
#215 = SURFACE_STYLE_USAGE ( .BOTH. , #209 ) ;
#216 = EDGE_LOOP ( 'NONE', ( #269, #153 ) ) ;
#217 = CARTESIAN_POINT ( 'NONE',  ( -0.3750000000000002776, 5.000000000000000000, 0.000000000000000000 ) ) ;
#218 =( NAMED_UNIT ( * ) PLANE_ANGLE_UNIT ( ) SI_UNIT ( $, .RADIAN. ) );
#219 = EDGE_LOOP ( 'NONE', ( #73, #196 ) ) ;
#220 = CARTESIAN_POINT ( 'NONE',  ( 0.3750000000000000555, 2.750000000000000000, 4.592425496802576684E-17 ) ) ;
#221 = CARTESIAN_POINT ( 'NONE',  ( 3.032960542342103792E-32, 2.750000000000000000, 0.000000000000000000 ) ) ;
#222 = AXIS2_PLACEMENT_3D ( 'NONE', #85, #50, #292 ) ;
#223 = DIRECTION ( 'NONE',  ( -1.000000000000000000, -5.442874662877125091E-17, 0.000000000000000000 ) ) ;
#224 = MECHANICAL_DESIGN_GEOMETRIC_PRESENTATION_REPRESENTATION (  '', ( #67 ), #180 ) ;
#225 = ORIENTED_EDGE ( 'NONE', *, *, #228, .T. ) ;
#226 = PRODUCT_DEFINITION ( 'UNKNOWN', '', #246, #102 ) ;
#227 = DIMENSIONAL_EXPONENTS ( 1.000000000000000000, 0.000000000000000000, 0.000000000000000000, 0.000000000000000000, 0.000000000000000000, 0.000000000000000000, 0.000000000000000000 ) ;
#228 = EDGE_CURVE ( 'NONE', #236, #185, #148, .T. ) ;
#229 =( CONVERSION_BASED_UNIT ( 'INCH', #10 ) LENGTH_UNIT ( ) NAMED_UNIT ( #40 ) );
#230 = CIRCLE ( 'NONE', #64, 0.3750000000000000555 ) ;
#231 = PRESENTATION_LAYER_ASSIGNMENT (  '', '', ( #272 ) ) ;
#232 = DIRECTION ( 'NONE',  ( 0.000000000000000000, 0.000000000000000000, -1.000000000000000000 ) ) ;
#233 = ORIENTED_EDGE ( 'NONE', *, *, #228, .F. ) ;
#234 = FILL_AREA_STYLE_COLOUR ( '', #282 ) ;
#235 = UNCERTAINTY_MEASURE_WITH_UNIT (LENGTH_MEASURE( 1.000000000000000082E-05 ), #118, 'distance_accuracy_value', 'NONE');
#236 = VERTEX_POINT ( 'NONE', #309 ) ;
#237 = PRESENTATION_STYLE_ASSIGNMENT (( #142 ) ) ;
#238 = CARTESIAN_POINT ( 'NONE',  ( 0.3750000000000000555, 5.000000000000000000, 4.592425496802576684E-17 ) ) ;
#239 = CARTESIAN_POINT ( 'NONE',  ( -1.224646799147353207E-16, 5.000000000000000000, 0.000000000000000000 ) ) ;
#240 = CARTESIAN_POINT ( 'NONE',  ( 3.032960542342103792E-32, 2.750000000000000000, 0.000000000000000000 ) ) ;
#241 = MECHANICAL_DESIGN_GEOMETRIC_PRESENTATION_REPRESENTATION (  '', ( #272 ), #147 ) ;
#242 = PRODUCT_RELATED_PRODUCT_CATEGORY ( 'part', '', ( #48 ) ) ;
#243 = DIRECTION ( 'NONE',  ( -5.442874662877125091E-17, 1.000000000000000000, -0.000000000000000000 ) ) ;
#244 = PLANE ( 'NONE',  #287 ) ;
#245 = AXIS2_PLACEMENT_3D ( 'NONE', #111, #12, #283 ) ;
#246 = PRODUCT_DEFINITION_FORMATION_WITH_SPECIFIED_SOURCE ( 'ANY', '', #48, .NOT_KNOWN. ) ;
#247 = CARTESIAN_POINT ( 'NONE',  ( 0.000000000000000000, 2.750000000000000000, 0.000000000000000000 ) ) ;
#248 = ADVANCED_FACE ( 'NONE', ( #259 ), #45, .T. ) ;
#249 = SURFACE_STYLE_FILL_AREA ( #176 ) ;
#250 = VECTOR ( 'NONE', #46, 39.37007874015748143 ) ;
#251 = DIMENSIONAL_EXPONENTS ( 1.000000000000000000, 0.000000000000000000, 0.000000000000000000, 0.000000000000000000, 0.000000000000000000, 0.000000000000000000, 0.000000000000000000 ) ;
#252 = DIMENSIONAL_EXPONENTS ( 1.000000000000000000, 0.000000000000000000, 0.000000000000000000, 0.000000000000000000, 0.000000000000000000, 0.000000000000000000, 0.000000000000000000 ) ;
#253 =( NAMED_UNIT ( * ) PLANE_ANGLE_UNIT ( ) SI_UNIT ( $, .RADIAN. ) );
#254 = MANIFOLD_SOLID_BREP ( 'Revolve - Tool Body (Straight Shanked)', #57 ) ;
#255 = SURFACE_SIDE_STYLE ('',( #164 ) ) ;
#256 = DIRECTION ( 'NONE',  ( -0.000000000000000000, -1.000000000000000000, -0.000000000000000000 ) ) ;
#257 =( LENGTH_UNIT ( ) NAMED_UNIT ( * ) SI_UNIT ( $, .METRE. ) );
#258 = MANIFOLD_SOLID_BREP ( 'Revolve - Cutting Edge', #136 ) ;
#259 = FACE_OUTER_BOUND ( 'NONE', #167, .T. ) ;
#260 = STYLED_ITEM ( 'NONE', ( #183 ), #140 ) ;
#261 = EDGE_CURVE ( 'NONE', #75, #185, #157, .T. ) ;
#262 = FACE_OUTER_BOUND ( 'NONE', #216, .T. ) ;
#263 =( NAMED_UNIT ( * ) SI_UNIT ( $, .STERADIAN. ) SOLID_ANGLE_UNIT ( ) );
#264 =( LENGTH_UNIT ( ) NAMED_UNIT ( * ) SI_UNIT ( $, .METRE. ) );
#265 = ORIENTED_EDGE ( 'NONE', *, *, #69, .T. ) ;
#266 =( NAMED_UNIT ( * ) PLANE_ANGLE_UNIT ( ) SI_UNIT ( $, .RADIAN. ) );
#267 =( CONVERSION_BASED_UNIT ( 'INCH', #49 ) LENGTH_UNIT ( ) NAMED_UNIT ( #251 ) );
#268 = ADVANCED_FACE ( 'NONE', ( #98 ), #175, .F. ) ;
#269 = ORIENTED_EDGE ( 'NONE', *, *, #79, .T. ) ;
#270 = ORIENTED_EDGE ( 'NONE', *, *, #27, .T. ) ;
#271 = CYLINDRICAL_SURFACE ( 'NONE', #105, 0.3750000000000001110 ) ;
#272 = STYLED_ITEM ( 'NONE', ( #76 ), #302 ) ;
#273 =( LENGTH_UNIT ( ) NAMED_UNIT ( * ) SI_UNIT ( $, .METRE. ) );
#274 = DIRECTION ( 'NONE',  ( -5.442874662877125708E-17, 1.000000000000000000, -0.000000000000000000 ) ) ;
#275 = CARTESIAN_POINT ( 'NONE',  ( 0.000000000000000000, 0.000000000000000000, 0.000000000000000000 ) ) ;
#276 = DIRECTION ( 'NONE',  ( 1.000000000000000000, 0.000000000000000000, 0.000000000000000000 ) ) ;
#277 = ADVANCED_FACE ( 'NONE', ( #104 ), #271, .T. ) ;
#278 =( GEOMETRIC_REPRESENTATION_CONTEXT ( 3 ) GLOBAL_UNCERTAINTY_ASSIGNED_CONTEXT ( ( #63 ) ) GLOBAL_UNIT_ASSIGNED_CONTEXT ( ( #107, #281, #304 ) ) REPRESENTATION_CONTEXT ( 'NONE', 'WORKASPACE' ) );
#279 = DIRECTION ( 'NONE',  ( 0.000000000000000000, -1.000000000000000000, -0.000000000000000000 ) ) ;
#280 = ORIENTED_EDGE ( 'NONE', *, *, #86, .F. ) ;
#281 =( NAMED_UNIT ( * ) PLANE_ANGLE_UNIT ( ) SI_UNIT ( $, .RADIAN. ) );
#282 = COLOUR_RGB ( '',1.000000000000000000, 0.000000000000000000, 0.000000000000000000 ) ;
#283 = DIRECTION ( 'NONE',  ( 0.000000000000000000, 0.000000000000000000, -1.000000000000000000 ) ) ;
#284 = CARTESIAN_POINT ( 'NONE',  ( 4.592425496802575451E-17, 2.750000000000000000, 0.3750000000000000555 ) ) ;
#285 = CARTESIAN_POINT ( 'NONE',  ( 0.3749999999999999445, 5.000000000000000000, 4.592425496802576068E-17 ) ) ;
#286 = EDGE_CURVE ( 'NONE', #296, #96, #288, .T. ) ;
#287 = AXIS2_PLACEMENT_3D ( 'NONE', #47, #22, #125 ) ;
#288 = CIRCLE ( 'NONE', #290, 0.3750000000000000555 ) ;
#289 = SURFACE_SIDE_STYLE ('',( #55 ) ) ;
#290 = AXIS2_PLACEMENT_3D ( 'NONE', #78, #77, #29 ) ;
#291 = DIRECTION ( 'NONE',  ( 0.000000000000000000, 0.000000000000000000, -1.000000000000000000 ) ) ;
#292 = DIRECTION ( 'NONE',  ( -1.000000000000000000, 0.000000000000000000, 0.000000000000000000 ) ) ;
#293 = ORIENTED_EDGE ( 'NONE', *, *, #158, .F. ) ;
#294 = PLANE ( 'NONE',  #146 ) ;
#295 = MECHANICAL_DESIGN_GEOMETRIC_PRESENTATION_REPRESENTATION (  '', ( #213 ), #168 ) ;
#296 = VERTEX_POINT ( 'NONE', #59 ) ;
#297 = DIRECTION ( 'NONE',  ( -5.442874662877125091E-17, 1.000000000000000000, 0.000000000000000000 ) ) ;
#298 = APPLICATION_PROTOCOL_DEFINITION ( 'draft international standard', 'automotive_design', 1998, #74 ) ;
#299 = AXIS2_PLACEMENT_3D ( 'NONE', #210, #256, #232 ) ;
#300 =( NAMED_UNIT ( * ) PLANE_ANGLE_UNIT ( ) SI_UNIT ( $, .RADIAN. ) );
#301 = DIMENSIONAL_EXPONENTS ( 1.000000000000000000, 0.000000000000000000, 0.000000000000000000, 0.000000000000000000, 0.000000000000000000, 0.000000000000000000, 0.000000000000000000 ) ;
#302 = ADVANCED_FACE ( 'NONE', ( #130 ), #160, .T. ) ;
#303 = DIMENSIONAL_EXPONENTS ( 1.000000000000000000, 0.000000000000000000, 0.000000000000000000, 0.000000000000000000, 0.000000000000000000, 0.000000000000000000, 0.000000000000000000 ) ;
#304 =( NAMED_UNIT ( * ) SI_UNIT ( $, .STERADIAN. ) SOLID_ANGLE_UNIT ( ) );
#305 = LENGTH_MEASURE_WITH_UNIT ( LENGTH_MEASURE( 0.02539999999999999897 ), #83 );
#306 = COLOUR_RGB ( '',0.7921568627450980005, 0.8196078431372548767, 0.9333333333333333481 ) ;
#307 = PRESENTATION_STYLE_ASSIGNMENT (( #215 ) ) ;
#308 = SURFACE_SIDE_STYLE ('',( #89 ) ) ;
#309 = CARTESIAN_POINT ( 'NONE',  ( -0.3750000000000000555, 2.750000000000000000, 0.000000000000000000 ) ) ;
ENDSEC;
END-ISO-10303-21;
