ISO-10303-21;
HEADER;
FILE_DESCRIPTION (( 'STEP AP214' ),
    '1' );
FILE_NAME ('Micro_BMSM-008-2X.STEP',
    '2021-09-03T15:35:59',
    ( '' ),
    ( '' ),
    'SwSTEP 2.0',
    'SolidWorks 2020',
    '' );
FILE_SCHEMA (( 'AUTOMOTIVE_DESIGN' ));
ENDSEC;

DATA;
#1 = DIRECTION ( 'NONE',  ( 0.0000000000000000000, 0.0000000000000000000, -1.000000000000000000 ) ) ;
#2 = VERTEX_POINT ( 'NONE', #17 ) ;
#3 = DIRECTION ( 'NONE',  ( 0.0000000000000000000, 0.0000000000000000000, -1.000000000000000000 ) ) ;
#4 = AXIS2_PLACEMENT_3D ( 'NONE', #151, #3, #76 ) ;
#5 = VERTEX_POINT ( 'NONE', #42 ) ;
#6 = PRESENTATION_LAYER_ASSIGNMENT (  '', '', ( #239 ) ) ;
#7 = EDGE_CURVE ( 'NONE', #75, #58, #43, .T. ) ;
#8 = ORIENTED_EDGE ( 'NONE', *, *, #119, .F. ) ;
#9 = ORIENTED_EDGE ( 'NONE', *, *, #109, .T. ) ;
#10 = UNCERTAINTY_MEASURE_WITH_UNIT (LENGTH_MEASURE( 1.000000000000000082E-05 ), #185, 'distance_accuracy_value', 'NONE');
#11 = AXIS2_PLACEMENT_3D ( 'NONE', #221, #141, #95 ) ;
#12 = EDGE_CURVE ( 'NONE', #84, #5, #280, .T. ) ;
#13 = SURFACE_STYLE_FILL_AREA ( #197 ) ;
#14 = CARTESIAN_POINT ( 'NONE',  ( -0.04405499999999973326, 0.0000000000000000000, 1.496062999999999921 ) ) ;
#15 = CARTESIAN_POINT ( 'NONE',  ( 0.05905500000000000332, 7.232151672364695422E-18, 1.496062999999999921 ) ) ;
#16 = VECTOR ( 'NONE', #18, 39.37007874015748143 ) ;
#17 = CARTESIAN_POINT ( 'NONE',  ( 0.05905500000000000332, 7.232151672364695422E-18, 1.481062999999999574 ) ) ;
#18 = DIRECTION ( 'NONE',  ( -1.224646799147353207E-16, -0.0000000000000000000, -1.000000000000000000 ) ) ;
#19 = DIMENSIONAL_EXPONENTS ( 1.000000000000000000, 0.0000000000000000000, 0.0000000000000000000, 0.0000000000000000000, 0.0000000000000000000, 0.0000000000000000000, 0.0000000000000000000 ) ;
#20 = FACE_OUTER_BOUND ( 'NONE', #125, .T. ) ;
#21 = PRODUCT ( 'Micro_BMSM-008-2X', 'Micro_BMSM-008-2X', '', ( #113 ) ) ;
#22 = AXIS2_PLACEMENT_3D ( 'NONE', #142, #27, #123 ) ;
#23 = CYLINDRICAL_SURFACE ( 'NONE', #34, 0.05905500000000000332 ) ;
#24 = DIRECTION ( 'NONE',  ( 0.0000000000000000000, 1.000000000000000000, 0.0000000000000000000 ) ) ;
#25 = PRODUCT_DEFINITION_SHAPE ( 'NONE', 'NONE',  #293 ) ;
#26 = DIRECTION ( 'NONE',  ( -1.224646799147353207E-16, -0.0000000000000000000, -1.000000000000000000 ) ) ;
#27 = DIRECTION ( 'NONE',  ( 0.0000000000000000000, 1.000000000000000000, 0.0000000000000000000 ) ) ;
#28 = CONICAL_SURFACE ( 'NONE', #200, 0.04405499999999973326, 0.7853981633974491672 ) ;
#29 = SURFACE_STYLE_FILL_AREA ( #182 ) ;
#30 = FILL_AREA_STYLE_COLOUR ( '', #320 ) ;
#31 = EDGE_CURVE ( 'NONE', #2, #87, #69, .T. ) ;
#32 = ORIENTED_EDGE ( 'NONE', *, *, #161, .T. ) ;
#33 = DIRECTION ( 'NONE',  ( -0.1736481776669311916, 2.126576849575783316E-17, 0.9848077530122080203 ) ) ;
#34 = AXIS2_PLACEMENT_3D ( 'NONE', #49, #68, #170 ) ;
#35 = EDGE_CURVE ( 'NONE', #58, #75, #171, .T. ) ;
#36 = ORIENTED_EDGE ( 'NONE', *, *, #129, .F. ) ;
#37 = FACE_OUTER_BOUND ( 'NONE', #181, .T. ) ;
#38 = ORIENTED_EDGE ( 'NONE', *, *, #47, .F. ) ;
#39 = ADVANCED_BREP_SHAPE_REPRESENTATION ( 'Micro_BMSM-008-2X', ( #121, #228 ), #101 ) ;
#40 = VERTEX_POINT ( 'NONE', #14 ) ;
#41 = LENGTH_MEASURE_WITH_UNIT ( LENGTH_MEASURE( 0.02539999999999999897 ), #313 );
#42 = CARTESIAN_POINT ( 'NONE',  ( 0.01573225199999999865, 1.926645205517954404E-18, 0.01573225199999999518 ) ) ;
#43 = CIRCLE ( 'NONE', #143, 0.05905500000000000332 ) ;
#44 = AXIS2_PLACEMENT_3D ( 'NONE', #289, #139, #108 ) ;
#45 = CARTESIAN_POINT ( 'NONE',  ( -0.05905500000000000332, 0.0000000000000000000, 1.481062999999999574 ) ) ;
#46 = DIRECTION ( 'NONE',  ( 0.7071067811865482389, 8.659560562354941486E-17, -0.7071067811865469066 ) ) ;
#47 = EDGE_CURVE ( 'NONE', #256, #2, #264, .T. ) ;
#48 = CARTESIAN_POINT ( 'NONE',  ( -0.01573225199999999865, 0.0000000000000000000, 1.926645205517954404E-18 ) ) ;
#49 = CARTESIAN_POINT ( 'NONE',  ( 0.0000000000000000000, 0.0000000000000000000, 1.496062999999999921 ) ) ;
#50 = CARTESIAN_POINT ( 'NONE',  ( -0.04405499999999973326, 0.0000000000000000000, 1.496062999999999921 ) ) ;
#51 = CARTESIAN_POINT ( 'NONE',  ( 0.0000000000000000000, 0.0000000000000000000, 0.0000000000000000000 ) ) ;
#52 = ORIENTED_EDGE ( 'NONE', *, *, #147, .F. ) ;
#53 =( NAMED_UNIT ( * ) SI_UNIT ( $, .STERADIAN. ) SOLID_ANGLE_UNIT ( ) );
#54 = ORIENTED_EDGE ( 'NONE', *, *, #147, .T. ) ;
#55 = SURFACE_STYLE_USAGE ( .BOTH. , #126 ) ;
#56 = ORIENTED_EDGE ( 'NONE', *, *, #109, .F. ) ;
#57 = ORIENTED_EDGE ( 'NONE', *, *, #174, .T. ) ;
#58 = VERTEX_POINT ( 'NONE', #60 ) ;
#59 = ADVANCED_FACE ( 'NONE', ( #164 ), #66, .T. ) ;
#60 = CARTESIAN_POINT ( 'NONE',  ( 0.05905500000000004496, 7.232151672364700045E-18, 0.2929395131082781489 ) ) ;
#61 = AXIS2_PLACEMENT_3D ( 'NONE', #104, #78, #180 ) ;
#62 = CARTESIAN_POINT ( 'NONE',  ( 3.587474370718369352E-17, 0.0000000000000000000, 0.2929395131082781489 ) ) ;
#63 = SURFACE_SIDE_STYLE ('',( #13 ) ) ;
#64 = DIRECTION ( 'NONE',  ( 1.000000000000000000, 0.0000000000000000000, 0.0000000000000000000 ) ) ;
#65 = PRESENTATION_LAYER_ASSIGNMENT (  '', '', ( #252 ) ) ;
#66 = CYLINDRICAL_SURFACE ( 'NONE', #193, 0.05905500000000000332 ) ;
#67 = CARTESIAN_POINT ( 'NONE',  ( 5.785721337891755876E-18, 0.0000000000000000000, 0.04724400000000000127 ) ) ;
#68 = DIRECTION ( 'NONE',  ( -0.0000000000000000000, -0.0000000000000000000, -1.000000000000000000 ) ) ;
#69 = CIRCLE ( 'NONE', #219, 0.05905500000000000332 ) ;
#70 = DIRECTION ( 'NONE',  ( -1.000000000000000000, 0.0000000000000000000, 1.224646799147353207E-16 ) ) ;
#71 = CARTESIAN_POINT ( 'NONE',  ( 0.01573225200000000212, 0.0000000000000000000, 0.04724400000000000127 ) ) ;
#72 = ADVANCED_FACE ( 'NONE', ( #163 ), #324, .T. ) ;
#73 = DIRECTION ( 'NONE',  ( 0.0000000000000000000, 0.0000000000000000000, -1.000000000000000000 ) ) ;
#74 = MECHANICAL_DESIGN_GEOMETRIC_PRESENTATION_REPRESENTATION (  '', ( #239 ), #133 ) ;
#75 = VERTEX_POINT ( 'NONE', #233 ) ;
#76 = DIRECTION ( 'NONE',  ( -1.000000000000000000, 0.0000000000000000000, 0.0000000000000000000 ) ) ;
#77 = ORIENTED_EDGE ( 'NONE', *, *, #119, .T. ) ;
#78 = DIRECTION ( 'NONE',  ( 1.224646799147353207E-16, 0.0000000000000000000, 1.000000000000000000 ) ) ;
#79 = ORIENTED_EDGE ( 'NONE', *, *, #269, .F. ) ;
#80 = APPLICATION_PROTOCOL_DEFINITION ( 'draft international standard', 'automotive_design', 1998, #258 ) ;
#81 = ORIENTED_EDGE ( 'NONE', *, *, #47, .T. ) ;
#82 = AXIS2_PLACEMENT_3D ( 'NONE', #120, #296, #270 ) ;
#83 = DIRECTION ( 'NONE',  ( 0.0000000000000000000, 0.0000000000000000000, 1.000000000000000000 ) ) ;
#84 = VERTEX_POINT ( 'NONE', #234 ) ;
#85 = DIRECTION ( 'NONE',  ( 0.0000000000000000000, 0.0000000000000000000, -1.000000000000000000 ) ) ;
#86 = DIRECTION ( 'NONE',  ( -1.000000000000000000, 0.0000000000000000000, 0.0000000000000000000 ) ) ;
#87 = VERTEX_POINT ( 'NONE', #45 ) ;
#88 = DIRECTION ( 'NONE',  ( 1.000000000000000000, 0.0000000000000000000, 0.0000000000000000000 ) ) ;
#89 = AXIS2_PLACEMENT_3D ( 'NONE', #67, #241, #169 ) ;
#90 = CARTESIAN_POINT ( 'NONE',  ( 0.04405499999999973326, 6.313666573004162521E-18, 1.496062999999999921 ) ) ;
#91 = DIRECTION ( 'NONE',  ( 1.000000000000000000, 0.0000000000000000000, 0.0000000000000000000 ) ) ;
#92 = DIRECTION ( 'NONE',  ( -1.224646799147353207E-16, -0.0000000000000000000, -1.000000000000000000 ) ) ;
#93 = AXIS2_PLACEMENT_3D ( 'NONE', #62, #166, #137 ) ;
#94 = EDGE_CURVE ( 'NONE', #292, #84, #186, .T. ) ;
#95 = DIRECTION ( 'NONE',  ( -1.000000000000000000, 0.0000000000000000000, 1.224646799147353207E-16 ) ) ;
#96 = DIRECTION ( 'NONE',  ( -0.7071067811865482389, 0.0000000000000000000, -0.7071067811865469066 ) ) ;
#97 = EDGE_LOOP ( 'NONE', ( #57, #251 ) ) ;
#98 = ADVANCED_FACE ( 'NONE', ( #195 ), #215, .T. ) ;
#99 = DIRECTION ( 'NONE',  ( 0.0000000000000000000, -1.000000000000000000, 0.0000000000000000000 ) ) ;
#100 =( GEOMETRIC_REPRESENTATION_CONTEXT ( 3 ) GLOBAL_UNCERTAINTY_ASSIGNED_CONTEXT ( ( #257 ) ) GLOBAL_UNIT_ASSIGNED_CONTEXT ( ( #135, #245, #146 ) ) REPRESENTATION_CONTEXT ( 'NONE', 'WORKASPACE' ) );
#101 =( GEOMETRIC_REPRESENTATION_CONTEXT ( 3 ) GLOBAL_UNCERTAINTY_ASSIGNED_CONTEXT ( ( #308 ) ) GLOBAL_UNIT_ASSIGNED_CONTEXT ( ( #225, #152, #53 ) ) REPRESENTATION_CONTEXT ( 'NONE', 'WORKASPACE' ) );
#102 = EDGE_LOOP ( 'NONE', ( #103, #77, #155, #189 ) ) ;
#103 = ORIENTED_EDGE ( 'NONE', *, *, #179, .T. ) ;
#104 = CARTESIAN_POINT ( 'NONE',  ( 1.926645205517954404E-18, 0.0000000000000000000, 0.01573225199999999865 ) ) ;
#105 = CONICAL_SURFACE ( 'NONE', #267, 0.01573225199999999518, 0.1745329251994338915 ) ;
#106 = ORIENTED_EDGE ( 'NONE', *, *, #242, .F. ) ;
#107 = SURFACE_STYLE_USAGE ( .BOTH. , #63 ) ;
#108 = DIRECTION ( 'NONE',  ( 1.000000000000000000, 0.0000000000000000000, -0.0000000000000000000 ) ) ;
#109 = EDGE_CURVE ( 'NONE', #276, #5, #317, .T. ) ;
#110 = CARTESIAN_POINT ( 'NONE',  ( 0.01573225199999999865, 1.926645205517954404E-18, -1.926645205517954404E-18 ) ) ;
#111 = AXIS2_PLACEMENT_3D ( 'NONE', #173, #115, #199 ) ;
#112 = DIRECTION ( 'NONE',  ( 1.224646799147353207E-16, 1.000000000000000000, -0.0000000000000000000 ) ) ;
#113 = PRODUCT_CONTEXT ( 'NONE', #258, 'mechanical' ) ;
#114 = LINE ( 'NONE', #71, #167 ) ;
#115 = DIRECTION ( 'NONE',  ( 0.0000000000000000000, 0.0000000000000000000, 1.000000000000000000 ) ) ;
#116 = CIRCLE ( 'NONE', #127, 0.01573225199999999518 ) ;
#117 = VECTOR ( 'NONE', #250, 39.37007874015748143 ) ;
#118 = CYLINDRICAL_SURFACE ( 'NONE', #11, 0.01573225199999999865 ) ;
#119 = EDGE_CURVE ( 'NONE', #2, #58, #236, .T. ) ;
#120 = CARTESIAN_POINT ( 'NONE',  ( 0.0000000000000000000, 0.0000000000000000000, 1.481062999999999574 ) ) ;
#121 = MANIFOLD_SOLID_BREP ( 'Fillet1', #285 ) ;
#122 = CIRCLE ( 'NONE', #82, 0.05905500000000000332 ) ;
#123 = DIRECTION ( 'NONE',  ( 1.000000000000000000, 0.0000000000000000000, 0.0000000000000000000 ) ) ;
#124 = CARTESIAN_POINT ( 'NONE',  ( 0.0000000000000000000, 0.0000000000000000000, 1.496062999999999921 ) ) ;
#125 = EDGE_LOOP ( 'NONE', ( #303, #249, #138 ) ) ;
#126 = SURFACE_SIDE_STYLE ('',( #29 ) ) ;
#127 = AXIS2_PLACEMENT_3D ( 'NONE', #325, #92, #323 ) ;
#128 = ORIENTED_EDGE ( 'NONE', *, *, #316, .T. ) ;
#129 = EDGE_CURVE ( 'NONE', #276, #58, #114, .T. ) ;
#130 = CARTESIAN_POINT ( 'NONE',  ( -0.05905500000000000332, 0.0000000000000000000, 1.496062999999999921 ) ) ;
#131 = ORIENTED_EDGE ( 'NONE', *, *, #242, .T. ) ;
#132 = EDGE_LOOP ( 'NONE', ( #56, #54, #206, #279 ) ) ;
#133 =( GEOMETRIC_REPRESENTATION_CONTEXT ( 3 ) GLOBAL_UNCERTAINTY_ASSIGNED_CONTEXT ( ( #10 ) ) GLOBAL_UNIT_ASSIGNED_CONTEXT ( ( #185, #226, #209 ) ) REPRESENTATION_CONTEXT ( 'NONE', 'WORKASPACE' ) );
#134 = ADVANCED_FACE ( 'NONE', ( #272 ), #23, .T. ) ;
#135 =( CONVERSION_BASED_UNIT ( 'INCH', #41 ) LENGTH_UNIT ( ) NAMED_UNIT ( #216 ) );
#136 = DIRECTION ( 'NONE',  ( 0.0000000000000000000, 0.0000000000000000000, 1.000000000000000000 ) ) ;
#137 = DIRECTION ( 'NONE',  ( 1.000000000000000000, 0.0000000000000000000, 0.0000000000000000000 ) ) ;
#138 = ORIENTED_EDGE ( 'NONE', *, *, #12, .F. ) ;
#139 = DIRECTION ( 'NONE',  ( 0.0000000000000000000, 0.0000000000000000000, 1.000000000000000000 ) ) ;
#140 = ADVANCED_FACE ( 'NONE', ( #223 ), #118, .T. ) ;
#141 = DIRECTION ( 'NONE',  ( -1.224646799147353207E-16, -0.0000000000000000000, -1.000000000000000000 ) ) ;
#142 = CARTESIAN_POINT ( 'NONE',  ( 1.926645205517954404E-18, 0.0000000000000000000, 0.01573225199999999865 ) ) ;
#143 = AXIS2_PLACEMENT_3D ( 'NONE', #168, #194, #190 ) ;
#144 = COLOUR_RGB ( '',0.7921568627450980005, 0.8196078431372548767, 0.9333333333333333481 ) ;
#145 = CIRCLE ( 'NONE', #274, 0.01573225199999999865 ) ;
#146 =( NAMED_UNIT ( * ) SI_UNIT ( $, .STERADIAN. ) SOLID_ANGLE_UNIT ( ) );
#147 = EDGE_CURVE ( 'NONE', #276, #282, #162, .T. ) ;
#148 = FACE_OUTER_BOUND ( 'NONE', #304, .T. ) ;
#149 = LINE ( 'NONE', #48, #310 ) ;
#150 = MECHANICAL_DESIGN_GEOMETRIC_PRESENTATION_REPRESENTATION (  '', ( #252 ), #100 ) ;
#151 = CARTESIAN_POINT ( 'NONE',  ( 0.0000000000000000000, 0.0000000000000000000, 1.496062999999999921 ) ) ;
#152 =( NAMED_UNIT ( * ) PLANE_ANGLE_UNIT ( ) SI_UNIT ( $, .RADIAN. ) );
#153 = ORIENTED_EDGE ( 'NONE', *, *, #283, .F. ) ;
#154 = ADVANCED_FACE ( 'NONE', ( #20 ), #244, .T. ) ;
#155 = ORIENTED_EDGE ( 'NONE', *, *, #7, .F. ) ;
#156 = CARTESIAN_POINT ( 'NONE',  ( 0.01573225200000000212, 0.0000000000000000000, 0.04724400000000000127 ) ) ;
#157 = ORIENTED_EDGE ( 'NONE', *, *, #306, .T. ) ;
#158 = ADVANCED_FACE ( 'NONE', ( #266 ), #105, .T. ) ;
#159 = CARTESIAN_POINT ( 'NONE',  ( -0.01573225199999998825, 4.579398438941324335E-18, 0.04724400000000000127 ) ) ;
#160 = ORIENTED_EDGE ( 'NONE', *, *, #203, .F. ) ;
#161 = EDGE_CURVE ( 'NONE', #282, #276, #116, .T. ) ;
#162 = CIRCLE ( 'NONE', #89, 0.01573225199999999518 ) ;
#163 = FACE_OUTER_BOUND ( 'NONE', #259, .T. ) ;
#164 = FACE_OUTER_BOUND ( 'NONE', #102, .T. ) ;
#165 = PRESENTATION_STYLE_ASSIGNMENT (( #107 ) ) ;
#166 = DIRECTION ( 'NONE',  ( -1.224646799147353207E-16, -0.0000000000000000000, -1.000000000000000000 ) ) ;
#167 = VECTOR ( 'NONE', #295, 39.37007874015748143 ) ;
#168 = CARTESIAN_POINT ( 'NONE',  ( 3.587474370718369352E-17, 0.0000000000000000000, 0.2929395131082781489 ) ) ;
#169 = DIRECTION ( 'NONE',  ( -1.000000000000000000, 0.0000000000000000000, 0.0000000000000000000 ) ) ;
#170 = DIRECTION ( 'NONE',  ( -1.000000000000000000, 0.0000000000000000000, 0.0000000000000000000 ) ) ;
#171 = CIRCLE ( 'NONE', #93, 0.05905500000000000332 ) ;
#172 = DIRECTION ( 'NONE',  ( -1.224646799147353207E-16, -0.0000000000000000000, -1.000000000000000000 ) ) ;
#173 = CARTESIAN_POINT ( 'NONE',  ( 0.0000000000000000000, 0.0000000000000000000, 1.496062999999999921 ) ) ;
#174 = EDGE_CURVE ( 'NONE', #40, #256, #273, .T. ) ;
#175 = AXIS2_PLACEMENT_3D ( 'NONE', #238, #112, #260 ) ;
#176 = CIRCLE ( 'NONE', #61, 0.01573225199999999865 ) ;
#177 = CARTESIAN_POINT ( 'NONE',  ( -0.01573225199999998825, 1.926645205517954019E-18, 0.04724400000000000127 ) ) ;
#178 = ORIENTED_EDGE ( 'NONE', *, *, #35, .T. ) ;
#179 = EDGE_CURVE ( 'NONE', #87, #2, #122, .T. ) ;
#180 = DIRECTION ( 'NONE',  ( -1.000000000000000000, 0.0000000000000000000, 1.356612038155888783E-16 ) ) ;
#181 = EDGE_LOOP ( 'NONE', ( #79, #81, #230, #106 ) ) ;
#182 = FILL_AREA_STYLE ('',( #30 ) ) ;
#183 = PRODUCT_RELATED_PRODUCT_CATEGORY ( 'part', '', ( #21 ) ) ;
#184 = ORIENTED_EDGE ( 'NONE', *, *, #174, .F. ) ;
#185 =( CONVERSION_BASED_UNIT ( 'INCH', #300 ) LENGTH_UNIT ( ) NAMED_UNIT ( #19 ) );
#186 = CIRCLE ( 'NONE', #175, 0.01573225199999999865 ) ;
#187 = ORIENTED_EDGE ( 'NONE', *, *, #31, .T. ) ;
#188 = CARTESIAN_POINT ( 'NONE',  ( 2.889967808276931028E-18, 0.0000000000000000000, 0.0000000000000000000 ) ) ;
#189 = ORIENTED_EDGE ( 'NONE', *, *, #316, .F. ) ;
#190 = DIRECTION ( 'NONE',  ( 1.000000000000000000, 0.0000000000000000000, 0.0000000000000000000 ) ) ;
#191 = ADVANCED_FACE ( 'NONE', ( #148 ), #201, .T. ) ;
#192 = VECTOR ( 'NONE', #33, 39.37007874015747433 ) ;
#193 = AXIS2_PLACEMENT_3D ( 'NONE', #291, #315, #86 ) ;
#194 = DIRECTION ( 'NONE',  ( -1.224646799147353207E-16, -0.0000000000000000000, -1.000000000000000000 ) ) ;
#195 = FACE_OUTER_BOUND ( 'NONE', #97, .T. ) ;
#196 = CARTESIAN_POINT ( 'NONE',  ( 0.04405499999999973326, 5.395181473643630390E-18, 1.496062999999999921 ) ) ;
#197 = FILL_AREA_STYLE ('',( #217 ) ) ;
#198 = AXIS2_PLACEMENT_3D ( 'NONE', #288, #214, #286 ) ;
#199 = DIRECTION ( 'NONE',  ( 1.000000000000000000, 0.0000000000000000000, 0.0000000000000000000 ) ) ;
#200 = AXIS2_PLACEMENT_3D ( 'NONE', #299, #73, #321 ) ;
#201 = CYLINDRICAL_SURFACE ( 'NONE', #302, 0.01573225199999999865 ) ;
#202 = FACE_OUTER_BOUND ( 'NONE', #210, .T. ) ;
#203 = EDGE_CURVE ( 'NONE', #282, #84, #149, .T. ) ;
#204 = ORIENTED_EDGE ( 'NONE', *, *, #265, .T. ) ;
#205 = CONICAL_SURFACE ( 'NONE', #4, 0.04405499999999973326, 0.7853981633974491672 ) ;
#206 = ORIENTED_EDGE ( 'NONE', *, *, #203, .T. ) ;
#207 = LINE ( 'NONE', #177, #192 ) ;
#208 = ORIENTED_EDGE ( 'NONE', *, *, #31, .F. ) ;
#209 =( NAMED_UNIT ( * ) SI_UNIT ( $, .STERADIAN. ) SOLID_ANGLE_UNIT ( ) );
#210 = EDGE_LOOP ( 'NONE', ( #38, #184, #131, #208 ) ) ;
#211 = EDGE_LOOP ( 'NONE', ( #153, #277, #284 ) ) ;
#212 = CARTESIAN_POINT ( 'NONE',  ( 0.0000000000000000000, 0.0000000000000000000, 0.0000000000000000000 ) ) ;
#213 = DIRECTION ( 'NONE',  ( -0.0000000000000000000, -0.0000000000000000000, -1.000000000000000000 ) ) ;
#214 = DIRECTION ( 'NONE',  ( 1.224646799147353207E-16, 0.0000000000000000000, 1.000000000000000000 ) ) ;
#215 = PLANE ( 'NONE',  #44 ) ;
#216 = DIMENSIONAL_EXPONENTS ( 1.000000000000000000, 0.0000000000000000000, 0.0000000000000000000, 0.0000000000000000000, 0.0000000000000000000, 0.0000000000000000000, 0.0000000000000000000 ) ;
#217 = FILL_AREA_STYLE_COLOUR ( '', #144 ) ;
#218 = FACE_OUTER_BOUND ( 'NONE', #211, .T. ) ;
#219 = AXIS2_PLACEMENT_3D ( 'NONE', #240, #85, #88 ) ;
#220 = AXIS2_PLACEMENT_3D ( 'NONE', #124, #83, #247 ) ;
#221 = CARTESIAN_POINT ( 'NONE',  ( 0.0000000000000000000, 0.0000000000000000000, 0.0000000000000000000 ) ) ;
#222 = DIRECTION ( 'NONE',  ( 1.000000000000000000, 0.0000000000000000000, 0.0000000000000000000 ) ) ;
#223 = FACE_OUTER_BOUND ( 'NONE', #132, .T. ) ;
#224 = VECTOR ( 'NONE', #213, 39.37007874015748143 ) ;
#225 =( CONVERSION_BASED_UNIT ( 'INCH', #253 ) LENGTH_UNIT ( ) NAMED_UNIT ( #271 ) );
#226 =( NAMED_UNIT ( * ) PLANE_ANGLE_UNIT ( ) SI_UNIT ( $, .RADIAN. ) );
#227 = EDGE_LOOP ( 'NONE', ( #231, #157, #307, #36 ) ) ;
#228 = AXIS2_PLACEMENT_3D ( 'NONE', #212, #136, #314 ) ;
#229 =( LENGTH_UNIT ( ) NAMED_UNIT ( * ) SI_UNIT ( $, .METRE. ) );
#230 = ORIENTED_EDGE ( 'NONE', *, *, #179, .F. ) ;
#231 = ORIENTED_EDGE ( 'NONE', *, *, #161, .F. ) ;
#232 = ORIENTED_EDGE ( 'NONE', *, *, #306, .F. ) ;
#233 = CARTESIAN_POINT ( 'NONE',  ( -0.05905499999999996863, 0.0000000000000000000, 0.2929395131082781489 ) ) ;
#234 = CARTESIAN_POINT ( 'NONE',  ( -0.01573225199999999518, 0.0000000000000000000, 0.01573225199999999865 ) ) ;
#235 = APPLICATION_PROTOCOL_DEFINITION ( 'draft international standard', 'automotive_design', 1998, #290 ) ;
#236 = LINE ( 'NONE', #15, #224 ) ;
#237 = ADVANCED_FACE ( 'NONE', ( #218 ), #246, .T. ) ;
#238 = CARTESIAN_POINT ( 'NONE',  ( 1.926645205517954404E-18, 0.0000000000000000000, 0.01573225199999999865 ) ) ;
#239 = STYLED_ITEM ( 'NONE', ( #275 ), #39 ) ;
#240 = CARTESIAN_POINT ( 'NONE',  ( 0.0000000000000000000, 0.0000000000000000000, 1.481062999999999574 ) ) ;
#241 = DIRECTION ( 'NONE',  ( -1.224646799147353207E-16, -0.0000000000000000000, -1.000000000000000000 ) ) ;
#242 = EDGE_CURVE ( 'NONE', #40, #87, #243, .T. ) ;
#243 = LINE ( 'NONE', #50, #297 ) ;
#244 = SPHERICAL_SURFACE ( 'NONE', #319, 0.01573225199999999865 ) ;
#245 =( NAMED_UNIT ( * ) PLANE_ANGLE_UNIT ( ) SI_UNIT ( $, .RADIAN. ) );
#246 = SPHERICAL_SURFACE ( 'NONE', #22, 0.01573225199999999865 ) ;
#247 = DIRECTION ( 'NONE',  ( 1.000000000000000000, 0.0000000000000000000, 0.0000000000000000000 ) ) ;
#248 = PRODUCT_DEFINITION_CONTEXT ( 'detailed design', #290, 'design' ) ;
#249 = ORIENTED_EDGE ( 'NONE', *, *, #283, .T. ) ;
#250 = DIRECTION ( 'NONE',  ( -0.0000000000000000000, -0.0000000000000000000, -1.000000000000000000 ) ) ;
#251 = ORIENTED_EDGE ( 'NONE', *, *, #269, .T. ) ;
#252 = STYLED_ITEM ( 'NONE', ( #165 ), #121 ) ;
#253 = LENGTH_MEASURE_WITH_UNIT ( LENGTH_MEASURE( 0.02539999999999999897 ), #229 );
#254 = ORIENTED_EDGE ( 'NONE', *, *, #35, .F. ) ;
#255 = ADVANCED_FACE ( 'NONE', ( #202 ), #28, .T. ) ;
#256 = VERTEX_POINT ( 'NONE', #90 ) ;
#257 = UNCERTAINTY_MEASURE_WITH_UNIT (LENGTH_MEASURE( 1.000000000000000082E-05 ), #135, 'distance_accuracy_value', 'NONE');
#258 = APPLICATION_CONTEXT ( 'automotive_design' ) ;
#259 = EDGE_LOOP ( 'NONE', ( #232, #52, #301, #178 ) ) ;
#260 = DIRECTION ( 'NONE',  ( -1.000000000000000000, 1.224646799147353207E-16, 0.0000000000000000000 ) ) ;
#261 = ADVANCED_FACE ( 'NONE', ( #37 ), #205, .T. ) ;
#262 = CARTESIAN_POINT ( 'NONE',  ( 5.785721337891755876E-18, 0.0000000000000000000, 0.04724400000000000127 ) ) ;
#263 = DIRECTION ( 'NONE',  ( 1.224646799147353207E-16, 0.0000000000000000000, 1.000000000000000000 ) ) ;
#264 = LINE ( 'NONE', #196, #281 ) ;
#265 = EDGE_CURVE ( 'NONE', #5, #84, #176, .T. ) ;
#266 = FACE_OUTER_BOUND ( 'NONE', #227, .T. ) ;
#267 = AXIS2_PLACEMENT_3D ( 'NONE', #322, #294, #91 ) ;
#268 = PRODUCT_DEFINITION_FORMATION_WITH_SPECIFIED_SOURCE ( 'ANY', '', #21, .NOT_KNOWN. ) ;
#269 = EDGE_CURVE ( 'NONE', #256, #40, #287, .T. ) ;
#270 = DIRECTION ( 'NONE',  ( 1.000000000000000000, 0.0000000000000000000, 0.0000000000000000000 ) ) ;
#271 = DIMENSIONAL_EXPONENTS ( 1.000000000000000000, 0.0000000000000000000, 0.0000000000000000000, 0.0000000000000000000, 0.0000000000000000000, 0.0000000000000000000, 0.0000000000000000000 ) ;
#272 = FACE_OUTER_BOUND ( 'NONE', #318, .T. ) ;
#273 = CIRCLE ( 'NONE', #111, 0.04405499999999973326 ) ;
#274 = AXIS2_PLACEMENT_3D ( 'NONE', #311, #99, #1 ) ;
#275 = PRESENTATION_STYLE_ASSIGNMENT (( #55 ) ) ;
#276 = VERTEX_POINT ( 'NONE', #156 ) ;
#277 = ORIENTED_EDGE ( 'NONE', *, *, #94, .T. ) ;
#278 =( LENGTH_UNIT ( ) NAMED_UNIT ( * ) SI_UNIT ( $, .METRE. ) );
#279 = ORIENTED_EDGE ( 'NONE', *, *, #12, .T. ) ;
#280 = CIRCLE ( 'NONE', #198, 0.01573225199999999865 ) ;
#281 = VECTOR ( 'NONE', #46, 39.37007874015748143 ) ;
#282 = VERTEX_POINT ( 'NONE', #159 ) ;
#283 = EDGE_CURVE ( 'NONE', #292, #5, #145, .T. ) ;
#284 = ORIENTED_EDGE ( 'NONE', *, *, #265, .F. ) ;
#285 = CLOSED_SHELL ( 'NONE', ( #237, #191, #158, #261, #59, #134, #98, #255, #72, #140, #154 ) ) ;
#286 = DIRECTION ( 'NONE',  ( -1.000000000000000000, 0.0000000000000000000, 1.356612038155888783E-16 ) ) ;
#287 = CIRCLE ( 'NONE', #220, 0.04405499999999973326 ) ;
#288 = CARTESIAN_POINT ( 'NONE',  ( 1.926645205517954404E-18, 0.0000000000000000000, 0.01573225199999999865 ) ) ;
#289 = CARTESIAN_POINT ( 'NONE',  ( 0.0000000000000000000, 0.0000000000000000000, 1.496062999999999921 ) ) ;
#290 = APPLICATION_CONTEXT ( 'automotive_design' ) ;
#291 = CARTESIAN_POINT ( 'NONE',  ( 0.0000000000000000000, 0.0000000000000000000, 1.496062999999999921 ) ) ;
#292 = VERTEX_POINT ( 'NONE', #188 ) ;
#293 = PRODUCT_DEFINITION ( 'UNKNOWN', '', #268, #248 ) ;
#294 = DIRECTION ( 'NONE',  ( 1.224646799147353207E-16, 0.0000000000000000000, 1.000000000000000000 ) ) ;
#295 = DIRECTION ( 'NONE',  ( 0.1736481776669313859, 0.0000000000000000000, 0.9848077530122077983 ) ) ;
#296 = DIRECTION ( 'NONE',  ( 0.0000000000000000000, 0.0000000000000000000, -1.000000000000000000 ) ) ;
#297 = VECTOR ( 'NONE', #96, 39.37007874015748143 ) ;
#298 = CARTESIAN_POINT ( 'NONE',  ( 1.926645205517954404E-18, 0.0000000000000000000, 0.01573225199999999865 ) ) ;
#299 = CARTESIAN_POINT ( 'NONE',  ( 0.0000000000000000000, 0.0000000000000000000, 1.496062999999999921 ) ) ;
#300 = LENGTH_MEASURE_WITH_UNIT ( LENGTH_MEASURE( 0.02539999999999999897 ), #278 );
#301 = ORIENTED_EDGE ( 'NONE', *, *, #129, .T. ) ;
#302 = AXIS2_PLACEMENT_3D ( 'NONE', #51, #26, #70 ) ;
#303 = ORIENTED_EDGE ( 'NONE', *, *, #94, .F. ) ;
#304 = EDGE_LOOP ( 'NONE', ( #32, #9, #204, #160 ) ) ;
#305 = LINE ( 'NONE', #130, #117 ) ;
#306 = EDGE_CURVE ( 'NONE', #282, #75, #207, .T. ) ;
#307 = ORIENTED_EDGE ( 'NONE', *, *, #7, .T. ) ;
#308 = UNCERTAINTY_MEASURE_WITH_UNIT (LENGTH_MEASURE( 1.000000000000000082E-05 ), #225, 'distance_accuracy_value', 'NONE');
#309 = AXIS2_PLACEMENT_3D ( 'NONE', #262, #263, #64 ) ;
#310 = VECTOR ( 'NONE', #172, 39.37007874015748143 ) ;
#311 = CARTESIAN_POINT ( 'NONE',  ( 1.926645205517954404E-18, 0.0000000000000000000, 0.01573225199999999865 ) ) ;
#312 = SHAPE_DEFINITION_REPRESENTATION ( #25, #39 ) ;
#313 =( LENGTH_UNIT ( ) NAMED_UNIT ( * ) SI_UNIT ( $, .METRE. ) );
#314 = DIRECTION ( 'NONE',  ( 1.000000000000000000, 0.0000000000000000000, 0.0000000000000000000 ) ) ;
#315 = DIRECTION ( 'NONE',  ( -0.0000000000000000000, -0.0000000000000000000, -1.000000000000000000 ) ) ;
#316 = EDGE_CURVE ( 'NONE', #87, #75, #305, .T. ) ;
#317 = LINE ( 'NONE', #110, #16 ) ;
#318 = EDGE_LOOP ( 'NONE', ( #8, #187, #128, #254 ) ) ;
#319 = AXIS2_PLACEMENT_3D ( 'NONE', #298, #24, #222 ) ;
#320 = COLOUR_RGB ( '',0.7921568627450980005, 0.8196078431372548767, 0.9333333333333333481 ) ;
#321 = DIRECTION ( 'NONE',  ( -1.000000000000000000, 0.0000000000000000000, 0.0000000000000000000 ) ) ;
#322 = CARTESIAN_POINT ( 'NONE',  ( 5.785721337891755876E-18, 0.0000000000000000000, 0.04724400000000000127 ) ) ;
#323 = DIRECTION ( 'NONE',  ( -1.000000000000000000, 0.0000000000000000000, 0.0000000000000000000 ) ) ;
#324 = CONICAL_SURFACE ( 'NONE', #309, 0.01573225199999999518, 0.1745329251994338915 ) ;
#325 = CARTESIAN_POINT ( 'NONE',  ( 5.785721337891755876E-18, 0.0000000000000000000, 0.04724400000000000127 ) ) ;
ENDSEC;
END-ISO-10303-21;
