ISO-10303-21;
HEADER;
FILE_DESCRIPTION (( 'STEP AP214' ),
    '1' );
FILE_NAME ('86083.STEP',
    '2023-07-01T00:05:59',
    ( '' ),
    ( '' ),
    'SwSTEP 2.0',
    'SolidWorks 2023',
    '' );
FILE_SCHEMA (( 'AUTOMOTIVE_DESIGN' ));
ENDSEC;

DATA;
#1 = EDGE_CURVE ( 'NONE', #242, #126, #19, .T. ) ;
#2 = UNCERTAINTY_MEASURE_WITH_UNIT (LENGTH_MEASURE( 1.000000000000000082E-05 ), #95, 'distance_accuracy_value', 'NONE');
#3 = CARTESIAN_POINT ( 'NONE',  ( 6.167612263025076553E-17, 2.500000000000000000, 0.000000000000000000 ) ) ;
#4 = ORIENTED_EDGE ( 'NONE', *, *, #144, .T. ) ;
#5 =( NAMED_UNIT ( * ) PLANE_ANGLE_UNIT ( ) SI_UNIT ( $, .RADIAN. ) );
#6 = PRODUCT_DEFINITION_CONTEXT ( 'detailed design', #36, 'design' ) ;
#7 = AXIS2_PLACEMENT_3D ( 'NONE', #284, #171, #307 ) ;
#8 = CARTESIAN_POINT ( 'NONE',  ( 6.167612263025076553E-17, 2.500000000000000000, 0.000000000000000000 ) ) ;
#9 = DIMENSIONAL_EXPONENTS ( 1.000000000000000000, 0.000000000000000000, 0.000000000000000000, 0.000000000000000000, 0.000000000000000000, 0.000000000000000000, 0.000000000000000000 ) ;
#10 = FILL_AREA_STYLE_COLOUR ( '', #326 ) ;
#11 = ORIENTED_EDGE ( 'NONE', *, *, #336, .T. ) ;
#12 = AXIS2_PLACEMENT_3D ( 'NONE', #28, #371, #169 ) ;
#13 = SURFACE_SIDE_STYLE ('',( #270 ) ) ;
#14 =( GEOMETRIC_REPRESENTATION_CONTEXT ( 3 ) GLOBAL_UNCERTAINTY_ASSIGNED_CONTEXT ( ( #260 ) ) GLOBAL_UNIT_ASSIGNED_CONTEXT ( ( #222, #52, #333 ) ) REPRESENTATION_CONTEXT ( 'NONE', 'WORKASPACE' ) );
#15 = ORIENTED_EDGE ( 'NONE', *, *, #90, .F. ) ;
#16 = CARTESIAN_POINT ( 'NONE',  ( 0.1874999999999997502, 2.500000000000000000, 2.296212748401286493E-17 ) ) ;
#17 = DIRECTION ( 'NONE',  ( 0.000000000000000000, 0.000000000000000000, -1.000000000000000000 ) ) ;
#18 = FILL_AREA_STYLE ('',( #329 ) ) ;
#19 = CIRCLE ( 'NONE', #308, 0.1875000000000000278 ) ;
#20 = ORIENTED_EDGE ( 'NONE', *, *, #165, .F. ) ;
#21 = VECTOR ( 'NONE', #89, 39.37007874015748143 ) ;
#22 = PRESENTATION_LAYER_ASSIGNMENT (  '', '', ( #150 ) ) ;
#23 = DIRECTION ( 'NONE',  ( -0.000000000000000000, -1.000000000000000000, -0.000000000000000000 ) ) ;
#24 = DIRECTION ( 'NONE',  ( -1.000000000000000000, 0.000000000000000000, 0.000000000000000000 ) ) ;
#25 = EDGE_CURVE ( 'NONE', #70, #37, #230, .T. ) ;
#26 = SURFACE_SIDE_STYLE ('',( #257 ) ) ;
#27 =( GEOMETRIC_REPRESENTATION_CONTEXT ( 3 ) GLOBAL_UNCERTAINTY_ASSIGNED_CONTEXT ( ( #2 ) ) GLOBAL_UNIT_ASSIGNED_CONTEXT ( ( #95, #289, #62 ) ) REPRESENTATION_CONTEXT ( 'NONE', 'WORKASPACE' ) );
#28 = CARTESIAN_POINT ( 'NONE',  ( -2.449293598294705921E-16, 5.000000000000000000, 0.000000000000000000 ) ) ;
#29 = CARTESIAN_POINT ( 'NONE',  ( -2.296212748401287726E-17, 0.1875000000000000278, 0.000000000000000000 ) ) ;
#30 = ORIENTED_EDGE ( 'NONE', *, *, #71, .F. ) ;
#31 = ADVANCED_FACE ( 'NONE', ( #102 ), #191, .T. ) ;
#32 = ORIENTED_EDGE ( 'NONE', *, *, #90, .T. ) ;
#33 =( GEOMETRIC_REPRESENTATION_CONTEXT ( 3 ) GLOBAL_UNCERTAINTY_ASSIGNED_CONTEXT ( ( #338 ) ) GLOBAL_UNIT_ASSIGNED_CONTEXT ( ( #168, #53, #282 ) ) REPRESENTATION_CONTEXT ( 'NONE', 'WORKASPACE' ) );
#34 = CARTESIAN_POINT ( 'NONE',  ( 0.000000000000000000, 2.500000000000000000, 0.000000000000000000 ) ) ;
#35 = ORIENTED_EDGE ( 'NONE', *, *, #144, .F. ) ;
#36 = APPLICATION_CONTEXT ( 'automotive_design' ) ;
#37 = VERTEX_POINT ( 'NONE', #328 ) ;
#38 =( NAMED_UNIT ( * ) PLANE_ANGLE_UNIT ( ) SI_UNIT ( $, .RADIAN. ) );
#39 = ORIENTED_EDGE ( 'NONE', *, *, #61, .T. ) ;
#40 = VECTOR ( 'NONE', #136, 39.37007874015748143 ) ;
#41 = PRESENTATION_STYLE_ASSIGNMENT (( #186 ) ) ;
#42 = COLOUR_RGB ( '',1.000000000000000000, 0.000000000000000000, 0.000000000000000000 ) ;
#43 = EDGE_LOOP ( 'NONE', ( #92, #4, #347, #271, #212 ) ) ;
#44 = FILL_AREA_STYLE ('',( #223 ) ) ;
#45 =( LENGTH_UNIT ( ) NAMED_UNIT ( * ) SI_UNIT ( $, .METRE. ) );
#46 = PRODUCT_RELATED_PRODUCT_CATEGORY ( 'part', '', ( #124 ) ) ;
#47 =( LENGTH_UNIT ( ) NAMED_UNIT ( * ) SI_UNIT ( $, .METRE. ) );
#48 = CARTESIAN_POINT ( 'NONE',  ( 0.000000000000000000, 2.500000000000000000, -0.1874999999999997502 ) ) ;
#49 = AXIS2_PLACEMENT_3D ( 'NONE', #276, #360, #221 ) ;
#50 = ORIENTED_EDGE ( 'NONE', *, *, #1, .T. ) ;
#51 = FILL_AREA_STYLE ('',( #57 ) ) ;
#52 =( NAMED_UNIT ( * ) PLANE_ANGLE_UNIT ( ) SI_UNIT ( $, .RADIAN. ) );
#53 =( NAMED_UNIT ( * ) PLANE_ANGLE_UNIT ( ) SI_UNIT ( $, .RADIAN. ) );
#54 =( GEOMETRIC_REPRESENTATION_CONTEXT ( 3 ) GLOBAL_UNCERTAINTY_ASSIGNED_CONTEXT ( ( #121 ) ) GLOBAL_UNIT_ASSIGNED_CONTEXT ( ( #274, #364, #218 ) ) REPRESENTATION_CONTEXT ( 'NONE', 'WORKASPACE' ) );
#55 = STYLED_ITEM ( 'NONE', ( #327 ), #346 ) ;
#56 =( LENGTH_UNIT ( ) NAMED_UNIT ( * ) SI_UNIT ( $, .METRE. ) );
#57 = FILL_AREA_STYLE_COLOUR ( '', #354 ) ;
#58 = CARTESIAN_POINT ( 'NONE',  ( 0.1874999999999999722, 0.1875000000000000555, 0.000000000000000000 ) ) ;
#59 = AXIS2_PLACEMENT_3D ( 'NONE', #79, #75, #17 ) ;
#60 =( GEOMETRIC_REPRESENTATION_CONTEXT ( 3 ) GLOBAL_UNCERTAINTY_ASSIGNED_CONTEXT ( ( #176 ) ) GLOBAL_UNIT_ASSIGNED_CONTEXT ( ( #131, #162, #103 ) ) REPRESENTATION_CONTEXT ( 'NONE', 'WORKASPACE' ) );
#61 = EDGE_CURVE ( 'NONE', #156, #290, #149, .T. ) ;
#62 =( NAMED_UNIT ( * ) SI_UNIT ( $, .STERADIAN. ) SOLID_ANGLE_UNIT ( ) );
#63 = DIMENSIONAL_EXPONENTS ( 1.000000000000000000, 0.000000000000000000, 0.000000000000000000, 0.000000000000000000, 0.000000000000000000, 0.000000000000000000, 0.000000000000000000 ) ;
#64 =( NAMED_UNIT ( * ) SI_UNIT ( $, .STERADIAN. ) SOLID_ANGLE_UNIT ( ) );
#65 = SURFACE_STYLE_FILL_AREA ( #119 ) ;
#66 = VERTEX_POINT ( 'NONE', #300 ) ;
#67 = EDGE_LOOP ( 'NONE', ( #155, #210 ) ) ;
#68 = AXIS2_PLACEMENT_3D ( 'NONE', #34, #183, #247 ) ;
#69 = SURFACE_SIDE_STYLE ('',( #65 ) ) ;
#70 = VERTEX_POINT ( 'NONE', #48 ) ;
#71 = EDGE_CURVE ( 'NONE', #120, #356, #157, .T. ) ;
#72 = FILL_AREA_STYLE ('',( #323 ) ) ;
#73 = ORIENTED_EDGE ( 'NONE', *, *, #195, .T. ) ;
#74 = SURFACE_SIDE_STYLE ('',( #127 ) ) ;
#75 = DIRECTION ( 'NONE',  ( -0.000000000000000000, -1.000000000000000000, -0.000000000000000000 ) ) ;
#76 = CIRCLE ( 'NONE', #181, 0.1875000000000000278 ) ;
#77 = AXIS2_PLACEMENT_3D ( 'NONE', #305, #130, #227 ) ;
#78 = ADVANCED_FACE ( 'NONE', ( #366 ), #184, .T. ) ;
#79 = CARTESIAN_POINT ( 'NONE',  ( 0.000000000000000000, 2.500000000000000000, 0.000000000000000000 ) ) ;
#80 = DIRECTION ( 'NONE',  ( -0.000000000000000000, -1.000000000000000000, -0.000000000000000000 ) ) ;
#81 = LENGTH_MEASURE_WITH_UNIT ( LENGTH_MEASURE( 0.02539999999999999897 ), #301 );
#82 = AXIS2_PLACEMENT_3D ( 'NONE', #8, #174, #208 ) ;
#83 = FILL_AREA_STYLE ('',( #253 ) ) ;
#84 = FACE_OUTER_BOUND ( 'NONE', #249, .T. ) ;
#85 = DIRECTION ( 'NONE',  ( -1.226421929838885431E-16, 1.000000000000000000, -0.000000000000000000 ) ) ;
#86 = STYLED_ITEM ( 'NONE', ( #105 ), #31 ) ;
#87 = CIRCLE ( 'NONE', #341, 0.1874999999999999722 ) ;
#88 = DIRECTION ( 'NONE',  ( 1.000000000000000000, 0.000000000000000000, 0.000000000000000000 ) ) ;
#89 = DIRECTION ( 'NONE',  ( -0.000000000000000000, -1.000000000000000000, -0.000000000000000000 ) ) ;
#90 = EDGE_CURVE ( 'NONE', #160, #356, #310, .T. ) ;
#91 = CARTESIAN_POINT ( 'NONE',  ( -2.296212748401287726E-17, 0.1875000000000000278, 0.000000000000000000 ) ) ;
#92 = ORIENTED_EDGE ( 'NONE', *, *, #25, .T. ) ;
#93 = AXIS2_PLACEMENT_3D ( 'NONE', #29, #194, #88 ) ;
#94 = DIMENSIONAL_EXPONENTS ( 1.000000000000000000, 0.000000000000000000, 0.000000000000000000, 0.000000000000000000, 0.000000000000000000, 0.000000000000000000, 0.000000000000000000 ) ;
#95 =( CONVERSION_BASED_UNIT ( 'INCH', #233 ) LENGTH_UNIT ( ) NAMED_UNIT ( #63 ) );
#96 = EDGE_LOOP ( 'NONE', ( #235, #209 ) ) ;
#97 = FACE_OUTER_BOUND ( 'NONE', #67, .T. ) ;
#98 =( LENGTH_UNIT ( ) NAMED_UNIT ( * ) SI_UNIT ( $, .METRE. ) );
#99 =( GEOMETRIC_REPRESENTATION_CONTEXT ( 3 ) GLOBAL_UNCERTAINTY_ASSIGNED_CONTEXT ( ( #147 ) ) GLOBAL_UNIT_ASSIGNED_CONTEXT ( ( #117, #113, #64 ) ) REPRESENTATION_CONTEXT ( 'NONE', 'WORKASPACE' ) );
#100 = DIRECTION ( 'NONE',  ( 0.000000000000000000, 0.000000000000000000, -1.000000000000000000 ) ) ;
#101 = SURFACE_STYLE_USAGE ( .BOTH. , #13 ) ;
#102 = FACE_OUTER_BOUND ( 'NONE', #269, .T. ) ;
#103 =( NAMED_UNIT ( * ) SI_UNIT ( $, .STERADIAN. ) SOLID_ANGLE_UNIT ( ) );
#104 = COLOUR_RGB ( '',0.7921568627450980005, 0.8196078431372548767, 0.9333333333333333481 ) ;
#105 = PRESENTATION_STYLE_ASSIGNMENT (( #185 ) ) ;
#106 = ORIENTED_EDGE ( 'NONE', *, *, #165, .T. ) ;
#107 = DIRECTION ( 'NONE',  ( -0.000000000000000000, -1.000000000000000000, -0.000000000000000000 ) ) ;
#108 = ORIENTED_EDGE ( 'NONE', *, *, #319, .F. ) ;
#109 = PRESENTATION_LAYER_ASSIGNMENT (  '', '', ( #252 ) ) ;
#110 = LINE ( 'NONE', #112, #213 ) ;
#111 = SURFACE_STYLE_FILL_AREA ( #83 ) ;
#112 = CARTESIAN_POINT ( 'NONE',  ( 0.1874999999999996114, 5.000000000000000000, 2.296212748401285260E-17 ) ) ;
#113 =( NAMED_UNIT ( * ) PLANE_ANGLE_UNIT ( ) SI_UNIT ( $, .RADIAN. ) );
#114 = CARTESIAN_POINT ( 'NONE',  ( 0.1874999999999997502, 5.000000000000000000, 2.296212748401286493E-17 ) ) ;
#115 = MECHANICAL_DESIGN_GEOMETRIC_PRESENTATION_REPRESENTATION (  '', ( #86 ), #54 ) ;
#116 = PRESENTATION_LAYER_ASSIGNMENT (  '', '', ( #55 ) ) ;
#117 =( CONVERSION_BASED_UNIT ( 'INCH', #81 ) LENGTH_UNIT ( ) NAMED_UNIT ( #240 ) );
#118 = ADVANCED_BREP_SHAPE_REPRESENTATION ( '86083', ( #346, #342, #357 ), #99 ) ;
#119 = FILL_AREA_STYLE ('',( #10 ) ) ;
#120 = VERTEX_POINT ( 'NONE', #114 ) ;
#121 = UNCERTAINTY_MEASURE_WITH_UNIT (LENGTH_MEASURE( 1.000000000000000082E-05 ), #274, 'distance_accuracy_value', 'NONE');
#122 = CIRCLE ( 'NONE', #82, 0.1874999999999996669 ) ;
#123 = CYLINDRICAL_SURFACE ( 'NONE', #283, 0.1874999999999998335 ) ;
#124 = PRODUCT ( '86083', '86083', '', ( #286 ) ) ;
#125 = CARTESIAN_POINT ( 'NONE',  ( 0.000000000000000000, 0.1875000000000000555, 0.000000000000000000 ) ) ;
#126 = VERTEX_POINT ( 'NONE', #337 ) ;
#127 = SURFACE_STYLE_FILL_AREA ( #44 ) ;
#128 = LENGTH_MEASURE_WITH_UNIT ( LENGTH_MEASURE( 0.02539999999999999897 ), #45 );
#129 = DIRECTION ( 'NONE',  ( 0.000000000000000000, 0.000000000000000000, -1.000000000000000000 ) ) ;
#130 = DIRECTION ( 'NONE',  ( -0.000000000000000000, -1.000000000000000000, -0.000000000000000000 ) ) ;
#131 =( CONVERSION_BASED_UNIT ( 'INCH', #275 ) LENGTH_UNIT ( ) NAMED_UNIT ( #178 ) );
#132 = AXIS2_PLACEMENT_3D ( 'NONE', #362, #355, #277 ) ;
#133 = ORIENTED_EDGE ( 'NONE', *, *, #138, .F. ) ;
#134 = SURFACE_STYLE_FILL_AREA ( #324 ) ;
#135 = CARTESIAN_POINT ( 'NONE',  ( -0.1875000000000000278, 0.1875000000000000555, 2.296212748401287109E-17 ) ) ;
#136 = DIRECTION ( 'NONE',  ( -1.226421929838885431E-16, 1.000000000000000000, -0.000000000000000000 ) ) ;
#137 = PRODUCT_DEFINITION_FORMATION_WITH_SPECIFIED_SOURCE ( 'ANY', '', #124, .NOT_KNOWN. ) ;
#138 = EDGE_CURVE ( 'NONE', #356, #120, #320, .T. ) ;
#139 = UNCERTAINTY_MEASURE_WITH_UNIT (LENGTH_MEASURE( 1.000000000000000082E-05 ), #190, 'distance_accuracy_value', 'NONE');
#140 = SURFACE_STYLE_USAGE ( .BOTH. , #372 ) ;
#141 = DIMENSIONAL_EXPONENTS ( 1.000000000000000000, 0.000000000000000000, 0.000000000000000000, 0.000000000000000000, 0.000000000000000000, 0.000000000000000000, 0.000000000000000000 ) ;
#142 = SPHERICAL_SURFACE ( 'NONE', #93, 0.1875000000000000278 ) ;
#143 = MECHANICAL_DESIGN_GEOMETRIC_PRESENTATION_REPRESENTATION (  '', ( #55 ), #14 ) ;
#144 = EDGE_CURVE ( 'NONE', #37, #66, #368, .T. ) ;
#145 = DIMENSIONAL_EXPONENTS ( 1.000000000000000000, 0.000000000000000000, 0.000000000000000000, 0.000000000000000000, 0.000000000000000000, 0.000000000000000000, 0.000000000000000000 ) ;
#146 = ORIENTED_EDGE ( 'NONE', *, *, #207, .T. ) ;
#147 = UNCERTAINTY_MEASURE_WITH_UNIT (LENGTH_MEASURE( 1.000000000000000082E-05 ), #117, 'distance_accuracy_value', 'NONE');
#148 = DIRECTION ( 'NONE',  ( -1.226421929838885431E-16, 1.000000000000000000, 0.000000000000000000 ) ) ;
#149 = CIRCLE ( 'NONE', #361, 0.1874999999999999722 ) ;
#150 = STYLED_ITEM ( 'NONE', ( #159 ), #345 ) ;
#151 = ADVANCED_FACE ( 'NONE', ( #84 ), #142, .T. ) ;
#152 = PRESENTATION_STYLE_ASSIGNMENT (( #205 ) ) ;
#153 = ORIENTED_EDGE ( 'NONE', *, *, #61, .F. ) ;
#154 = CARTESIAN_POINT ( 'NONE',  ( 0.000000000000000000, 0.000000000000000000, 0.000000000000000000 ) ) ;
#155 = ORIENTED_EDGE ( 'NONE', *, *, #138, .T. ) ;
#156 = VERTEX_POINT ( 'NONE', #135 ) ;
#157 = CIRCLE ( 'NONE', #199, 0.1874999999999999722 ) ;
#158 = STYLED_ITEM ( 'NONE', ( #41 ), #342 ) ;
#159 = PRESENTATION_STYLE_ASSIGNMENT (( #248 ) ) ;
#160 = VERTEX_POINT ( 'NONE', #251 ) ;
#161 = EDGE_LOOP ( 'NONE', ( #316, #106, #133, #15 ) ) ;
#162 =( NAMED_UNIT ( * ) PLANE_ANGLE_UNIT ( ) SI_UNIT ( $, .RADIAN. ) );
#163 = ORIENTED_EDGE ( 'NONE', *, *, #25, .F. ) ;
#164 = VECTOR ( 'NONE', #335, 39.37007874015748143 ) ;
#165 = EDGE_CURVE ( 'NONE', #318, #120, #110, .T. ) ;
#166 = CYLINDRICAL_SURFACE ( 'NONE', #219, 0.1874999999999998335 ) ;
#167 = DIRECTION ( 'NONE',  ( -1.226421929838885431E-16, 1.000000000000000000, -0.000000000000000000 ) ) ;
#168 =( CONVERSION_BASED_UNIT ( 'INCH', #311 ) LENGTH_UNIT ( ) NAMED_UNIT ( #141 ) );
#169 = DIRECTION ( 'NONE',  ( -1.000000000000000000, 0.000000000000000000, 0.000000000000000000 ) ) ;
#170 = CYLINDRICAL_SURFACE ( 'NONE', #258, 0.1874999999999998335 ) ;
#171 = DIRECTION ( 'NONE',  ( -0.000000000000000000, -1.000000000000000000, -0.000000000000000000 ) ) ;
#172 = SURFACE_STYLE_USAGE ( .BOTH. , #26 ) ;
#173 = EDGE_CURVE ( 'NONE', #37, #70, #296, .T. ) ;
#174 = DIRECTION ( 'NONE',  ( -1.226421929838885431E-16, 1.000000000000000000, -0.000000000000000000 ) ) ;
#175 = STYLED_ITEM ( 'NONE', ( #152 ), #292 ) ;
#176 = UNCERTAINTY_MEASURE_WITH_UNIT (LENGTH_MEASURE( 1.000000000000000082E-05 ), #131, 'distance_accuracy_value', 'NONE');
#177 = DIRECTION ( 'NONE',  ( -1.000000000000000000, -1.226421929838885431E-16, 0.000000000000000000 ) ) ;
#178 = DIMENSIONAL_EXPONENTS ( 1.000000000000000000, 0.000000000000000000, 0.000000000000000000, 0.000000000000000000, 0.000000000000000000, 0.000000000000000000, 0.000000000000000000 ) ;
#179 = ORIENTED_EDGE ( 'NONE', *, *, #1, .F. ) ;
#180 = CLOSED_SHELL ( 'NONE', ( #31, #188, #292, #345, #151 ) ) ;
#181 = AXIS2_PLACEMENT_3D ( 'NONE', #91, #268, #238 ) ;
#182 = PLANE ( 'NONE',  #304 ) ;
#183 = DIRECTION ( 'NONE',  ( 0.000000000000000000, 1.000000000000000000, 0.000000000000000000 ) ) ;
#184 = CYLINDRICAL_SURFACE ( 'NONE', #12, 0.1874999999999998335 ) ;
#185 = SURFACE_STYLE_USAGE ( .BOTH. , #295 ) ;
#186 = SURFACE_STYLE_USAGE ( .BOTH. , #74 ) ;
#187 = CARTESIAN_POINT ( 'NONE',  ( 0.000000000000000000, 0.1875000000000000555, 0.000000000000000000 ) ) ;
#188 = ADVANCED_FACE ( 'NONE', ( #203 ), #170, .T. ) ;
#189 = CARTESIAN_POINT ( 'NONE',  ( -0.1875000000000002220, 5.000000000000000000, 0.000000000000000000 ) ) ;
#190 =( CONVERSION_BASED_UNIT ( 'INCH', #358 ) LENGTH_UNIT ( ) NAMED_UNIT ( #9 ) );
#191 = SPHERICAL_SURFACE ( 'NONE', #49, 0.1875000000000000278 ) ;
#192 = MECHANICAL_DESIGN_GEOMETRIC_PRESENTATION_REPRESENTATION (  '', ( #369 ), #27 ) ;
#193 = MECHANICAL_DESIGN_GEOMETRIC_PRESENTATION_REPRESENTATION (  '', ( #150 ), #279 ) ;
#194 = DIRECTION ( 'NONE',  ( 0.000000000000000000, 0.000000000000000000, 1.000000000000000000 ) ) ;
#195 = EDGE_CURVE ( 'NONE', #156, #126, #76, .T. ) ;
#196 =( LENGTH_UNIT ( ) NAMED_UNIT ( * ) SI_UNIT ( $, .METRE. ) );
#197 = CARTESIAN_POINT ( 'NONE',  ( 0.000000000000000000, 0.1875000000000000555, 0.000000000000000000 ) ) ;
#198 = UNCERTAINTY_MEASURE_WITH_UNIT (LENGTH_MEASURE( 1.000000000000000082E-05 ), #237, 'distance_accuracy_value', 'NONE');
#199 = AXIS2_PLACEMENT_3D ( 'NONE', #303, #167, #24 ) ;
#200 = CARTESIAN_POINT ( 'NONE',  ( -0.1875000000000000833, 5.000000000000000000, 0.000000000000000000 ) ) ;
#201 = AXIS2_PLACEMENT_3D ( 'NONE', #125, #216, #129 ) ;
#202 = APPLICATION_PROTOCOL_DEFINITION ( 'draft international standard', 'automotive_design', 1998, #344 ) ;
#203 = FACE_OUTER_BOUND ( 'NONE', #43, .T. ) ;
#204 = PRODUCT_DEFINITION ( 'UNKNOWN', '', #137, #6 ) ;
#205 = SURFACE_STYLE_USAGE ( .BOTH. , #69 ) ;
#206 = MECHANICAL_DESIGN_GEOMETRIC_PRESENTATION_REPRESENTATION (  '', ( #158 ), #60 ) ;
#207 = EDGE_CURVE ( 'NONE', #70, #290, #285, .T. ) ;
#208 = DIRECTION ( 'NONE',  ( -1.000000000000000000, 0.000000000000000000, 0.000000000000000000 ) ) ;
#209 = ORIENTED_EDGE ( 'NONE', *, *, #336, .F. ) ;
#210 = ORIENTED_EDGE ( 'NONE', *, *, #71, .T. ) ;
#211 = CARTESIAN_POINT ( 'NONE',  ( 0.000000000000000000, 0.1875000000000000555, -0.1874999999999999722 ) ) ;
#212 = ORIENTED_EDGE ( 'NONE', *, *, #207, .F. ) ;
#213 = VECTOR ( 'NONE', #85, 39.37007874015748143 ) ;
#214 = ORIENTED_EDGE ( 'NONE', *, *, #363, .T. ) ;
#215 = ADVANCED_FACE ( 'NONE', ( #343 ), #123, .T. ) ;
#216 = DIRECTION ( 'NONE',  ( -0.000000000000000000, -1.000000000000000000, -0.000000000000000000 ) ) ;
#217 = CARTESIAN_POINT ( 'NONE',  ( -2.296212748401287726E-17, 0.1875000000000000278, 0.000000000000000000 ) ) ;
#218 =( NAMED_UNIT ( * ) SI_UNIT ( $, .STERADIAN. ) SOLID_ANGLE_UNIT ( ) );
#219 = AXIS2_PLACEMENT_3D ( 'NONE', #280, #23, #100 ) ;
#220 = ADVANCED_FACE ( 'NONE', ( #97 ), #182, .F. ) ;
#221 = DIRECTION ( 'NONE',  ( 1.000000000000000000, 0.000000000000000000, 0.000000000000000000 ) ) ;
#222 =( CONVERSION_BASED_UNIT ( 'INCH', #367 ) LENGTH_UNIT ( ) NAMED_UNIT ( #145 ) );
#223 = FILL_AREA_STYLE_COLOUR ( '', #104 ) ;
#224 = EDGE_LOOP ( 'NONE', ( #163, #353 ) ) ;
#225 = CLOSED_SHELL ( 'NONE', ( #78, #256, #215, #220 ) ) ;
#226 = DIRECTION ( 'NONE',  ( 0.000000000000000000, 0.000000000000000000, -1.000000000000000000 ) ) ;
#227 = DIRECTION ( 'NONE',  ( 0.000000000000000000, 0.000000000000000000, -1.000000000000000000 ) ) ;
#228 = PRESENTATION_STYLE_ASSIGNMENT (( #172 ) ) ;
#229 = DIRECTION ( 'NONE',  ( 0.000000000000000000, 0.000000000000000000, 1.000000000000000000 ) ) ;
#230 = CIRCLE ( 'NONE', #59, 0.1874999999999997502 ) ;
#231 = DIRECTION ( 'NONE',  ( -1.226421929838885431E-16, 1.000000000000000000, -0.000000000000000000 ) ) ;
#232 = DIMENSIONAL_EXPONENTS ( 1.000000000000000000, 0.000000000000000000, 0.000000000000000000, 0.000000000000000000, 0.000000000000000000, 0.000000000000000000, 0.000000000000000000 ) ;
#233 = LENGTH_MEASURE_WITH_UNIT ( LENGTH_MEASURE( 0.02539999999999999897 ), #56 );
#234 = DIRECTION ( 'NONE',  ( -1.226421929838885431E-16, 1.000000000000000000, -0.000000000000000000 ) ) ;
#235 = ORIENTED_EDGE ( 'NONE', *, *, #246, .F. ) ;
#236 = CARTESIAN_POINT ( 'NONE',  ( 0.000000000000000000, 0.000000000000000000, 0.000000000000000000 ) ) ;
#237 =( CONVERSION_BASED_UNIT ( 'INCH', #262 ) LENGTH_UNIT ( ) NAMED_UNIT ( #94 ) );
#238 = DIRECTION ( 'NONE',  ( 1.000000000000000000, 0.000000000000000000, -1.224646799147353207E-16 ) ) ;
#239 = ORIENTED_EDGE ( 'NONE', *, *, #173, .T. ) ;
#240 = DIMENSIONAL_EXPONENTS ( 1.000000000000000000, 0.000000000000000000, 0.000000000000000000, 0.000000000000000000, 0.000000000000000000, 0.000000000000000000, 0.000000000000000000 ) ;
#241 = DIRECTION ( 'NONE',  ( 1.000000000000000000, 1.226421929838885431E-16, 0.000000000000000000 ) ) ;
#242 = VERTEX_POINT ( 'NONE', #58 ) ;
#243 = ORIENTED_EDGE ( 'NONE', *, *, #319, .T. ) ;
#244 = PRESENTATION_LAYER_ASSIGNMENT (  '', '', ( #369 ) ) ;
#245 = EDGE_LOOP ( 'NONE', ( #20, #11, #32, #30 ) ) ;
#246 = EDGE_CURVE ( 'NONE', #160, #318, #122, .T. ) ;
#247 = DIRECTION ( 'NONE',  ( 0.000000000000000000, -0.000000000000000000, 1.000000000000000000 ) ) ;
#248 = SURFACE_STYLE_USAGE ( .BOTH. , #298 ) ;
#249 = EDGE_LOOP ( 'NONE', ( #299, #39, #214, #50 ) ) ;
#250 = DIRECTION ( 'NONE',  ( 0.000000000000000000, 0.000000000000000000, -1.000000000000000000 ) ) ;
#251 = CARTESIAN_POINT ( 'NONE',  ( -0.1874999999999996114, 2.500000000000000000, 0.000000000000000000 ) ) ;
#252 = STYLED_ITEM ( 'NONE', ( #255 ), #151 ) ;
#253 = FILL_AREA_STYLE_COLOUR ( '', #373 ) ;
#254 = MECHANICAL_DESIGN_GEOMETRIC_PRESENTATION_REPRESENTATION (  '', ( #175 ), #349 ) ;
#255 = PRESENTATION_STYLE_ASSIGNMENT (( #140 ) ) ;
#256 = ADVANCED_FACE ( 'NONE', ( #314 ), #259, .F. ) ;
#257 = SURFACE_STYLE_FILL_AREA ( #51 ) ;
#258 = AXIS2_PLACEMENT_3D ( 'NONE', #154, #351, #352 ) ;
#259 = PLANE ( 'NONE',  #332 ) ;
#260 = UNCERTAINTY_MEASURE_WITH_UNIT (LENGTH_MEASURE( 1.000000000000000082E-05 ), #222, 'distance_accuracy_value', 'NONE');
#261 = APPLICATION_PROTOCOL_DEFINITION ( 'draft international standard', 'automotive_design', 1998, #36 ) ;
#262 = LENGTH_MEASURE_WITH_UNIT ( LENGTH_MEASURE( 0.02539999999999999897 ), #287 );
#263 = PRESENTATION_LAYER_ASSIGNMENT (  '', '', ( #86 ) ) ;
#264 = CIRCLE ( 'NONE', #201, 0.1874999999999999722 ) ;
#265 = SHAPE_DEFINITION_REPRESENTATION ( #365, #118 ) ;
#266 = DIRECTION ( 'NONE',  ( -1.000000000000000000, 0.000000000000000000, 0.000000000000000000 ) ) ;
#267 = EDGE_LOOP ( 'NONE', ( #35, #239, #146, #153, #108 ) ) ;
#268 = DIRECTION ( 'NONE',  ( 1.224646799147353207E-16, -0.000000000000000000, 1.000000000000000000 ) ) ;
#269 = EDGE_LOOP ( 'NONE', ( #243, #73, #179, #278 ) ) ;
#270 = SURFACE_STYLE_FILL_AREA ( #72 ) ;
#271 = ORIENTED_EDGE ( 'NONE', *, *, #363, .F. ) ;
#272 = AXIS2_PLACEMENT_3D ( 'NONE', #339, #231, #281 ) ;
#273 = SURFACE_STYLE_FILL_AREA ( #18 ) ;
#274 =( CONVERSION_BASED_UNIT ( 'INCH', #128 ) LENGTH_UNIT ( ) NAMED_UNIT ( #232 ) );
#275 = LENGTH_MEASURE_WITH_UNIT ( LENGTH_MEASURE( 0.02539999999999999897 ), #47 );
#276 = CARTESIAN_POINT ( 'NONE',  ( -2.296212748401287726E-17, 0.1875000000000000278, 0.000000000000000000 ) ) ;
#277 = DIRECTION ( 'NONE',  ( -1.000000000000000000, 0.000000000000000000, 0.000000000000000000 ) ) ;
#278 = ORIENTED_EDGE ( 'NONE', *, *, #370, .T. ) ;
#279 =( GEOMETRIC_REPRESENTATION_CONTEXT ( 3 ) GLOBAL_UNCERTAINTY_ASSIGNED_CONTEXT ( ( #139 ) ) GLOBAL_UNIT_ASSIGNED_CONTEXT ( ( #190, #38, #302 ) ) REPRESENTATION_CONTEXT ( 'NONE', 'WORKASPACE' ) );
#280 = CARTESIAN_POINT ( 'NONE',  ( 0.000000000000000000, 0.000000000000000000, 0.000000000000000000 ) ) ;
#281 = DIRECTION ( 'NONE',  ( -1.000000000000000000, 0.000000000000000000, 0.000000000000000000 ) ) ;
#282 =( NAMED_UNIT ( * ) SI_UNIT ( $, .STERADIAN. ) SOLID_ANGLE_UNIT ( ) );
#283 = AXIS2_PLACEMENT_3D ( 'NONE', #293, #234, #266 ) ;
#284 = CARTESIAN_POINT ( 'NONE',  ( 0.000000000000000000, 2.500000000000000000, 0.000000000000000000 ) ) ;
#285 = LINE ( 'NONE', #312, #21 ) ;
#286 = PRODUCT_CONTEXT ( 'NONE', #344, 'mechanical' ) ;
#287 =( LENGTH_UNIT ( ) NAMED_UNIT ( * ) SI_UNIT ( $, .METRE. ) );
#288 = CARTESIAN_POINT ( 'NONE',  ( 0.1874999999999997502, 5.000000000000000000, 0.000000000000000000 ) ) ;
#289 =( NAMED_UNIT ( * ) PLANE_ANGLE_UNIT ( ) SI_UNIT ( $, .RADIAN. ) );
#290 = VERTEX_POINT ( 'NONE', #211 ) ;
#291 = COLOUR_RGB ( '',0.7921568627450980005, 0.8196078431372548767, 0.9333333333333333481 ) ;
#292 = ADVANCED_FACE ( 'NONE', ( #321 ), #317, .T. ) ;
#293 = CARTESIAN_POINT ( 'NONE',  ( -2.449293598294705921E-16, 5.000000000000000000, 0.000000000000000000 ) ) ;
#294 = FACE_OUTER_BOUND ( 'NONE', #267, .T. ) ;
#295 = SURFACE_SIDE_STYLE ('',( #134 ) ) ;
#296 = CIRCLE ( 'NONE', #7, 0.1874999999999997502 ) ;
#297 = PRESENTATION_LAYER_ASSIGNMENT (  '', '', ( #158 ) ) ;
#298 = SURFACE_SIDE_STYLE ('',( #273 ) ) ;
#299 = ORIENTED_EDGE ( 'NONE', *, *, #195, .F. ) ;
#300 = CARTESIAN_POINT ( 'NONE',  ( 2.296212748401286801E-17, 0.1875000000000000555, 0.1874999999999999722 ) ) ;
#301 =( LENGTH_UNIT ( ) NAMED_UNIT ( * ) SI_UNIT ( $, .METRE. ) );
#302 =( NAMED_UNIT ( * ) SI_UNIT ( $, .STERADIAN. ) SOLID_ANGLE_UNIT ( ) );
#303 = CARTESIAN_POINT ( 'NONE',  ( -2.449293598294705921E-16, 5.000000000000000000, 0.000000000000000000 ) ) ;
#304 = AXIS2_PLACEMENT_3D ( 'NONE', #288, #315, #241 ) ;
#305 = CARTESIAN_POINT ( 'NONE',  ( 0.000000000000000000, 0.1875000000000000555, 0.000000000000000000 ) ) ;
#306 = CARTESIAN_POINT ( 'NONE',  ( 2.296212748401285260E-17, 0.000000000000000000, 0.1874999999999998335 ) ) ;
#307 = DIRECTION ( 'NONE',  ( 0.000000000000000000, 0.000000000000000000, -1.000000000000000000 ) ) ;
#308 = AXIS2_PLACEMENT_3D ( 'NONE', #217, #330, #359 ) ;
#309 = PRESENTATION_LAYER_ASSIGNMENT (  '', '', ( #175 ) ) ;
#310 = LINE ( 'NONE', #200, #40 ) ;
#311 = LENGTH_MEASURE_WITH_UNIT ( LENGTH_MEASURE( 0.02539999999999999897 ), #196 );
#312 = CARTESIAN_POINT ( 'NONE',  ( 0.000000000000000000, 0.000000000000000000, -0.1874999999999998335 ) ) ;
#313 = COLOUR_RGB ( '',1.000000000000000000, 0.000000000000000000, 0.000000000000000000 ) ;
#314 = FACE_OUTER_BOUND ( 'NONE', #96, .T. ) ;
#315 = DIRECTION ( 'NONE',  ( 1.226421929838885431E-16, -1.000000000000000000, 0.000000000000000000 ) ) ;
#316 = ORIENTED_EDGE ( 'NONE', *, *, #246, .T. ) ;
#317 = PLANE ( 'NONE',  #68 ) ;
#318 = VERTEX_POINT ( 'NONE', #16 ) ;
#319 = EDGE_CURVE ( 'NONE', #66, #156, #264, .T. ) ;
#320 = CIRCLE ( 'NONE', #272, 0.1874999999999999722 ) ;
#321 = FACE_OUTER_BOUND ( 'NONE', #224, .T. ) ;
#322 = CIRCLE ( 'NONE', #77, 0.1874999999999999722 ) ;
#323 = FILL_AREA_STYLE_COLOUR ( '', #291 ) ;
#324 = FILL_AREA_STYLE ('',( #331 ) ) ;
#325 =( LENGTH_UNIT ( ) NAMED_UNIT ( * ) SI_UNIT ( $, .METRE. ) );
#326 = COLOUR_RGB ( '',1.000000000000000000, 0.000000000000000000, 0.000000000000000000 ) ;
#327 = PRESENTATION_STYLE_ASSIGNMENT (( #101 ) ) ;
#328 = CARTESIAN_POINT ( 'NONE',  ( 2.296212748401284952E-17, 2.500000000000000000, 0.1874999999999997502 ) ) ;
#329 = FILL_AREA_STYLE_COLOUR ( '', #42 ) ;
#330 = DIRECTION ( 'NONE',  ( 0.000000000000000000, 0.000000000000000000, -1.000000000000000000 ) ) ;
#331 = FILL_AREA_STYLE_COLOUR ( '', #313 ) ;
#332 = AXIS2_PLACEMENT_3D ( 'NONE', #3, #148, #177 ) ;
#333 =( NAMED_UNIT ( * ) SI_UNIT ( $, .STERADIAN. ) SOLID_ANGLE_UNIT ( ) );
#334 = CIRCLE ( 'NONE', #132, 0.1874999999999996669 ) ;
#335 = DIRECTION ( 'NONE',  ( -0.000000000000000000, -1.000000000000000000, -0.000000000000000000 ) ) ;
#336 = EDGE_CURVE ( 'NONE', #318, #160, #334, .T. ) ;
#337 = CARTESIAN_POINT ( 'NONE',  ( -1.148106374200643863E-17, 0.000000000000000000, 0.000000000000000000 ) ) ;
#338 = UNCERTAINTY_MEASURE_WITH_UNIT (LENGTH_MEASURE( 1.000000000000000082E-05 ), #168, 'distance_accuracy_value', 'NONE');
#339 = CARTESIAN_POINT ( 'NONE',  ( -2.449293598294705921E-16, 5.000000000000000000, 0.000000000000000000 ) ) ;
#340 = DIRECTION ( 'NONE',  ( 1.000000000000000000, 0.000000000000000000, 0.000000000000000000 ) ) ;
#341 = AXIS2_PLACEMENT_3D ( 'NONE', #197, #107, #226 ) ;
#342 = MANIFOLD_SOLID_BREP ( 'Revolve - Tool Body (Straight Shanked)', #225 ) ;
#343 = FACE_OUTER_BOUND ( 'NONE', #245, .T. ) ;
#344 = APPLICATION_CONTEXT ( 'automotive_design' ) ;
#345 = ADVANCED_FACE ( 'NONE', ( #294 ), #166, .T. ) ;
#346 = MANIFOLD_SOLID_BREP ( 'Revolve - Cutting Edge', #180 ) ;
#347 = ORIENTED_EDGE ( 'NONE', *, *, #370, .F. ) ;
#348 = MECHANICAL_DESIGN_GEOMETRIC_PRESENTATION_REPRESENTATION (  '', ( #252 ), #33 ) ;
#349 =( GEOMETRIC_REPRESENTATION_CONTEXT ( 3 ) GLOBAL_UNCERTAINTY_ASSIGNED_CONTEXT ( ( #198 ) ) GLOBAL_UNIT_ASSIGNED_CONTEXT ( ( #237, #5, #350 ) ) REPRESENTATION_CONTEXT ( 'NONE', 'WORKASPACE' ) );
#350 =( NAMED_UNIT ( * ) SI_UNIT ( $, .STERADIAN. ) SOLID_ANGLE_UNIT ( ) );
#351 = DIRECTION ( 'NONE',  ( -0.000000000000000000, -1.000000000000000000, -0.000000000000000000 ) ) ;
#352 = DIRECTION ( 'NONE',  ( 0.000000000000000000, 0.000000000000000000, -1.000000000000000000 ) ) ;
#353 = ORIENTED_EDGE ( 'NONE', *, *, #173, .F. ) ;
#354 = COLOUR_RGB ( '',1.000000000000000000, 0.000000000000000000, 0.000000000000000000 ) ;
#355 = DIRECTION ( 'NONE',  ( -1.226421929838885431E-16, 1.000000000000000000, -0.000000000000000000 ) ) ;
#356 = VERTEX_POINT ( 'NONE', #189 ) ;
#357 = AXIS2_PLACEMENT_3D ( 'NONE', #236, #229, #340 ) ;
#358 = LENGTH_MEASURE_WITH_UNIT ( LENGTH_MEASURE( 0.02539999999999999897 ), #325 );
#359 = DIRECTION ( 'NONE',  ( -1.000000000000000000, 0.000000000000000000, 0.000000000000000000 ) ) ;
#360 = DIRECTION ( 'NONE',  ( 0.000000000000000000, 0.000000000000000000, 1.000000000000000000 ) ) ;
#361 = AXIS2_PLACEMENT_3D ( 'NONE', #187, #80, #250 ) ;
#362 = CARTESIAN_POINT ( 'NONE',  ( 6.167612263025076553E-17, 2.500000000000000000, 0.000000000000000000 ) ) ;
#363 = EDGE_CURVE ( 'NONE', #290, #242, #87, .T. ) ;
#364 =( NAMED_UNIT ( * ) PLANE_ANGLE_UNIT ( ) SI_UNIT ( $, .RADIAN. ) );
#365 = PRODUCT_DEFINITION_SHAPE ( 'NONE', 'NONE',  #204 ) ;
#366 = FACE_OUTER_BOUND ( 'NONE', #161, .T. ) ;
#367 = LENGTH_MEASURE_WITH_UNIT ( LENGTH_MEASURE( 0.02539999999999999897 ), #98 );
#368 = LINE ( 'NONE', #306, #164 ) ;
#369 = STYLED_ITEM ( 'NONE', ( #228 ), #188 ) ;
#370 = EDGE_CURVE ( 'NONE', #242, #66, #322, .T. ) ;
#371 = DIRECTION ( 'NONE',  ( -1.226421929838885431E-16, 1.000000000000000000, -0.000000000000000000 ) ) ;
#372 = SURFACE_SIDE_STYLE ('',( #111 ) ) ;
#373 = COLOUR_RGB ( '',1.000000000000000000, 0.000000000000000000, 0.000000000000000000 ) ;
ENDSEC;
END-ISO-10303-21;
