ISO-10303-21;
HEADER;
FILE_DESCRIPTION (( 'STEP AP214' ),
    '1' );
FILE_NAME ('Micro_GEMM-020-4X.STEP',
    '2021-09-01T21:21:34',
    ( '' ),
    ( '' ),
    'SwSTEP 2.0',
    'SolidWorks 2020',
    '' );
FILE_SCHEMA (( 'AUTOMOTIVE_DESIGN' ));
ENDSEC;

DATA;
#1 = VECTOR ( 'NONE', #40, 39.37007874015748143 ) ;
#2 = PRODUCT_CONTEXT ( 'NONE', #169, 'mechanical' ) ;
#3 = APPLICATION_PROTOCOL_DEFINITION ( 'draft international standard', 'automotive_design', 1998, #169 ) ;
#4 = AXIS2_PLACEMENT_3D ( 'NONE', #27, #46, #175 ) ;
#5 = ORIENTED_EDGE ( 'NONE', *, *, #261, .F. ) ;
#6 = EDGE_LOOP ( 'NONE', ( #5, #7, #41, #45 ) ) ;
#7 = ORIENTED_EDGE ( 'NONE', *, *, #147, .T. ) ;
#8 = FACE_OUTER_BOUND ( 'NONE', #171, .T. ) ;
#9 = CARTESIAN_POINT ( 'NONE',  ( 0.05905500000000003108, 7.232151672364698504E-18, 0.3874534609844122457 ) ) ;
#10 = LINE ( 'NONE', #179, #292 ) ;
#11 = CARTESIAN_POINT ( 'NONE',  ( 5.898649710075390321E-34, 0.0000000000000000000, 4.816613013794884661E-18 ) ) ;
#12 = CARTESIAN_POINT ( 'NONE',  ( 3.375016360238180974E-17, 0.0000000000000000000, 0.2755909999999999749 ) ) ;
#13 = CIRCLE ( 'NONE', #270, 0.03933062999999999837 ) ;
#14 = DIRECTION ( 'NONE',  ( -1.000000000000000000, 0.0000000000000000000, 1.224646799147352714E-16 ) ) ;
#15 = ORIENTED_EDGE ( 'NONE', *, *, #92, .T. ) ;
#16 = FACE_OUTER_BOUND ( 'NONE', #183, .T. ) ;
#17 = FACE_OUTER_BOUND ( 'NONE', #6, .T. ) ;
#18 = SURFACE_STYLE_FILL_AREA ( #279 ) ;
#19 = PRESENTATION_LAYER_ASSIGNMENT (  '', '', ( #244 ) ) ;
#20 = DIRECTION ( 'NONE',  ( 1.000000000000000000, 0.0000000000000000000, -0.0000000000000000000 ) ) ;
#21 = VERTEX_POINT ( 'NONE', #155 ) ;
#22 = APPLICATION_PROTOCOL_DEFINITION ( 'draft international standard', 'automotive_design', 1998, #91 ) ;
#23 = AXIS2_PLACEMENT_3D ( 'NONE', #157, #243, #67 ) ;
#24 = STYLED_ITEM ( 'NONE', ( #122 ), #251 ) ;
#25 = DIRECTION ( 'NONE',  ( 0.0000000000000000000, 0.0000000000000000000, -1.000000000000000000 ) ) ;
#26 = EDGE_LOOP ( 'NONE', ( #128, #15, #191, #197 ) ) ;
#27 = CARTESIAN_POINT ( 'NONE',  ( 0.0000000000000000000, 0.0000000000000000000, 1.496062999999999921 ) ) ;
#28 = CARTESIAN_POINT ( 'NONE',  ( 0.03933063000000002613, 0.0000000000000000000, 0.2755909999999999749 ) ) ;
#29 = ORIENTED_EDGE ( 'NONE', *, *, #138, .F. ) ;
#30 = CARTESIAN_POINT ( 'NONE',  ( 0.03933062999999999837, 4.816613013794885432E-18, -4.816613013794884661E-18 ) ) ;
#31 = ORIENTED_EDGE ( 'NONE', *, *, #92, .F. ) ;
#32 = CARTESIAN_POINT ( 'NONE',  ( -0.04405500000000001082, 0.0000000000000000000, 1.496062999999999921 ) ) ;
#33 = CARTESIAN_POINT ( 'NONE',  ( 5.898649710075390321E-34, 0.0000000000000000000, 4.816613013794884661E-18 ) ) ;
#34 = LENGTH_MEASURE_WITH_UNIT ( LENGTH_MEASURE( 0.02539999999999999897 ), #61 );
#35 = AXIS2_PLACEMENT_3D ( 'NONE', #200, #154, #266 ) ;
#36 = DIRECTION ( 'NONE',  ( 1.000000000000000000, 0.0000000000000000000, 0.0000000000000000000 ) ) ;
#37 = CARTESIAN_POINT ( 'NONE',  ( 0.0000000000000000000, 0.0000000000000000000, 1.496062999999999921 ) ) ;
#38 = EDGE_CURVE ( 'NONE', #54, #126, #160, .T. ) ;
#39 = ADVANCED_FACE ( 'NONE', ( #16 ), #227, .T. ) ;
#40 = DIRECTION ( 'NONE',  ( -1.224646799147352961E-16, -0.0000000000000000000, -1.000000000000000000 ) ) ;
#41 = ORIENTED_EDGE ( 'NONE', *, *, #275, .T. ) ;
#42 = PRESENTATION_LAYER_ASSIGNMENT (  '', '', ( #24 ) ) ;
#43 = UNCERTAINTY_MEASURE_WITH_UNIT (LENGTH_MEASURE( 1.000000000000000082E-05 ), #182, 'distance_accuracy_value', 'NONE');
#44 = EDGE_CURVE ( 'NONE', #284, #21, #13, .T. ) ;
#45 = ORIENTED_EDGE ( 'NONE', *, *, #97, .F. ) ;
#46 = DIRECTION ( 'NONE',  ( -0.0000000000000000000, -0.0000000000000000000, -1.000000000000000000 ) ) ;
#47 = DIRECTION ( 'NONE',  ( 0.0000000000000000000, 0.0000000000000000000, 1.000000000000000000 ) ) ;
#48 = LINE ( 'NONE', #30, #262 ) ;
#49 = CIRCLE ( 'NONE', #194, 0.03933062999999999837 ) ;
#50 = EDGE_LOOP ( 'NONE', ( #78, #285, #232, #29 ) ) ;
#51 = EDGE_LOOP ( 'NONE', ( #206, #235 ) ) ;
#52 = FACE_OUTER_BOUND ( 'NONE', #51, .T. ) ;
#53 = AXIS2_PLACEMENT_3D ( 'NONE', #198, #271, #217 ) ;
#54 = VERTEX_POINT ( 'NONE', #32 ) ;
#55 = EDGE_CURVE ( 'NONE', #121, #151, #255, .T. ) ;
#56 = DIRECTION ( 'NONE',  ( -1.224646799147352961E-16, -0.0000000000000000000, -1.000000000000000000 ) ) ;
#57 = ORIENTED_EDGE ( 'NONE', *, *, #77, .F. ) ;
#58 = DIRECTION ( 'NONE',  ( 0.0000000000000000000, 0.0000000000000000000, -1.000000000000000000 ) ) ;
#59 = ADVANCED_FACE ( 'NONE', ( #17 ), #213, .T. ) ;
#60 = DIRECTION ( 'NONE',  ( 1.000000000000000000, 0.0000000000000000000, 0.0000000000000000000 ) ) ;
#61 =( LENGTH_UNIT ( ) NAMED_UNIT ( * ) SI_UNIT ( $, .METRE. ) );
#62 = LINE ( 'NONE', #28, #127 ) ;
#63 = DIRECTION ( 'NONE',  ( -1.000000000000000000, 0.0000000000000000000, 0.0000000000000000000 ) ) ;
#64 =( NAMED_UNIT ( * ) PLANE_ANGLE_UNIT ( ) SI_UNIT ( $, .RADIAN. ) );
#65 = CONICAL_SURFACE ( 'NONE', #236, 0.03933062999999999837, 0.1745329251994338915 ) ;
#66 = LENGTH_MEASURE_WITH_UNIT ( LENGTH_MEASURE( 0.02539999999999999897 ), #257 );
#67 = DIRECTION ( 'NONE',  ( -1.000000000000000000, 0.0000000000000000000, 1.224646799147352714E-16 ) ) ;
#68 = CARTESIAN_POINT ( 'NONE',  ( 3.375016360238180974E-17, 0.0000000000000000000, 0.2755909999999999749 ) ) ;
#69 =( GEOMETRIC_REPRESENTATION_CONTEXT ( 3 ) GLOBAL_UNCERTAINTY_ASSIGNED_CONTEXT ( ( #115 ) ) GLOBAL_UNIT_ASSIGNED_CONTEXT ( ( #106, #64, #224 ) ) REPRESENTATION_CONTEXT ( 'NONE', 'WORKASPACE' ) );
#70 = VECTOR ( 'NONE', #299, 39.37007874015747433 ) ;
#71 = CLOSED_SHELL ( 'NONE', ( #282, #59, #139, #95, #153, #100, #294, #265, #39, #144 ) ) ;
#72 = CYLINDRICAL_SURFACE ( 'NONE', #4, 0.05905499999999998251 ) ;
#73 = PRODUCT_DEFINITION ( 'UNKNOWN', '', #278, #140 ) ;
#74 = ORIENTED_EDGE ( 'NONE', *, *, #165, .F. ) ;
#75 = AXIS2_PLACEMENT_3D ( 'NONE', #141, #290, #84 ) ;
#76 = ORIENTED_EDGE ( 'NONE', *, *, #77, .T. ) ;
#77 = EDGE_CURVE ( 'NONE', #173, #277, #149, .T. ) ;
#78 = ORIENTED_EDGE ( 'NONE', *, *, #233, .F. ) ;
#79 = ORIENTED_EDGE ( 'NONE', *, *, #193, .F. ) ;
#80 = PLANE ( 'NONE',  #81 ) ;
#81 = AXIS2_PLACEMENT_3D ( 'NONE', #238, #263, #245 ) ;
#82 = ORIENTED_EDGE ( 'NONE', *, *, #147, .F. ) ;
#83 = ORIENTED_EDGE ( 'NONE', *, *, #252, .T. ) ;
#84 = DIRECTION ( 'NONE',  ( -1.000000000000000000, 0.0000000000000000000, 1.224646799147352714E-16 ) ) ;
#85 = CARTESIAN_POINT ( 'NONE',  ( 0.0000000000000000000, 0.0000000000000000000, 0.0000000000000000000 ) ) ;
#86 = CARTESIAN_POINT ( 'NONE',  ( -0.05905499999999998251, 0.0000000000000000000, 1.496062999999999921 ) ) ;
#87 = SURFACE_STYLE_USAGE ( .BOTH. , #161 ) ;
#88 = VECTOR ( 'NONE', #199, 39.37007874015748854 ) ;
#89 = CARTESIAN_POINT ( 'NONE',  ( 4.744936408131242506E-17, 0.0000000000000000000, 0.3874534609844122457 ) ) ;
#90 = ORIENTED_EDGE ( 'NONE', *, *, #216, .F. ) ;
#91 = APPLICATION_CONTEXT ( 'automotive_design' ) ;
#92 = EDGE_CURVE ( 'NONE', #152, #113, #10, .T. ) ;
#93 = COLOUR_RGB ( '',0.7921568627450980005, 0.8196078431372548767, 0.9333333333333333481 ) ;
#94 = AXIS2_PLACEMENT_3D ( 'NONE', #37, #136, #63 ) ;
#95 = ADVANCED_FACE ( 'NONE', ( #131 ), #240, .T. ) ;
#96 =( NAMED_UNIT ( * ) SI_UNIT ( $, .STERADIAN. ) SOLID_ANGLE_UNIT ( ) );
#97 = EDGE_CURVE ( 'NONE', #173, #113, #62, .T. ) ;
#98 = FILL_AREA_STYLE_COLOUR ( '', #293 ) ;
#99 =( NAMED_UNIT ( * ) SI_UNIT ( $, .STERADIAN. ) SOLID_ANGLE_UNIT ( ) );
#100 = ADVANCED_FACE ( 'NONE', ( #52 ), #80, .T. ) ;
#101 = CIRCLE ( 'NONE', #104, 0.03933062999999999837 ) ;
#102 = EDGE_LOOP ( 'NONE', ( #142, #210 ) ) ;
#103 = LINE ( 'NONE', #288, #1 ) ;
#104 = AXIS2_PLACEMENT_3D ( 'NONE', #11, #56, #14 ) ;
#105 = EDGE_CURVE ( 'NONE', #121, #152, #159, .T. ) ;
#106 =( CONVERSION_BASED_UNIT ( 'INCH', #34 ) LENGTH_UNIT ( ) NAMED_UNIT ( #272 ) );
#107 = DIRECTION ( 'NONE',  ( -1.224646799147352961E-16, -0.0000000000000000000, -1.000000000000000000 ) ) ;
#108 = CARTESIAN_POINT ( 'NONE',  ( -0.04405500000000001082, 0.0000000000000000000, 1.496062999999999921 ) ) ;
#109 = DIRECTION ( 'NONE',  ( 1.224646799147352961E-16, 0.0000000000000000000, 1.000000000000000000 ) ) ;
#110 = AXIS2_PLACEMENT_3D ( 'NONE', #202, #107, #177 ) ;
#111 = CARTESIAN_POINT ( 'NONE',  ( -0.05905499999999998251, 0.0000000000000000000, 1.481063000000000240 ) ) ;
#112 = FACE_OUTER_BOUND ( 'NONE', #150, .T. ) ;
#113 = VERTEX_POINT ( 'NONE', #9 ) ;
#114 = DIRECTION ( 'NONE',  ( -1.224646799147352961E-16, -0.0000000000000000000, -1.000000000000000000 ) ) ;
#115 = UNCERTAINTY_MEASURE_WITH_UNIT (LENGTH_MEASURE( 1.000000000000000082E-05 ), #106, 'distance_accuracy_value', 'NONE');
#116 = DIRECTION ( 'NONE',  ( -0.7071067811865536790, 0.0000000000000000000, -0.7071067811865412445 ) ) ;
#117 = ORIENTED_EDGE ( 'NONE', *, *, #259, .F. ) ;
#118 = DIRECTION ( 'NONE',  ( 1.000000000000000000, 0.0000000000000000000, 0.0000000000000000000 ) ) ;
#119 =( NAMED_UNIT ( * ) PLANE_ANGLE_UNIT ( ) SI_UNIT ( $, .RADIAN. ) );
#120 = SURFACE_SIDE_STYLE ('',( #18 ) ) ;
#121 = VERTEX_POINT ( 'NONE', #111 ) ;
#122 = PRESENTATION_STYLE_ASSIGNMENT (( #188 ) ) ;
#123 = CARTESIAN_POINT ( 'NONE',  ( -0.03933062999999996368, 4.816613013794885432E-18, 0.2755909999999999749 ) ) ;
#124 = CONICAL_SURFACE ( 'NONE', #178, 0.04405500000000001082, 0.7853981633974570498 ) ;
#125 = CARTESIAN_POINT ( 'NONE',  ( 0.04405500000000001082, 6.313666573004179469E-18, 1.496062999999999921 ) ) ;
#126 = VERTEX_POINT ( 'NONE', #125 ) ;
#127 = VECTOR ( 'NONE', #219, 39.37007874015748143 ) ;
#128 = ORIENTED_EDGE ( 'NONE', *, *, #105, .T. ) ;
#129 = DIMENSIONAL_EXPONENTS ( 1.000000000000000000, 0.0000000000000000000, 0.0000000000000000000, 0.0000000000000000000, 0.0000000000000000000, 0.0000000000000000000, 0.0000000000000000000 ) ;
#130 = CARTESIAN_POINT ( 'NONE',  ( 3.375016360238180974E-17, 0.0000000000000000000, 0.2755909999999999749 ) ) ;
#131 = FACE_OUTER_BOUND ( 'NONE', #26, .T. ) ;
#132 = DIRECTION ( 'NONE',  ( 1.000000000000000000, 0.0000000000000000000, 0.0000000000000000000 ) ) ;
#133 = AXIS2_PLACEMENT_3D ( 'NONE', #289, #268, #36 ) ;
#134 = PRODUCT ( 'Micro_GEMM-020-4X', 'Micro_GEMM-020-4X', '', ( #2 ) ) ;
#135 = LINE ( 'NONE', #108, #253 ) ;
#136 = DIRECTION ( 'NONE',  ( 0.0000000000000000000, 0.0000000000000000000, -1.000000000000000000 ) ) ;
#137 = DIRECTION ( 'NONE',  ( -1.000000000000000000, 0.0000000000000000000, 0.0000000000000000000 ) ) ;
#138 = EDGE_CURVE ( 'NONE', #54, #121, #135, .T. ) ;
#139 = ADVANCED_FACE ( 'NONE', ( #201 ), #124, .T. ) ;
#140 = PRODUCT_DEFINITION_CONTEXT ( 'detailed design', #91, 'design' ) ;
#141 = CARTESIAN_POINT ( 'NONE',  ( 0.0000000000000000000, 0.0000000000000000000, 0.0000000000000000000 ) ) ;
#142 = ORIENTED_EDGE ( 'NONE', *, *, #44, .T. ) ;
#143 = DIRECTION ( 'NONE',  ( 0.0000000000000000000, 0.0000000000000000000, 1.000000000000000000 ) ) ;
#144 = ADVANCED_FACE ( 'NONE', ( #258 ), #260, .F. ) ;
#145 = PRODUCT_DEFINITION_SHAPE ( 'NONE', 'NONE',  #73 ) ;
#146 = AXIS2_PLACEMENT_3D ( 'NONE', #68, #176, #137 ) ;
#147 = EDGE_CURVE ( 'NONE', #277, #151, #209, .T. ) ;
#148 = DIRECTION ( 'NONE',  ( -1.000000000000000000, 0.0000000000000000000, 1.224646799147352714E-16 ) ) ;
#149 = CIRCLE ( 'NONE', #146, 0.03933062999999999837 ) ;
#150 = EDGE_LOOP ( 'NONE', ( #82, #57, #239, #83 ) ) ;
#151 = VERTEX_POINT ( 'NONE', #225 ) ;
#152 = VERTEX_POINT ( 'NONE', #212 ) ;
#153 = ADVANCED_FACE ( 'NONE', ( #234 ), #72, .T. ) ;
#154 = DIRECTION ( 'NONE',  ( 0.0000000000000000000, 0.0000000000000000000, 1.000000000000000000 ) ) ;
#155 = CARTESIAN_POINT ( 'NONE',  ( 0.03933062999999999837, 4.816613013794885432E-18, 0.0000000000000000000 ) ) ;
#156 = DIRECTION ( 'NONE',  ( -1.224646799147352961E-16, -0.0000000000000000000, -1.000000000000000000 ) ) ;
#157 = CARTESIAN_POINT ( 'NONE',  ( 0.0000000000000000000, 0.0000000000000000000, 0.0000000000000000000 ) ) ;
#158 = CARTESIAN_POINT ( 'NONE',  ( 3.375016360238180974E-17, 0.0000000000000000000, 0.2755909999999999749 ) ) ;
#159 = CIRCLE ( 'NONE', #133, 0.05905499999999998251 ) ;
#160 = CIRCLE ( 'NONE', #203, 0.04405500000000001082 ) ;
#161 = SURFACE_SIDE_STYLE ('',( #269 ) ) ;
#162 = CYLINDRICAL_SURFACE ( 'NONE', #75, 0.03933062999999999837 ) ;
#163 = AXIS2_PLACEMENT_3D ( 'NONE', #249, #58, #132 ) ;
#164 =( LENGTH_UNIT ( ) NAMED_UNIT ( * ) SI_UNIT ( $, .METRE. ) );
#165 = EDGE_CURVE ( 'NONE', #173, #21, #48, .T. ) ;
#166 = EDGE_CURVE ( 'NONE', #277, #284, #103, .T. ) ;
#167 = CIRCLE ( 'NONE', #35, 0.04405500000000001082 ) ;
#168 = ORIENTED_EDGE ( 'NONE', *, *, #259, .T. ) ;
#169 = APPLICATION_CONTEXT ( 'automotive_design' ) ;
#170 = CIRCLE ( 'NONE', #163, 0.05905499999999998251 ) ;
#171 = EDGE_LOOP ( 'NONE', ( #296, #230, #254, #264 ) ) ;
#172 = DIRECTION ( 'NONE',  ( 1.000000000000000000, 0.0000000000000000000, 0.0000000000000000000 ) ) ;
#173 = VERTEX_POINT ( 'NONE', #218 ) ;
#174 = CARTESIAN_POINT ( 'NONE',  ( -0.03933062999999999837, 0.0000000000000000000, 9.633226027589769323E-18 ) ) ;
#175 = DIRECTION ( 'NONE',  ( -1.000000000000000000, 0.0000000000000000000, 0.0000000000000000000 ) ) ;
#176 = DIRECTION ( 'NONE',  ( -1.224646799147352961E-16, -0.0000000000000000000, -1.000000000000000000 ) ) ;
#177 = DIRECTION ( 'NONE',  ( 1.000000000000000000, 0.0000000000000000000, 0.0000000000000000000 ) ) ;
#178 = AXIS2_PLACEMENT_3D ( 'NONE', #291, #25, #283 ) ;
#179 = CARTESIAN_POINT ( 'NONE',  ( 0.05905499999999998251, 7.232151672364692341E-18, 1.496062999999999921 ) ) ;
#180 = DIRECTION ( 'NONE',  ( 1.000000000000000000, 0.0000000000000000000, 0.0000000000000000000 ) ) ;
#181 = ORIENTED_EDGE ( 'NONE', *, *, #55, .T. ) ;
#182 =( CONVERSION_BASED_UNIT ( 'INCH', #226 ) LENGTH_UNIT ( ) NAMED_UNIT ( #222 ) );
#183 = EDGE_LOOP ( 'NONE', ( #74, #76, #298, #90 ) ) ;
#184 = AXIS2_PLACEMENT_3D ( 'NONE', #89, #196, #172 ) ;
#185 = DIRECTION ( 'NONE',  ( 1.224646799147352961E-16, 0.0000000000000000000, 1.000000000000000000 ) ) ;
#186 = DIRECTION ( 'NONE',  ( -1.224646799147352961E-16, -0.0000000000000000000, -1.000000000000000000 ) ) ;
#187 =( CONVERSION_BASED_UNIT ( 'INCH', #66 ) LENGTH_UNIT ( ) NAMED_UNIT ( #129 ) );
#188 = SURFACE_STYLE_USAGE ( .BOTH. , #120 ) ;
#189 = ORIENTED_EDGE ( 'NONE', *, *, #252, .F. ) ;
#190 = AXIS2_PLACEMENT_3D ( 'NONE', #12, #185, #118 ) ;
#191 = ORIENTED_EDGE ( 'NONE', *, *, #275, .F. ) ;
#192 = ORIENTED_EDGE ( 'NONE', *, *, #138, .T. ) ;
#193 = EDGE_CURVE ( 'NONE', #126, #152, #250, .T. ) ;
#194 = AXIS2_PLACEMENT_3D ( 'NONE', #130, #156, #242 ) ;
#195 = AXIS2_PLACEMENT_3D ( 'NONE', #211, #228, #207 ) ;
#196 = DIRECTION ( 'NONE',  ( -1.224646799147352961E-16, -0.0000000000000000000, -1.000000000000000000 ) ) ;
#197 = ORIENTED_EDGE ( 'NONE', *, *, #55, .F. ) ;
#198 = CARTESIAN_POINT ( 'NONE',  ( 0.0000000000000000000, 0.0000000000000000000, 1.496062999999999921 ) ) ;
#199 = DIRECTION ( 'NONE',  ( 0.7071067811865536790, 8.659560562355008046E-17, -0.7071067811865412445 ) ) ;
#200 = CARTESIAN_POINT ( 'NONE',  ( 0.0000000000000000000, 0.0000000000000000000, 1.496062999999999921 ) ) ;
#201 = FACE_OUTER_BOUND ( 'NONE', #50, .T. ) ;
#202 = CARTESIAN_POINT ( 'NONE',  ( 4.744936408131242506E-17, 0.0000000000000000000, 0.3874534609844122457 ) ) ;
#203 = AXIS2_PLACEMENT_3D ( 'NONE', #267, #143, #60 ) ;
#204 = CARTESIAN_POINT ( 'NONE',  ( 0.04405500000000001082, 5.395181473643666598E-18, 1.496062999999999921 ) ) ;
#205 = EDGE_LOOP ( 'NONE', ( #31, #168, #181, #189 ) ) ;
#206 = ORIENTED_EDGE ( 'NONE', *, *, #38, .T. ) ;
#207 = DIRECTION ( 'NONE',  ( 1.000000000000000000, 0.0000000000000000000, 0.0000000000000000000 ) ) ;
#208 = PRODUCT_RELATED_PRODUCT_CATEGORY ( 'part', '', ( #134 ) ) ;
#209 = LINE ( 'NONE', #123, #70 ) ;
#210 = ORIENTED_EDGE ( 'NONE', *, *, #216, .T. ) ;
#211 = CARTESIAN_POINT ( 'NONE',  ( 0.0000000000000000000, 0.0000000000000000000, 0.0000000000000000000 ) ) ;
#212 = CARTESIAN_POINT ( 'NONE',  ( 0.05905499999999998251, 7.232151672364692341E-18, 1.481063000000000240 ) ) ;
#213 = CONICAL_SURFACE ( 'NONE', #190, 0.03933062999999999837, 0.1745329251994338915 ) ;
#214 =( GEOMETRIC_REPRESENTATION_CONTEXT ( 3 ) GLOBAL_UNCERTAINTY_ASSIGNED_CONTEXT ( ( #43 ) ) GLOBAL_UNIT_ASSIGNED_CONTEXT ( ( #182, #119, #99 ) ) REPRESENTATION_CONTEXT ( 'NONE', 'WORKASPACE' ) );
#215 = MANIFOLD_SOLID_BREP ( 'Cut-Revolve1', #71 ) ;
#216 = EDGE_CURVE ( 'NONE', #21, #284, #101, .T. ) ;
#217 = DIRECTION ( 'NONE',  ( -1.000000000000000000, 0.0000000000000000000, 0.0000000000000000000 ) ) ;
#218 = CARTESIAN_POINT ( 'NONE',  ( 0.03933063000000002613, 0.0000000000000000000, 0.2755909999999999749 ) ) ;
#219 = DIRECTION ( 'NONE',  ( 0.1736481776669313859, 0.0000000000000000000, 0.9848077530122077983 ) ) ;
#220 =( GEOMETRIC_REPRESENTATION_CONTEXT ( 3 ) GLOBAL_UNCERTAINTY_ASSIGNED_CONTEXT ( ( #297 ) ) GLOBAL_UNIT_ASSIGNED_CONTEXT ( ( #187, #256, #96 ) ) REPRESENTATION_CONTEXT ( 'NONE', 'WORKASPACE' ) );
#221 = CARTESIAN_POINT ( 'NONE',  ( -0.03933062999999996368, 6.024382343079788886E-18, 0.2755909999999999749 ) ) ;
#222 = DIMENSIONAL_EXPONENTS ( 1.000000000000000000, 0.0000000000000000000, 0.0000000000000000000, 0.0000000000000000000, 0.0000000000000000000, 0.0000000000000000000, 0.0000000000000000000 ) ;
#223 = FILL_AREA_STYLE ('',( #295 ) ) ;
#224 =( NAMED_UNIT ( * ) SI_UNIT ( $, .STERADIAN. ) SOLID_ANGLE_UNIT ( ) );
#225 = CARTESIAN_POINT ( 'NONE',  ( -0.05905499999999992700, 0.0000000000000000000, 0.3874534609844122457 ) ) ;
#226 = LENGTH_MEASURE_WITH_UNIT ( LENGTH_MEASURE( 0.02539999999999999897 ), #164 );
#227 = CYLINDRICAL_SURFACE ( 'NONE', #23, 0.03933062999999999837 ) ;
#228 = DIRECTION ( 'NONE',  ( 0.0000000000000000000, 0.0000000000000000000, 1.000000000000000000 ) ) ;
#229 = VECTOR ( 'NONE', #248, 39.37007874015748143 ) ;
#230 = ORIENTED_EDGE ( 'NONE', *, *, #165, .T. ) ;
#231 = CIRCLE ( 'NONE', #110, 0.05905499999999998251 ) ;
#232 = ORIENTED_EDGE ( 'NONE', *, *, #105, .F. ) ;
#233 = EDGE_CURVE ( 'NONE', #126, #54, #167, .T. ) ;
#234 = FACE_OUTER_BOUND ( 'NONE', #205, .T. ) ;
#235 = ORIENTED_EDGE ( 'NONE', *, *, #233, .T. ) ;
#236 = AXIS2_PLACEMENT_3D ( 'NONE', #158, #109, #180 ) ;
#237 = MECHANICAL_DESIGN_GEOMETRIC_PRESENTATION_REPRESENTATION (  '', ( #244 ), #69 ) ;
#238 = CARTESIAN_POINT ( 'NONE',  ( 0.0000000000000000000, 0.0000000000000000000, 1.496062999999999921 ) ) ;
#239 = ORIENTED_EDGE ( 'NONE', *, *, #97, .T. ) ;
#240 = CYLINDRICAL_SURFACE ( 'NONE', #53, 0.05905499999999998251 ) ;
#241 = PRESENTATION_STYLE_ASSIGNMENT (( #87 ) ) ;
#242 = DIRECTION ( 'NONE',  ( -1.000000000000000000, 0.0000000000000000000, 0.0000000000000000000 ) ) ;
#243 = DIRECTION ( 'NONE',  ( -1.224646799147352961E-16, -0.0000000000000000000, -1.000000000000000000 ) ) ;
#244 = STYLED_ITEM ( 'NONE', ( #241 ), #215 ) ;
#245 = DIRECTION ( 'NONE',  ( 1.000000000000000000, 0.0000000000000000000, -0.0000000000000000000 ) ) ;
#246 = MECHANICAL_DESIGN_GEOMETRIC_PRESENTATION_REPRESENTATION (  '', ( #24 ), #220 ) ;
#247 = FACE_OUTER_BOUND ( 'NONE', #286, .T. ) ;
#248 = DIRECTION ( 'NONE',  ( -0.0000000000000000000, -0.0000000000000000000, -1.000000000000000000 ) ) ;
#249 = CARTESIAN_POINT ( 'NONE',  ( 0.0000000000000000000, 0.0000000000000000000, 1.481063000000000240 ) ) ;
#250 = LINE ( 'NONE', #204, #88 ) ;
#251 = ADVANCED_BREP_SHAPE_REPRESENTATION ( 'Micro_GEMM-020-4X', ( #215, #195 ), #214 ) ;
#252 = EDGE_CURVE ( 'NONE', #113, #151, #276, .T. ) ;
#253 = VECTOR ( 'NONE', #116, 39.37007874015748854 ) ;
#254 = ORIENTED_EDGE ( 'NONE', *, *, #44, .F. ) ;
#255 = LINE ( 'NONE', #86, #229 ) ;
#256 =( NAMED_UNIT ( * ) PLANE_ANGLE_UNIT ( ) SI_UNIT ( $, .RADIAN. ) );
#257 =( LENGTH_UNIT ( ) NAMED_UNIT ( * ) SI_UNIT ( $, .METRE. ) );
#258 = FACE_OUTER_BOUND ( 'NONE', #102, .T. ) ;
#259 = EDGE_CURVE ( 'NONE', #152, #121, #170, .T. ) ;
#260 = PLANE ( 'NONE',  #287 ) ;
#261 = EDGE_CURVE ( 'NONE', #277, #173, #49, .T. ) ;
#262 = VECTOR ( 'NONE', #114, 39.37007874015748143 ) ;
#263 = DIRECTION ( 'NONE',  ( 0.0000000000000000000, 0.0000000000000000000, 1.000000000000000000 ) ) ;
#264 = ORIENTED_EDGE ( 'NONE', *, *, #166, .F. ) ;
#265 = ADVANCED_FACE ( 'NONE', ( #112 ), #65, .T. ) ;
#266 = DIRECTION ( 'NONE',  ( 1.000000000000000000, 0.0000000000000000000, 0.0000000000000000000 ) ) ;
#267 = CARTESIAN_POINT ( 'NONE',  ( 0.0000000000000000000, 0.0000000000000000000, 1.496062999999999921 ) ) ;
#268 = DIRECTION ( 'NONE',  ( 0.0000000000000000000, 0.0000000000000000000, -1.000000000000000000 ) ) ;
#269 = SURFACE_STYLE_FILL_AREA ( #223 ) ;
#270 = AXIS2_PLACEMENT_3D ( 'NONE', #33, #186, #148 ) ;
#271 = DIRECTION ( 'NONE',  ( -0.0000000000000000000, -0.0000000000000000000, -1.000000000000000000 ) ) ;
#272 = DIMENSIONAL_EXPONENTS ( 1.000000000000000000, 0.0000000000000000000, 0.0000000000000000000, 0.0000000000000000000, 0.0000000000000000000, 0.0000000000000000000, 0.0000000000000000000 ) ;
#273 = DIRECTION ( 'NONE',  ( -0.0000000000000000000, -0.0000000000000000000, -1.000000000000000000 ) ) ;
#274 = ORIENTED_EDGE ( 'NONE', *, *, #38, .F. ) ;
#275 = EDGE_CURVE ( 'NONE', #151, #113, #231, .T. ) ;
#276 = CIRCLE ( 'NONE', #184, 0.05905499999999998251 ) ;
#277 = VERTEX_POINT ( 'NONE', #221 ) ;
#278 = PRODUCT_DEFINITION_FORMATION_WITH_SPECIFIED_SOURCE ( 'ANY', '', #134, .NOT_KNOWN. ) ;
#279 = FILL_AREA_STYLE ('',( #98 ) ) ;
#280 = SHAPE_DEFINITION_REPRESENTATION ( #145, #251 ) ;
#281 = CONICAL_SURFACE ( 'NONE', #94, 0.04405500000000001082, 0.7853981633974570498 ) ;
#282 = ADVANCED_FACE ( 'NONE', ( #8 ), #162, .T. ) ;
#283 = DIRECTION ( 'NONE',  ( -1.000000000000000000, 0.0000000000000000000, 0.0000000000000000000 ) ) ;
#284 = VERTEX_POINT ( 'NONE', #174 ) ;
#285 = ORIENTED_EDGE ( 'NONE', *, *, #193, .T. ) ;
#286 = EDGE_LOOP ( 'NONE', ( #79, #274, #192, #117 ) ) ;
#287 = AXIS2_PLACEMENT_3D ( 'NONE', #85, #47, #20 ) ;
#288 = CARTESIAN_POINT ( 'NONE',  ( -0.03933062999999999837, 0.0000000000000000000, 4.816613013794884661E-18 ) ) ;
#289 = CARTESIAN_POINT ( 'NONE',  ( 0.0000000000000000000, 0.0000000000000000000, 1.481063000000000240 ) ) ;
#290 = DIRECTION ( 'NONE',  ( -1.224646799147352961E-16, -0.0000000000000000000, -1.000000000000000000 ) ) ;
#291 = CARTESIAN_POINT ( 'NONE',  ( 0.0000000000000000000, 0.0000000000000000000, 1.496062999999999921 ) ) ;
#292 = VECTOR ( 'NONE', #273, 39.37007874015748143 ) ;
#293 = COLOUR_RGB ( '',0.7921568627450980005, 0.8196078431372548767, 0.9333333333333333481 ) ;
#294 = ADVANCED_FACE ( 'NONE', ( #247 ), #281, .T. ) ;
#295 = FILL_AREA_STYLE_COLOUR ( '', #93 ) ;
#296 = ORIENTED_EDGE ( 'NONE', *, *, #261, .T. ) ;
#297 = UNCERTAINTY_MEASURE_WITH_UNIT (LENGTH_MEASURE( 1.000000000000000082E-05 ), #187, 'distance_accuracy_value', 'NONE');
#298 = ORIENTED_EDGE ( 'NONE', *, *, #166, .T. ) ;
#299 = DIRECTION ( 'NONE',  ( -0.1736481776669311916, 2.126576849575783316E-17, 0.9848077530122080203 ) ) ;
ENDSEC;
END-ISO-10303-21;
