ISO-10303-21;
HEADER;
FILE_DESCRIPTION (( 'STEP AP214' ),
    '1' );
FILE_NAME ('81366.STEP',
    '2023-06-23T00:43:56',
    ( '' ),
    ( '' ),
    'SwSTEP 2.0',
    'SolidWorks 2023',
    '' );
FILE_SCHEMA (( 'AUTOMOTIVE_DESIGN' ));
ENDSEC;

DATA;
#1 = PRESENTATION_STYLE_ASSIGNMENT (( #134 ) ) ;
#2 = ADVANCED_FACE ( 'NONE', ( #27 ), #105, .F. ) ;
#3 = ORIENTED_EDGE ( 'NONE', *, *, #268, .T. ) ;
#4 = CARTESIAN_POINT ( 'NONE',  ( 0.000000000000000000, 0.000000000000000000, 0.000000000000000000 ) ) ;
#5 = COLOUR_RGB ( '',1.000000000000000000, 0.000000000000000000, 0.000000000000000000 ) ;
#6 = SURFACE_STYLE_FILL_AREA ( #181 ) ;
#7 = DIRECTION ( 'NONE',  ( -1.000000000000000000, 0.000000000000000000, 0.000000000000000000 ) ) ;
#8 = DIRECTION ( 'NONE',  ( 0.000000000000000000, -0.000000000000000000, 1.000000000000000000 ) ) ;
#9 = FILL_AREA_STYLE ('',( #89 ) ) ;
#10 = MECHANICAL_DESIGN_GEOMETRIC_PRESENTATION_REPRESENTATION (  '', ( #35 ), #191 ) ;
#11 =( CONVERSION_BASED_UNIT ( 'INCH', #275 ) LENGTH_UNIT ( ) NAMED_UNIT ( #53 ) );
#12 = EDGE_CURVE ( 'NONE', #42, #82, #221, .T. ) ;
#13 = CYLINDRICAL_SURFACE ( 'NONE', #233, 0.09374999999999983347 ) ;
#14 =( NAMED_UNIT ( * ) SI_UNIT ( $, .STERADIAN. ) SOLID_ANGLE_UNIT ( ) );
#15 = COLOUR_RGB ( '',0.7921568627450980005, 0.8196078431372548767, 0.9333333333333333481 ) ;
#16 = CARTESIAN_POINT ( 'NONE',  ( 0.000000000000000000, 0.000000000000000000, -0.09375000000000001388 ) ) ;
#17 =( GEOMETRIC_REPRESENTATION_CONTEXT ( 3 ) GLOBAL_UNCERTAINTY_ASSIGNED_CONTEXT ( ( #206 ) ) GLOBAL_UNIT_ASSIGNED_CONTEXT ( ( #168, #208, #284 ) ) REPRESENTATION_CONTEXT ( 'NONE', 'WORKASPACE' ) );
#18 = AXIS2_PLACEMENT_3D ( 'NONE', #245, #226, #8 ) ;
#19 = MANIFOLD_SOLID_BREP ( 'Revolve - Cutting Edge', #161 ) ;
#20 = ORIENTED_EDGE ( 'NONE', *, *, #69, .F. ) ;
#21 = ADVANCED_FACE ( 'NONE', ( #294 ), #154, .T. ) ;
#22 = ORIENTED_EDGE ( 'NONE', *, *, #69, .T. ) ;
#23 = FACE_OUTER_BOUND ( 'NONE', #122, .T. ) ;
#24 = VERTEX_POINT ( 'NONE', #104 ) ;
#25 = FACE_OUTER_BOUND ( 'NONE', #169, .T. ) ;
#26 = AXIS2_PLACEMENT_3D ( 'NONE', #70, #273, #138 ) ;
#27 = FACE_OUTER_BOUND ( 'NONE', #309, .T. ) ;
#28 = ORIENTED_EDGE ( 'NONE', *, *, #242, .F. ) ;
#29 = APPLICATION_PROTOCOL_DEFINITION ( 'draft international standard', 'automotive_design', 1998, #108 ) ;
#30 = VECTOR ( 'NONE', #68, 39.37007874015748143 ) ;
#31 = CARTESIAN_POINT ( 'NONE',  ( 0.000000000000000000, 1.000000000000000000, 0.000000000000000000 ) ) ;
#32 = DIMENSIONAL_EXPONENTS ( 1.000000000000000000, 0.000000000000000000, 0.000000000000000000, 0.000000000000000000, 0.000000000000000000, 0.000000000000000000, 0.000000000000000000 ) ;
#33 = COLOUR_RGB ( '',1.000000000000000000, 0.000000000000000000, 0.000000000000000000 ) ;
#34 = PRESENTATION_STYLE_ASSIGNMENT (( #295 ) ) ;
#35 = STYLED_ITEM ( 'NONE', ( #48 ), #113 ) ;
#36 =( GEOMETRIC_REPRESENTATION_CONTEXT ( 3 ) GLOBAL_UNCERTAINTY_ASSIGNED_CONTEXT ( ( #281 ) ) GLOBAL_UNIT_ASSIGNED_CONTEXT ( ( #109, #292, #14 ) ) REPRESENTATION_CONTEXT ( 'NONE', 'WORKASPACE' ) );
#37 = CARTESIAN_POINT ( 'NONE',  ( 3.061616997868383141E-16, 2.500000000000000000, 0.000000000000000000 ) ) ;
#38 = DIRECTION ( 'NONE',  ( 2.041077998578922341E-16, 1.000000000000000000, -0.000000000000000000 ) ) ;
#39 = ADVANCED_FACE ( 'NONE', ( #23 ), #85, .F. ) ;
#40 = ORIENTED_EDGE ( 'NONE', *, *, #12, .T. ) ;
#41 =( NAMED_UNIT ( * ) SI_UNIT ( $, .STERADIAN. ) SOLID_ANGLE_UNIT ( ) );
#42 = VERTEX_POINT ( 'NONE', #263 ) ;
#43 = ORIENTED_EDGE ( 'NONE', *, *, #194, .T. ) ;
#44 = CYLINDRICAL_SURFACE ( 'NONE', #164, 0.09374999999999983347 ) ;
#45 = VECTOR ( 'NONE', #297, 39.37007874015748143 ) ;
#46 = DIRECTION ( 'NONE',  ( -0.000000000000000000, -1.000000000000000000, -0.000000000000000000 ) ) ;
#47 = ORIENTED_EDGE ( 'NONE', *, *, #194, .F. ) ;
#48 = PRESENTATION_STYLE_ASSIGNMENT (( #215 ) ) ;
#49 =( NAMED_UNIT ( * ) PLANE_ANGLE_UNIT ( ) SI_UNIT ( $, .RADIAN. ) );
#50 = DIRECTION ( 'NONE',  ( 1.000000000000000000, -2.041077998578922341E-16, 0.000000000000000000 ) ) ;
#51 =( LENGTH_UNIT ( ) NAMED_UNIT ( * ) SI_UNIT ( $, .METRE. ) );
#52 =( CONVERSION_BASED_UNIT ( 'INCH', #153 ) LENGTH_UNIT ( ) NAMED_UNIT ( #231 ) );
#53 = DIMENSIONAL_EXPONENTS ( 1.000000000000000000, 0.000000000000000000, 0.000000000000000000, 0.000000000000000000, 0.000000000000000000, 0.000000000000000000, 0.000000000000000000 ) ;
#54 = PRESENTATION_LAYER_ASSIGNMENT (  '', '', ( #88 ) ) ;
#55 = DIRECTION ( 'NONE',  ( 0.000000000000000000, 0.000000000000000000, 1.000000000000000000 ) ) ;
#56 = PRODUCT_DEFINITION_CONTEXT ( 'detailed design', #108, 'design' ) ;
#57 = DIRECTION ( 'NONE',  ( 2.041077998578922094E-16, 1.000000000000000000, -0.000000000000000000 ) ) ;
#58 =( LENGTH_UNIT ( ) NAMED_UNIT ( * ) SI_UNIT ( $, .METRE. ) );
#59 = PRESENTATION_STYLE_ASSIGNMENT (( #124 ) ) ;
#60 = ORIENTED_EDGE ( 'NONE', *, *, #280, .F. ) ;
#61 = ORIENTED_EDGE ( 'NONE', *, *, #224, .F. ) ;
#62 =( NAMED_UNIT ( * ) PLANE_ANGLE_UNIT ( ) SI_UNIT ( $, .RADIAN. ) );
#63 = APPLICATION_CONTEXT ( 'automotive_design' ) ;
#64 = DIRECTION ( 'NONE',  ( 2.041077998578922094E-16, 1.000000000000000000, -0.000000000000000000 ) ) ;
#65 = CIRCLE ( 'NONE', #250, 0.09374999999999968081 ) ;
#66 =( CONVERSION_BASED_UNIT ( 'INCH', #112 ) LENGTH_UNIT ( ) NAMED_UNIT ( #115 ) );
#67 =( LENGTH_UNIT ( ) NAMED_UNIT ( * ) SI_UNIT ( $, .METRE. ) );
#68 = DIRECTION ( 'NONE',  ( -0.000000000000000000, -1.000000000000000000, -0.000000000000000000 ) ) ;
#69 = EDGE_CURVE ( 'NONE', #102, #147, #218, .T. ) ;
#70 = CARTESIAN_POINT ( 'NONE',  ( 0.000000000000000000, 1.000000000000000000, 0.000000000000000000 ) ) ;
#71 =( GEOMETRIC_REPRESENTATION_CONTEXT ( 3 ) GLOBAL_UNCERTAINTY_ASSIGNED_CONTEXT ( ( #235 ) ) GLOBAL_UNIT_ASSIGNED_CONTEXT ( ( #52, #190, #276 ) ) REPRESENTATION_CONTEXT ( 'NONE', 'WORKASPACE' ) );
#72 = UNCERTAINTY_MEASURE_WITH_UNIT (LENGTH_MEASURE( 1.000000000000000082E-05 ), #184, 'distance_accuracy_value', 'NONE');
#73 = ADVANCED_FACE ( 'NONE', ( #25 ), #44, .T. ) ;
#74 = CARTESIAN_POINT ( 'NONE',  ( 0.000000000000000000, 0.000000000000000000, 0.000000000000000000 ) ) ;
#75 = COLOUR_RGB ( '',0.7921568627450980005, 0.8196078431372548767, 0.9333333333333333481 ) ;
#76 = STYLED_ITEM ( 'NONE', ( #107 ), #162 ) ;
#77 = PRODUCT_DEFINITION_SHAPE ( 'NONE', 'NONE',  #204 ) ;
#78 = ORIENTED_EDGE ( 'NONE', *, *, #302, .T. ) ;
#79 = ORIENTED_EDGE ( 'NONE', *, *, #287, .T. ) ;
#80 = DIRECTION ( 'NONE',  ( -0.000000000000000000, -1.000000000000000000, -0.000000000000000000 ) ) ;
#81 = UNCERTAINTY_MEASURE_WITH_UNIT (LENGTH_MEASURE( 1.000000000000000082E-05 ), #66, 'distance_accuracy_value', 'NONE');
#82 = VERTEX_POINT ( 'NONE', #270 ) ;
#83 = LENGTH_MEASURE_WITH_UNIT ( LENGTH_MEASURE( 0.02539999999999999897 ), #130 );
#84 = DIRECTION ( 'NONE',  ( -1.000000000000000000, 2.041077998578922341E-16, 0.000000000000000000 ) ) ;
#85 = PLANE ( 'NONE',  #232 ) ;
#86 = ORIENTED_EDGE ( 'NONE', *, *, #187, .F. ) ;
#87 = CARTESIAN_POINT ( 'NONE',  ( 1.148106374200643401E-17, 0.000000000000000000, 0.09374999999999998612 ) ) ;
#88 = STYLED_ITEM ( 'NONE', ( #59 ), #234 ) ;
#89 = FILL_AREA_STYLE_COLOUR ( '', #179 ) ;
#90 = DIRECTION ( 'NONE',  ( 2.041077998578922094E-16, 1.000000000000000000, -0.000000000000000000 ) ) ;
#91 = SURFACE_STYLE_FILL_AREA ( #227 ) ;
#92 = CARTESIAN_POINT ( 'NONE',  ( -0.09374999999999952816, 2.500000000000000000, 0.000000000000000000 ) ) ;
#93 = AXIS2_PLACEMENT_3D ( 'NONE', #100, #80, #286 ) ;
#94 = AXIS2_PLACEMENT_3D ( 'NONE', #74, #143, #254 ) ;
#95 = AXIS2_PLACEMENT_3D ( 'NONE', #186, #55, #144 ) ;
#96 = CARTESIAN_POINT ( 'NONE',  ( 0.09375000000000013878, 2.500000000000000000, 1.148106374200641552E-17 ) ) ;
#97 = PRESENTATION_LAYER_ASSIGNMENT (  '', '', ( #76 ) ) ;
#98 = SURFACE_STYLE_FILL_AREA ( #199 ) ;
#99 = ORIENTED_EDGE ( 'NONE', *, *, #300, .F. ) ;
#100 = CARTESIAN_POINT ( 'NONE',  ( 0.000000000000000000, 0.000000000000000000, 0.000000000000000000 ) ) ;
#101 = AXIS2_PLACEMENT_3D ( 'NONE', #288, #214, #84 ) ;
#102 = VERTEX_POINT ( 'NONE', #188 ) ;
#103 = DIRECTION ( 'NONE',  ( -1.000000000000000000, 0.000000000000000000, 0.000000000000000000 ) ) ;
#104 = CARTESIAN_POINT ( 'NONE',  ( 0.000000000000000000, 1.000000000000000000, -0.09374999999999998612 ) ) ;
#105 = PLANE ( 'NONE',  #101 ) ;
#106 = SURFACE_SIDE_STYLE ('',( #6 ) ) ;
#107 = PRESENTATION_STYLE_ASSIGNMENT (( #135 ) ) ;
#108 = APPLICATION_CONTEXT ( 'automotive_design' ) ;
#109 =( CONVERSION_BASED_UNIT ( 'INCH', #83 ) LENGTH_UNIT ( ) NAMED_UNIT ( #160 ) );
#110 = PLANE ( 'NONE',  #116 ) ;
#111 = AXIS2_PLACEMENT_3D ( 'NONE', #220, #298, #274 ) ;
#112 = LENGTH_MEASURE_WITH_UNIT ( LENGTH_MEASURE( 0.02539999999999999897 ), #158 );
#113 = MANIFOLD_SOLID_BREP ( 'Revolve - Tool Body (Straight Shanked)', #197 ) ;
#114 = DIRECTION ( 'NONE',  ( 0.000000000000000000, 0.000000000000000000, -1.000000000000000000 ) ) ;
#115 = DIMENSIONAL_EXPONENTS ( 1.000000000000000000, 0.000000000000000000, 0.000000000000000000, 0.000000000000000000, 0.000000000000000000, 0.000000000000000000, 0.000000000000000000 ) ;
#116 = AXIS2_PLACEMENT_3D ( 'NONE', #4, #189, #114 ) ;
#117 =( GEOMETRIC_REPRESENTATION_CONTEXT ( 3 ) GLOBAL_UNCERTAINTY_ASSIGNED_CONTEXT ( ( #118 ) ) GLOBAL_UNIT_ASSIGNED_CONTEXT ( ( #166, #62, #41 ) ) REPRESENTATION_CONTEXT ( 'NONE', 'WORKASPACE' ) );
#118 = UNCERTAINTY_MEASURE_WITH_UNIT (LENGTH_MEASURE( 1.000000000000000082E-05 ), #166, 'distance_accuracy_value', 'NONE');
#119 = DIRECTION ( 'NONE',  ( 2.041077998578922094E-16, 1.000000000000000000, -0.000000000000000000 ) ) ;
#120 = FACE_OUTER_BOUND ( 'NONE', #238, .T. ) ;
#121 = PRODUCT ( '81366', '81366', '', ( #195 ) ) ;
#122 = EDGE_LOOP ( 'NONE', ( #79, #40 ) ) ;
#123 = PRODUCT_RELATED_PRODUCT_CATEGORY ( 'part', '', ( #121 ) ) ;
#124 = SURFACE_STYLE_USAGE ( .BOTH. , #205 ) ;
#125 = PRESENTATION_LAYER_ASSIGNMENT (  '', '', ( #283 ) ) ;
#126 = VERTEX_POINT ( 'NONE', #271 ) ;
#127 = FILL_AREA_STYLE_COLOUR ( '', #15 ) ;
#128 = DIRECTION ( 'NONE',  ( 0.000000000000000000, 0.000000000000000000, -1.000000000000000000 ) ) ;
#129 = APPLICATION_PROTOCOL_DEFINITION ( 'draft international standard', 'automotive_design', 1998, #63 ) ;
#130 =( LENGTH_UNIT ( ) NAMED_UNIT ( * ) SI_UNIT ( $, .METRE. ) );
#131 = ORIENTED_EDGE ( 'NONE', *, *, #268, .F. ) ;
#132 =( NAMED_UNIT ( * ) SI_UNIT ( $, .STERADIAN. ) SOLID_ANGLE_UNIT ( ) );
#133 = SURFACE_STYLE_FILL_AREA ( #9 ) ;
#134 = SURFACE_STYLE_USAGE ( .BOTH. , #213 ) ;
#135 = SURFACE_STYLE_USAGE ( .BOTH. , #244 ) ;
#136 = CARTESIAN_POINT ( 'NONE',  ( 0.09374999999999998612, 1.000000000000000000, 1.148106374200642322E-17 ) ) ;
#137 = CARTESIAN_POINT ( 'NONE',  ( 0.000000000000000000, 0.000000000000000000, 0.000000000000000000 ) ) ;
#138 = DIRECTION ( 'NONE',  ( 0.000000000000000000, 0.000000000000000000, -1.000000000000000000 ) ) ;
#139 =( GEOMETRIC_REPRESENTATION_CONTEXT ( 3 ) GLOBAL_UNCERTAINTY_ASSIGNED_CONTEXT ( ( #81 ) ) GLOBAL_UNIT_ASSIGNED_CONTEXT ( ( #66, #49, #132 ) ) REPRESENTATION_CONTEXT ( 'NONE', 'WORKASPACE' ) );
#140 = DIRECTION ( 'NONE',  ( 0.000000000000000000, 0.000000000000000000, -1.000000000000000000 ) ) ;
#141 =( LENGTH_UNIT ( ) NAMED_UNIT ( * ) SI_UNIT ( $, .METRE. ) );
#142 = DIRECTION ( 'NONE',  ( -1.000000000000000000, 0.000000000000000000, 0.000000000000000000 ) ) ;
#143 = DIRECTION ( 'NONE',  ( -0.000000000000000000, -1.000000000000000000, -0.000000000000000000 ) ) ;
#144 = DIRECTION ( 'NONE',  ( 1.000000000000000000, 0.000000000000000000, 0.000000000000000000 ) ) ;
#145 = PRESENTATION_LAYER_ASSIGNMENT (  '', '', ( #35 ) ) ;
#146 = EDGE_CURVE ( 'NONE', #24, #102, #252, .T. ) ;
#147 = VERTEX_POINT ( 'NONE', #248 ) ;
#148 = ORIENTED_EDGE ( 'NONE', *, *, #242, .T. ) ;
#149 = LENGTH_MEASURE_WITH_UNIT ( LENGTH_MEASURE( 0.02539999999999999897 ), #141 );
#150 =( GEOMETRIC_REPRESENTATION_CONTEXT ( 3 ) GLOBAL_UNCERTAINTY_ASSIGNED_CONTEXT ( ( #200 ) ) GLOBAL_UNIT_ASSIGNED_CONTEXT ( ( #11, #303, #196 ) ) REPRESENTATION_CONTEXT ( 'NONE', 'WORKASPACE' ) );
#151 = AXIS2_PLACEMENT_3D ( 'NONE', #249, #90, #301 ) ;
#152 = DIRECTION ( 'NONE',  ( -2.041077998578922341E-16, -1.000000000000000000, 0.000000000000000000 ) ) ;
#153 = LENGTH_MEASURE_WITH_UNIT ( LENGTH_MEASURE( 0.02539999999999999897 ), #67 );
#154 = CYLINDRICAL_SURFACE ( 'NONE', #94, 0.09374999999999998612 ) ;
#155 = CARTESIAN_POINT ( 'NONE',  ( 3.061616997868383141E-16, 2.500000000000000000, 0.000000000000000000 ) ) ;
#156 = AXIS2_PLACEMENT_3D ( 'NONE', #253, #119, #7 ) ;
#157 = DIMENSIONAL_EXPONENTS ( 1.000000000000000000, 0.000000000000000000, 0.000000000000000000, 0.000000000000000000, 0.000000000000000000, 0.000000000000000000, 0.000000000000000000 ) ;
#158 =( LENGTH_UNIT ( ) NAMED_UNIT ( * ) SI_UNIT ( $, .METRE. ) );
#159 = CYLINDRICAL_SURFACE ( 'NONE', #93, 0.09374999999999998612 ) ;
#160 = DIMENSIONAL_EXPONENTS ( 1.000000000000000000, 0.000000000000000000, 0.000000000000000000, 0.000000000000000000, 0.000000000000000000, 0.000000000000000000, 0.000000000000000000 ) ;
#161 = CLOSED_SHELL ( 'NONE', ( #21, #255, #234, #162 ) ) ;
#162 = ADVANCED_FACE ( 'NONE', ( #216 ), #110, .T. ) ;
#163 = AXIS2_PLACEMENT_3D ( 'NONE', #290, #64, #267 ) ;
#164 = AXIS2_PLACEMENT_3D ( 'NONE', #296, #223, #103 ) ;
#165 = SURFACE_STYLE_FILL_AREA ( #306 ) ;
#166 =( CONVERSION_BASED_UNIT ( 'INCH', #257 ) LENGTH_UNIT ( ) NAMED_UNIT ( #157 ) );
#167 = SURFACE_SIDE_STYLE ('',( #165 ) ) ;
#168 =( CONVERSION_BASED_UNIT ( 'INCH', #304 ) LENGTH_UNIT ( ) NAMED_UNIT ( #32 ) );
#169 = EDGE_LOOP ( 'NONE', ( #28, #209, #43, #308 ) ) ;
#170 = MECHANICAL_DESIGN_GEOMETRIC_PRESENTATION_REPRESENTATION (  '', ( #229 ), #150 ) ;
#171 = CIRCLE ( 'NONE', #26, 0.09374999999999998612 ) ;
#172 = EDGE_LOOP ( 'NONE', ( #20, #256, #177, #60 ) ) ;
#173 = FILL_AREA_STYLE ('',( #239 ) ) ;
#174 = ORIENTED_EDGE ( 'NONE', *, *, #280, .T. ) ;
#175 = ADVANCED_BREP_SHAPE_REPRESENTATION ( '81366', ( #19, #113, #95 ), #36 ) ;
#176 =( NAMED_UNIT ( * ) PLANE_ANGLE_UNIT ( ) SI_UNIT ( $, .RADIAN. ) );
#177 = ORIENTED_EDGE ( 'NONE', *, *, #187, .T. ) ;
#178 = CARTESIAN_POINT ( 'NONE',  ( 0.09374999999999998612, 2.500000000000000000, 0.000000000000000000 ) ) ;
#179 = COLOUR_RGB ( '',1.000000000000000000, 0.000000000000000000, 0.000000000000000000 ) ;
#180 = ORIENTED_EDGE ( 'NONE', *, *, #302, .F. ) ;
#181 = FILL_AREA_STYLE ('',( #127 ) ) ;
#182 = LINE ( 'NONE', #293, #30 ) ;
#183 = PLANE ( 'NONE',  #18 ) ;
#184 =( CONVERSION_BASED_UNIT ( 'INCH', #149 ) LENGTH_UNIT ( ) NAMED_UNIT ( #247 ) );
#185 =( LENGTH_UNIT ( ) NAMED_UNIT ( * ) SI_UNIT ( $, .METRE. ) );
#186 = CARTESIAN_POINT ( 'NONE',  ( 0.000000000000000000, 0.000000000000000000, 0.000000000000000000 ) ) ;
#187 = EDGE_CURVE ( 'NONE', #24, #237, #182, .T. ) ;
#188 = CARTESIAN_POINT ( 'NONE',  ( 1.148106374200643401E-17, 1.000000000000000000, 0.09374999999999998612 ) ) ;
#189 = DIRECTION ( 'NONE',  ( 0.000000000000000000, -1.000000000000000000, -0.000000000000000000 ) ) ;
#190 =( NAMED_UNIT ( * ) PLANE_ANGLE_UNIT ( ) SI_UNIT ( $, .RADIAN. ) );
#191 =( GEOMETRIC_REPRESENTATION_CONTEXT ( 3 ) GLOBAL_UNCERTAINTY_ASSIGNED_CONTEXT ( ( #72 ) ) GLOBAL_UNIT_ASSIGNED_CONTEXT ( ( #184, #176, #219 ) ) REPRESENTATION_CONTEXT ( 'NONE', 'WORKASPACE' ) );
#192 = SURFACE_SIDE_STYLE ('',( #91 ) ) ;
#193 = MECHANICAL_DESIGN_GEOMETRIC_PRESENTATION_REPRESENTATION (  '', ( #88 ), #117 ) ;
#194 = EDGE_CURVE ( 'NONE', #126, #82, #228, .T. ) ;
#195 = PRODUCT_CONTEXT ( 'NONE', #63, 'mechanical' ) ;
#196 =( NAMED_UNIT ( * ) SI_UNIT ( $, .STERADIAN. ) SOLID_ANGLE_UNIT ( ) );
#197 = CLOSED_SHELL ( 'NONE', ( #225, #2, #73, #39 ) ) ;
#198 = FACE_OUTER_BOUND ( 'NONE', #307, .T. ) ;
#199 = FILL_AREA_STYLE ('',( #207 ) ) ;
#200 = UNCERTAINTY_MEASURE_WITH_UNIT (LENGTH_MEASURE( 1.000000000000000082E-05 ), #11, 'distance_accuracy_value', 'NONE');
#201 = FILL_AREA_STYLE_COLOUR ( '', #272 ) ;
#202 = STYLED_ITEM ( 'NONE', ( #1 ), #21 ) ;
#203 = MECHANICAL_DESIGN_GEOMETRIC_PRESENTATION_REPRESENTATION (  '', ( #283 ), #71 ) ;
#204 = PRODUCT_DEFINITION ( 'UNKNOWN', '', #211, #56 ) ;
#205 = SURFACE_SIDE_STYLE ('',( #98 ) ) ;
#206 = UNCERTAINTY_MEASURE_WITH_UNIT (LENGTH_MEASURE( 1.000000000000000082E-05 ), #168, 'distance_accuracy_value', 'NONE');
#207 = FILL_AREA_STYLE_COLOUR ( '', #5 ) ;
#208 =( NAMED_UNIT ( * ) PLANE_ANGLE_UNIT ( ) SI_UNIT ( $, .RADIAN. ) );
#209 = ORIENTED_EDGE ( 'NONE', *, *, #300, .T. ) ;
#210 = VECTOR ( 'NONE', #240, 39.37007874015748143 ) ;
#211 = PRODUCT_DEFINITION_FORMATION_WITH_SPECIFIED_SOURCE ( 'ANY', '', #121, .NOT_KNOWN. ) ;
#212 = ORIENTED_EDGE ( 'NONE', *, *, #146, .F. ) ;
#213 = SURFACE_SIDE_STYLE ('',( #264 ) ) ;
#214 = DIRECTION ( 'NONE',  ( 2.041077998578922341E-16, 1.000000000000000000, -0.000000000000000000 ) ) ;
#215 = SURFACE_STYLE_USAGE ( .BOTH. , #106 ) ;
#216 = FACE_OUTER_BOUND ( 'NONE', #243, .T. ) ;
#217 = SHAPE_DEFINITION_REPRESENTATION ( #77, #175 ) ;
#218 = LINE ( 'NONE', #87, #210 ) ;
#219 =( NAMED_UNIT ( * ) SI_UNIT ( $, .STERADIAN. ) SOLID_ANGLE_UNIT ( ) );
#220 = CARTESIAN_POINT ( 'NONE',  ( 0.000000000000000000, 0.000000000000000000, 0.000000000000000000 ) ) ;
#221 = CIRCLE ( 'NONE', #163, 0.09374999999999968081 ) ;
#222 = CIRCLE ( 'NONE', #236, 0.09375000000000001388 ) ;
#223 = DIRECTION ( 'NONE',  ( 2.041077998578922094E-16, 1.000000000000000000, -0.000000000000000000 ) ) ;
#224 = EDGE_CURVE ( 'NONE', #102, #24, #171, .T. ) ;
#225 = ADVANCED_FACE ( 'NONE', ( #198 ), #13, .T. ) ;
#226 = DIRECTION ( 'NONE',  ( 0.000000000000000000, 1.000000000000000000, 0.000000000000000000 ) ) ;
#227 = FILL_AREA_STYLE ('',( #269 ) ) ;
#228 = LINE ( 'NONE', #92, #45 ) ;
#229 = STYLED_ITEM ( 'NONE', ( #230 ), #19 ) ;
#230 = PRESENTATION_STYLE_ASSIGNMENT (( #299 ) ) ;
#231 = DIMENSIONAL_EXPONENTS ( 1.000000000000000000, 0.000000000000000000, 0.000000000000000000, 0.000000000000000000, 0.000000000000000000, 0.000000000000000000, 0.000000000000000000 ) ;
#232 = AXIS2_PLACEMENT_3D ( 'NONE', #178, #152, #50 ) ;
#233 = AXIS2_PLACEMENT_3D ( 'NONE', #37, #251, #279 ) ;
#234 = ADVANCED_FACE ( 'NONE', ( #282 ), #159, .T. ) ;
#235 = UNCERTAINTY_MEASURE_WITH_UNIT (LENGTH_MEASURE( 1.000000000000000082E-05 ), #52, 'distance_accuracy_value', 'NONE');
#236 = AXIS2_PLACEMENT_3D ( 'NONE', #137, #277, #140 ) ;
#237 = VERTEX_POINT ( 'NONE', #16 ) ;
#238 = EDGE_LOOP ( 'NONE', ( #212, #61 ) ) ;
#239 = FILL_AREA_STYLE_COLOUR ( '', #33 ) ;
#240 = DIRECTION ( 'NONE',  ( -0.000000000000000000, -1.000000000000000000, -0.000000000000000000 ) ) ;
#241 = VECTOR ( 'NONE', #38, 39.37007874015748143 ) ;
#242 = EDGE_CURVE ( 'NONE', #262, #42, #289, .T. ) ;
#243 = EDGE_LOOP ( 'NONE', ( #78, #174 ) ) ;
#244 = SURFACE_SIDE_STYLE ('',( #133 ) ) ;
#245 = CARTESIAN_POINT ( 'NONE',  ( 0.000000000000000000, 1.000000000000000000, 0.000000000000000000 ) ) ;
#246 = MECHANICAL_DESIGN_GEOMETRIC_PRESENTATION_REPRESENTATION (  '', ( #202 ), #17 ) ;
#247 = DIMENSIONAL_EXPONENTS ( 1.000000000000000000, 0.000000000000000000, 0.000000000000000000, 0.000000000000000000, 0.000000000000000000, 0.000000000000000000, 0.000000000000000000 ) ;
#248 = CARTESIAN_POINT ( 'NONE',  ( 1.148106374200643555E-17, 0.000000000000000000, 0.09375000000000001388 ) ) ;
#249 = CARTESIAN_POINT ( 'NONE',  ( -6.065921084684207584E-32, 1.000000000000000000, 0.000000000000000000 ) ) ;
#250 = AXIS2_PLACEMENT_3D ( 'NONE', #155, #57, #142 ) ;
#251 = DIRECTION ( 'NONE',  ( 2.041077998578922094E-16, 1.000000000000000000, -0.000000000000000000 ) ) ;
#252 = CIRCLE ( 'NONE', #278, 0.09374999999999998612 ) ;
#253 = CARTESIAN_POINT ( 'NONE',  ( -6.065921084684207584E-32, 1.000000000000000000, 0.000000000000000000 ) ) ;
#254 = DIRECTION ( 'NONE',  ( 0.000000000000000000, 0.000000000000000000, -1.000000000000000000 ) ) ;
#255 = ADVANCED_FACE ( 'NONE', ( #120 ), #183, .T. ) ;
#256 = ORIENTED_EDGE ( 'NONE', *, *, #224, .T. ) ;
#257 = LENGTH_MEASURE_WITH_UNIT ( LENGTH_MEASURE( 0.02539999999999999897 ), #58 );
#258 = PRESENTATION_LAYER_ASSIGNMENT (  '', '', ( #202 ) ) ;
#259 = CIRCLE ( 'NONE', #156, 0.09374999999999998612 ) ;
#260 = ORIENTED_EDGE ( 'NONE', *, *, #287, .F. ) ;
#261 = ORIENTED_EDGE ( 'NONE', *, *, #146, .T. ) ;
#262 = VERTEX_POINT ( 'NONE', #136 ) ;
#263 = CARTESIAN_POINT ( 'NONE',  ( 0.09374999999999998612, 2.500000000000000000, 1.148106374200642322E-17 ) ) ;
#264 = SURFACE_STYLE_FILL_AREA ( #173 ) ;
#265 = PRESENTATION_LAYER_ASSIGNMENT (  '', '', ( #229 ) ) ;
#266 = MECHANICAL_DESIGN_GEOMETRIC_PRESENTATION_REPRESENTATION (  '', ( #76 ), #139 ) ;
#267 = DIRECTION ( 'NONE',  ( -1.000000000000000000, 0.000000000000000000, 0.000000000000000000 ) ) ;
#268 = EDGE_CURVE ( 'NONE', #126, #262, #305, .T. ) ;
#269 = FILL_AREA_STYLE_COLOUR ( '', #75 ) ;
#270 = CARTESIAN_POINT ( 'NONE',  ( -0.09374999999999937550, 2.500000000000000000, 0.000000000000000000 ) ) ;
#271 = CARTESIAN_POINT ( 'NONE',  ( -0.09374999999999998612, 1.000000000000000000, 0.000000000000000000 ) ) ;
#272 = COLOUR_RGB ( '',1.000000000000000000, 0.000000000000000000, 0.000000000000000000 ) ;
#273 = DIRECTION ( 'NONE',  ( -0.000000000000000000, -1.000000000000000000, -0.000000000000000000 ) ) ;
#274 = DIRECTION ( 'NONE',  ( 0.000000000000000000, 0.000000000000000000, -1.000000000000000000 ) ) ;
#275 = LENGTH_MEASURE_WITH_UNIT ( LENGTH_MEASURE( 0.02539999999999999897 ), #51 );
#276 =( NAMED_UNIT ( * ) SI_UNIT ( $, .STERADIAN. ) SOLID_ANGLE_UNIT ( ) );
#277 = DIRECTION ( 'NONE',  ( -0.000000000000000000, -1.000000000000000000, -0.000000000000000000 ) ) ;
#278 = AXIS2_PLACEMENT_3D ( 'NONE', #31, #46, #128 ) ;
#279 = DIRECTION ( 'NONE',  ( -1.000000000000000000, 0.000000000000000000, 0.000000000000000000 ) ) ;
#280 = EDGE_CURVE ( 'NONE', #147, #237, #222, .T. ) ;
#281 = UNCERTAINTY_MEASURE_WITH_UNIT (LENGTH_MEASURE( 1.000000000000000082E-05 ), #109, 'distance_accuracy_value', 'NONE');
#282 = FACE_OUTER_BOUND ( 'NONE', #172, .T. ) ;
#283 = STYLED_ITEM ( 'NONE', ( #34 ), #255 ) ;
#284 =( NAMED_UNIT ( * ) SI_UNIT ( $, .STERADIAN. ) SOLID_ANGLE_UNIT ( ) );
#285 = EDGE_LOOP ( 'NONE', ( #261, #22, #180, #86 ) ) ;
#286 = DIRECTION ( 'NONE',  ( 0.000000000000000000, 0.000000000000000000, -1.000000000000000000 ) ) ;
#287 = EDGE_CURVE ( 'NONE', #82, #42, #65, .T. ) ;
#288 = CARTESIAN_POINT ( 'NONE',  ( 1.952812217007627094E-33, 1.000000000000000000, 0.000000000000000000 ) ) ;
#289 = LINE ( 'NONE', #96, #241 ) ;
#290 = CARTESIAN_POINT ( 'NONE',  ( 3.061616997868383141E-16, 2.500000000000000000, 0.000000000000000000 ) ) ;
#291 = CIRCLE ( 'NONE', #111, 0.09375000000000001388 ) ;
#292 =( NAMED_UNIT ( * ) PLANE_ANGLE_UNIT ( ) SI_UNIT ( $, .RADIAN. ) );
#293 = CARTESIAN_POINT ( 'NONE',  ( 0.000000000000000000, 0.000000000000000000, -0.09374999999999998612 ) ) ;
#294 = FACE_OUTER_BOUND ( 'NONE', #285, .T. ) ;
#295 = SURFACE_STYLE_USAGE ( .BOTH. , #167 ) ;
#296 = CARTESIAN_POINT ( 'NONE',  ( 3.061616997868383141E-16, 2.500000000000000000, 0.000000000000000000 ) ) ;
#297 = DIRECTION ( 'NONE',  ( 2.041077998578922341E-16, 1.000000000000000000, -0.000000000000000000 ) ) ;
#298 = DIRECTION ( 'NONE',  ( -0.000000000000000000, -1.000000000000000000, -0.000000000000000000 ) ) ;
#299 = SURFACE_STYLE_USAGE ( .BOTH. , #192 ) ;
#300 = EDGE_CURVE ( 'NONE', #262, #126, #259, .T. ) ;
#301 = DIRECTION ( 'NONE',  ( -1.000000000000000000, 0.000000000000000000, 0.000000000000000000 ) ) ;
#302 = EDGE_CURVE ( 'NONE', #237, #147, #291, .T. ) ;
#303 =( NAMED_UNIT ( * ) PLANE_ANGLE_UNIT ( ) SI_UNIT ( $, .RADIAN. ) );
#304 = LENGTH_MEASURE_WITH_UNIT ( LENGTH_MEASURE( 0.02539999999999999897 ), #185 );
#305 = CIRCLE ( 'NONE', #151, 0.09374999999999998612 ) ;
#306 = FILL_AREA_STYLE ('',( #201 ) ) ;
#307 = EDGE_LOOP ( 'NONE', ( #3, #148, #260, #47 ) ) ;
#308 = ORIENTED_EDGE ( 'NONE', *, *, #12, .F. ) ;
#309 = EDGE_LOOP ( 'NONE', ( #131, #99 ) ) ;
ENDSEC;
END-ISO-10303-21;
