ISO-10303-21;
HEADER;
FILE_DESCRIPTION (( 'STEP AP214' ),
    '1' );
FILE_NAME ('59740.STEP',
    '2023-07-24T15:31:38',
    ( '' ),
    ( '' ),
    'SwSTEP 2.0',
    'SolidWorks 2023',
    '' );
FILE_SCHEMA (( 'AUTOMOTIVE_DESIGN' ));
ENDSEC;

DATA;
#1 = EDGE_CURVE ( 'NONE', #71, #337, #65, .T. ) ;
#2 =( GEOMETRIC_REPRESENTATION_CONTEXT ( 3 ) GLOBAL_UNCERTAINTY_ASSIGNED_CONTEXT ( ( #292 ) ) GLOBAL_UNIT_ASSIGNED_CONTEXT ( ( #58, #234, #31 ) ) REPRESENTATION_CONTEXT ( 'NONE', 'WORKASPACE' ) );
#3 = SURFACE_STYLE_FILL_AREA ( #178 ) ;
#4 = CARTESIAN_POINT ( 'NONE',  ( -4.999999999999992895, 63.00000000000000000, 0.000000000000000000 ) ) ;
#5 = ORIENTED_EDGE ( 'NONE', *, *, #15, .F. ) ;
#6 = FILL_AREA_STYLE_COLOUR ( '', #35 ) ;
#7 = DIRECTION ( 'NONE',  ( 0.000000000000000000, -1.000000000000000000, -0.000000000000000000 ) ) ;
#8 = SURFACE_STYLE_USAGE ( .BOTH. , #329 ) ;
#9 = AXIS2_PLACEMENT_3D ( 'NONE', #210, #316, #128 ) ;
#10 = VECTOR ( 'NONE', #40, 1000.000000000000000 ) ;
#11 = AXIS2_PLACEMENT_3D ( 'NONE', #312, #96, #179 ) ;
#12 = CARTESIAN_POINT ( 'NONE',  ( 0.000000000000000000, 20.00000000000000000, 0.000000000000000000 ) ) ;
#13 = SURFACE_STYLE_USAGE ( .BOTH. , #264 ) ;
#14 = CARTESIAN_POINT ( 'NONE',  ( 0.000000000000000000, 20.00000000000000000, 0.000000000000000000 ) ) ;
#15 = EDGE_CURVE ( 'NONE', #136, #131, #271, .T. ) ;
#16 = SURFACE_STYLE_FILL_AREA ( #101 ) ;
#17 = DIRECTION ( 'NONE',  ( -0.000000000000000000, -1.000000000000000000, -0.000000000000000000 ) ) ;
#18 = COLOUR_RGB ( '',1.000000000000000000, 0.000000000000000000, 0.000000000000000000 ) ;
#19 =( NAMED_UNIT ( * ) SI_UNIT ( $, .STERADIAN. ) SOLID_ANGLE_UNIT ( ) );
#20 = VERTEX_POINT ( 'NONE', #249 ) ;
#21 = UNCERTAINTY_MEASURE_WITH_UNIT (LENGTH_MEASURE( 1.000000000000000082E-05 ), #47, 'distance_accuracy_value', 'NONE');
#22 = DIRECTION ( 'NONE',  ( -0.000000000000000000, -1.000000000000000000, -0.000000000000000000 ) ) ;
#23 = EDGE_CURVE ( 'NONE', #20, #221, #48, .T. ) ;
#24 = ORIENTED_EDGE ( 'NONE', *, *, #362, .F. ) ;
#25 = AXIS2_PLACEMENT_3D ( 'NONE', #51, #304, #135 ) ;
#26 = CIRCLE ( 'NONE', #314, 0.4999999999999995559 ) ;
#27 = PRESENTATION_LAYER_ASSIGNMENT (  '', '', ( #230 ) ) ;
#28 = ADVANCED_BREP_SHAPE_REPRESENTATION ( '59740', ( #367, #125, #11 ), #196 ) ;
#29 =( LENGTH_UNIT ( ) NAMED_UNIT ( * ) SI_UNIT ( .MILLI., .METRE. ) );
#30 = AXIS2_PLACEMENT_3D ( 'NONE', #208, #209, #119 ) ;
#31 =( NAMED_UNIT ( * ) SI_UNIT ( $, .STERADIAN. ) SOLID_ANGLE_UNIT ( ) );
#32 = DIRECTION ( 'NONE',  ( 0.000000000000000000, 0.000000000000000000, -1.000000000000000000 ) ) ;
#33 = SURFACE_SIDE_STYLE ('',( #93 ) ) ;
#34 = CARTESIAN_POINT ( 'NONE',  ( 3.184081677783117402E-15, 63.00000000000000000, 0.000000000000000000 ) ) ;
#35 = COLOUR_RGB ( '',0.7921568627450980005, 0.8196078431372548767, 0.9333333333333333481 ) ;
#36 = FACE_OUTER_BOUND ( 'NONE', #347, .T. ) ;
#37 = AXIS2_PLACEMENT_3D ( 'NONE', #63, #181, #260 ) ;
#38 = CIRCLE ( 'NONE', #158, 4.999999999999996447 ) ;
#39 = DIRECTION ( 'NONE',  ( -1.000000000000000000, 0.000000000000000000, 0.000000000000000000 ) ) ;
#40 = DIRECTION ( 'NONE',  ( -0.000000000000000000, -1.000000000000000000, -0.000000000000000000 ) ) ;
#41 = EDGE_LOOP ( 'NONE', ( #76, #265, #352, #296 ) ) ;
#42 = CYLINDRICAL_SURFACE ( 'NONE', #218, 5.000000000000000000 ) ;
#43 = EDGE_LOOP ( 'NONE', ( #46, #231 ) ) ;
#44 = EDGE_CURVE ( 'NONE', #298, #167, #247, .T. ) ;
#45 = DIRECTION ( 'NONE',  ( -1.000000000000000000, 0.000000000000000000, 0.000000000000000000 ) ) ;
#46 = ORIENTED_EDGE ( 'NONE', *, *, #84, .F. ) ;
#47 =( LENGTH_UNIT ( ) NAMED_UNIT ( * ) SI_UNIT ( .MILLI., .METRE. ) );
#48 = LINE ( 'NONE', #360, #241 ) ;
#49 = MECHANICAL_DESIGN_GEOMETRIC_PRESENTATION_REPRESENTATION (  '', ( #214 ), #2 ) ;
#50 = EDGE_LOOP ( 'NONE', ( #289, #184, #308, #161 ) ) ;
#51 = CARTESIAN_POINT ( 'NONE',  ( 0.000000000000000000, 0.5000000000000000000, 0.000000000000000000 ) ) ;
#52 =( LENGTH_UNIT ( ) NAMED_UNIT ( * ) SI_UNIT ( .MILLI., .METRE. ) );
#53 = CARTESIAN_POINT ( 'NONE',  ( 6.123233995736766282E-16, 0.000000000000000000, 5.000000000000000000 ) ) ;
#54 = AXIS2_PLACEMENT_3D ( 'NONE', #83, #22, #251 ) ;
#55 = EDGE_CURVE ( 'NONE', #298, #131, #309, .T. ) ;
#56 = SURFACE_SIDE_STYLE ('',( #59 ) ) ;
#57 =( NAMED_UNIT ( * ) PLANE_ANGLE_UNIT ( ) SI_UNIT ( $, .RADIAN. ) );
#58 =( LENGTH_UNIT ( ) NAMED_UNIT ( * ) SI_UNIT ( .MILLI., .METRE. ) );
#59 = SURFACE_STYLE_FILL_AREA ( #261 ) ;
#60 = STYLED_ITEM ( 'NONE', ( #293 ), #325 ) ;
#61 = MECHANICAL_DESIGN_GEOMETRIC_PRESENTATION_REPRESENTATION (  '', ( #230 ), #174 ) ;
#62 = EDGE_CURVE ( 'NONE', #246, #20, #356, .T. ) ;
#63 = CARTESIAN_POINT ( 'NONE',  ( 0.000000000000000000, 0.000000000000000000, 0.000000000000000000 ) ) ;
#64 = FILL_AREA_STYLE ('',( #320 ) ) ;
#65 = CIRCLE ( 'NONE', #54, 4.500000000000000888 ) ;
#66 =( NAMED_UNIT ( * ) SI_UNIT ( $, .STERADIAN. ) SOLID_ANGLE_UNIT ( ) );
#67 = AXIS2_PLACEMENT_3D ( 'NONE', #318, #171, #32 ) ;
#68 = ORIENTED_EDGE ( 'NONE', *, *, #55, .F. ) ;
#69 = CARTESIAN_POINT ( 'NONE',  ( 5.204170427930421283E-15, 20.00000000000000355, 0.000000000000000000 ) ) ;
#70 = FACE_OUTER_BOUND ( 'NONE', #277, .T. ) ;
#71 = VERTEX_POINT ( 'NONE', #113 ) ;
#72 = CARTESIAN_POINT ( 'NONE',  ( 0.000000000000000000, 0.5000000000000000000, 0.000000000000000000 ) ) ;
#73 = CIRCLE ( 'NONE', #322, 5.000000000000000000 ) ;
#74 = PRESENTATION_LAYER_ASSIGNMENT (  '', '', ( #257 ) ) ;
#75 =( NAMED_UNIT ( * ) PLANE_ANGLE_UNIT ( ) SI_UNIT ( $, .RADIAN. ) );
#76 = ORIENTED_EDGE ( 'NONE', *, *, #180, .T. ) ;
#77 = SURFACE_STYLE_USAGE ( .BOTH. , #357 ) ;
#78 = DIRECTION ( 'NONE',  ( 0.000000000000000000, 0.000000000000000000, -1.000000000000000000 ) ) ;
#79 = SURFACE_SIDE_STYLE ('',( #3 ) ) ;
#80 = AXIS2_PLACEMENT_3D ( 'NONE', #164, #273, #236 ) ;
#81 = VECTOR ( 'NONE', #287, 1000.000000000000000 ) ;
#82 = EDGE_LOOP ( 'NONE', ( #307, #198 ) ) ;
#83 = CARTESIAN_POINT ( 'NONE',  ( 0.000000000000000000, 0.000000000000000000, 0.000000000000000000 ) ) ;
#84 = EDGE_CURVE ( 'NONE', #167, #298, #73, .T. ) ;
#85 = AXIS2_PLACEMENT_3D ( 'NONE', #14, #130, #133 ) ;
#86 = PRESENTATION_LAYER_ASSIGNMENT (  '', '', ( #248 ) ) ;
#87 = SURFACE_STYLE_USAGE ( .BOTH. , #232 ) ;
#88 = FACE_OUTER_BOUND ( 'NONE', #50, .T. ) ;
#89 = FACE_OUTER_BOUND ( 'NONE', #43, .T. ) ;
#90 = CYLINDRICAL_SURFACE ( 'NONE', #279, 4.999999999999995559 ) ;
#91 = DIRECTION ( 'NONE',  ( -1.224646799147353454E-16, 0.000000000000000000, -1.000000000000000000 ) ) ;
#92 = EDGE_CURVE ( 'NONE', #221, #330, #163, .T. ) ;
#93 = SURFACE_STYLE_FILL_AREA ( #138 ) ;
#94 = STYLED_ITEM ( 'NONE', ( #120 ), #149 ) ;
#95 =( NAMED_UNIT ( * ) PLANE_ANGLE_UNIT ( ) SI_UNIT ( $, .RADIAN. ) );
#96 = DIRECTION ( 'NONE',  ( 0.000000000000000000, 0.000000000000000000, 1.000000000000000000 ) ) ;
#97 = PLANE ( 'NONE',  #233 ) ;
#98 = CARTESIAN_POINT ( 'NONE',  ( 6.123233995736766282E-16, 20.00000000000000000, 5.000000000000000000 ) ) ;
#99 = ORIENTED_EDGE ( 'NONE', *, *, #197, .F. ) ;
#100 = CARTESIAN_POINT ( 'NONE',  ( 0.000000000000000000, 0.5000000000000000000, -4.500000000000000888 ) ) ;
#101 = FILL_AREA_STYLE ('',( #302 ) ) ;
#102 = FACE_OUTER_BOUND ( 'NONE', #82, .T. ) ;
#103 =( NAMED_UNIT ( * ) SI_UNIT ( $, .STERADIAN. ) SOLID_ANGLE_UNIT ( ) );
#104 = CARTESIAN_POINT ( 'NONE',  ( 0.000000000000000000, 0.000000000000000000, -5.000000000000000000 ) ) ;
#105 = EDGE_CURVE ( 'NONE', #131, #136, #365, .T. ) ;
#106 = FILL_AREA_STYLE_COLOUR ( '', #301 ) ;
#107 = ORIENTED_EDGE ( 'NONE', *, *, #180, .F. ) ;
#108 = MECHANICAL_DESIGN_GEOMETRIC_PRESENTATION_REPRESENTATION (  '', ( #257 ), #306 ) ;
#109 =( GEOMETRIC_REPRESENTATION_CONTEXT ( 3 ) GLOBAL_UNCERTAINTY_ASSIGNED_CONTEXT ( ( #175 ) ) GLOBAL_UNIT_ASSIGNED_CONTEXT ( ( #353, #349, #66 ) ) REPRESENTATION_CONTEXT ( 'NONE', 'WORKASPACE' ) );
#110 = DIRECTION ( 'NONE',  ( -4.697880814296055710E-17, 1.000000000000000000, -0.000000000000000000 ) ) ;
#111 = ORIENTED_EDGE ( 'NONE', *, *, #105, .F. ) ;
#112 = PRODUCT ( '59740', '59740', '', ( #172 ) ) ;
#113 = CARTESIAN_POINT ( 'NONE',  ( 5.817072295949928412E-16, 0.000000000000000000, 4.500000000000000888 ) ) ;
#114 = COLOUR_RGB ( '',1.000000000000000000, 0.000000000000000000, 0.000000000000000000 ) ;
#115 = EDGE_LOOP ( 'NONE', ( #262, #359, #5, #212 ) ) ;
#116 = ADVANCED_FACE ( 'NONE', ( #117 ), #203, .T. ) ;
#117 = FACE_OUTER_BOUND ( 'NONE', #200, .T. ) ;
#118 = AXIS2_PLACEMENT_3D ( 'NONE', #168, #110, #224 ) ;
#119 = DIRECTION ( 'NONE',  ( -1.000000000000000000, -4.697880814296055710E-17, 0.000000000000000000 ) ) ;
#120 = PRESENTATION_STYLE_ASSIGNMENT (( #144 ) ) ;
#121 = DIRECTION ( 'NONE',  ( 0.000000000000000000, 0.000000000000000000, 1.000000000000000000 ) ) ;
#122 = DIRECTION ( 'NONE',  ( 0.000000000000000000, -0.000000000000000000, 1.000000000000000000 ) ) ;
#123 = ADVANCED_FACE ( 'NONE', ( #310 ), #147, .T. ) ;
#124 = DIRECTION ( 'NONE',  ( 0.000000000000000000, 0.000000000000000000, -1.000000000000000000 ) ) ;
#125 = MANIFOLD_SOLID_BREP ( 'Revolve - Tool Body (Straight Shanked)', #185 ) ;
#126 = DIRECTION ( 'NONE',  ( -1.000000000000000000, 0.000000000000000000, 0.000000000000000000 ) ) ;
#127 = ADVANCED_FACE ( 'NONE', ( #303 ), #90, .T. ) ;
#128 = DIRECTION ( 'NONE',  ( 0.000000000000000000, 0.000000000000000000, -1.000000000000000000 ) ) ;
#129 = FACE_OUTER_BOUND ( 'NONE', #115, .T. ) ;
#130 = DIRECTION ( 'NONE',  ( -0.000000000000000000, -1.000000000000000000, -0.000000000000000000 ) ) ;
#131 = VERTEX_POINT ( 'NONE', #250 ) ;
#132 = MECHANICAL_DESIGN_GEOMETRIC_PRESENTATION_REPRESENTATION (  '', ( #215 ), #173 ) ;
#133 = DIRECTION ( 'NONE',  ( 0.000000000000000000, 0.000000000000000000, -1.000000000000000000 ) ) ;
#134 = PRESENTATION_STYLE_ASSIGNMENT (( #274 ) ) ;
#135 = DIRECTION ( 'NONE',  ( 0.000000000000000000, 0.000000000000000000, -1.000000000000000000 ) ) ;
#136 = VERTEX_POINT ( 'NONE', #341 ) ;
#137 = CLOSED_SHELL ( 'NONE', ( #325, #123, #346, #280, #222, #149 ) ) ;
#138 = FILL_AREA_STYLE ('',( #368 ) ) ;
#139 = DIRECTION ( 'NONE',  ( -1.000000000000000000, 0.000000000000000000, 0.000000000000000000 ) ) ;
#140 = DIRECTION ( 'NONE',  ( -4.697880814296055710E-17, 1.000000000000000000, -0.000000000000000000 ) ) ;
#141 = SHAPE_DEFINITION_REPRESENTATION ( #276, #28 ) ;
#142 = STYLED_ITEM ( 'NONE', ( #343 ), #222 ) ;
#143 = PRODUCT_DEFINITION_CONTEXT ( 'detailed design', #199, 'design' ) ;
#144 = SURFACE_STYLE_USAGE ( .BOTH. , #33 ) ;
#145 =( NAMED_UNIT ( * ) SI_UNIT ( $, .STERADIAN. ) SOLID_ANGLE_UNIT ( ) );
#146 = CARTESIAN_POINT ( 'NONE',  ( 5.000000000000000000, 20.00000000000000355, 6.123233995736762338E-16 ) ) ;
#147 = TOROIDAL_SURFACE ( 'NONE', #9, 4.500000000000000888, 0.4999999999999997780 ) ;
#148 = MECHANICAL_DESIGN_GEOMETRIC_PRESENTATION_REPRESENTATION (  '', ( #248 ), #109 ) ;
#149 = ADVANCED_FACE ( 'NONE', ( #89 ), #205, .T. ) ;
#150 = FILL_AREA_STYLE_COLOUR ( '', #114 ) ;
#151 = ORIENTED_EDGE ( 'NONE', *, *, #226, .F. ) ;
#152 = SURFACE_STYLE_FILL_AREA ( #64 ) ;
#153 = DIRECTION ( 'NONE',  ( -0.000000000000000000, -1.000000000000000000, -0.000000000000000000 ) ) ;
#154 = DIRECTION ( 'NONE',  ( -4.697880814296055710E-17, 1.000000000000000000, -0.000000000000000000 ) ) ;
#155 = ORIENTED_EDGE ( 'NONE', *, *, #23, .T. ) ;
#156 = ADVANCED_FACE ( 'NONE', ( #216 ), #97, .F. ) ;
#157 = COLOUR_RGB ( '',1.000000000000000000, 0.000000000000000000, 0.000000000000000000 ) ;
#158 = AXIS2_PLACEMENT_3D ( 'NONE', #354, #154, #126 ) ;
#159 = LINE ( 'NONE', #104, #10 ) ;
#160 = CARTESIAN_POINT ( 'NONE',  ( 5.000000000000000000, 63.00000000000000000, 6.123233995736762338E-16 ) ) ;
#161 = ORIENTED_EDGE ( 'NONE', *, *, #1, .F. ) ;
#162 =( NAMED_UNIT ( * ) SI_UNIT ( $, .STERADIAN. ) SOLID_ANGLE_UNIT ( ) );
#163 = CIRCLE ( 'NONE', #278, 4.999999999999996447 ) ;
#164 = CARTESIAN_POINT ( 'NONE',  ( 0.000000000000000000, 0.5000000000000000000, 0.000000000000000000 ) ) ;
#165 = CIRCLE ( 'NONE', #67, 4.500000000000000888 ) ;
#166 = ORIENTED_EDGE ( 'NONE', *, *, #44, .T. ) ;
#167 = VERTEX_POINT ( 'NONE', #324 ) ;
#168 = CARTESIAN_POINT ( 'NONE',  ( 5.204170427930421283E-15, 20.00000000000000355, 0.000000000000000000 ) ) ;
#169 =( GEOMETRIC_REPRESENTATION_CONTEXT ( 3 ) GLOBAL_UNCERTAINTY_ASSIGNED_CONTEXT ( ( #235 ) ) GLOBAL_UNIT_ASSIGNED_CONTEXT ( ( #244, #75, #189 ) ) REPRESENTATION_CONTEXT ( 'NONE', 'WORKASPACE' ) );
#170 = PRESENTATION_STYLE_ASSIGNMENT (( #87 ) ) ;
#171 = DIRECTION ( 'NONE',  ( -0.000000000000000000, -1.000000000000000000, -0.000000000000000000 ) ) ;
#172 = PRODUCT_CONTEXT ( 'NONE', #211, 'mechanical' ) ;
#173 =( GEOMETRIC_REPRESENTATION_CONTEXT ( 3 ) GLOBAL_UNCERTAINTY_ASSIGNED_CONTEXT ( ( #256 ) ) GLOBAL_UNIT_ASSIGNED_CONTEXT ( ( #29, #369, #342 ) ) REPRESENTATION_CONTEXT ( 'NONE', 'WORKASPACE' ) );
#174 =( GEOMETRIC_REPRESENTATION_CONTEXT ( 3 ) GLOBAL_UNCERTAINTY_ASSIGNED_CONTEXT ( ( #21 ) ) GLOBAL_UNIT_ASSIGNED_CONTEXT ( ( #47, #223, #19 ) ) REPRESENTATION_CONTEXT ( 'NONE', 'WORKASPACE' ) );
#175 = UNCERTAINTY_MEASURE_WITH_UNIT (LENGTH_MEASURE( 1.000000000000000082E-05 ), #353, 'distance_accuracy_value', 'NONE');
#176 = FILL_AREA_STYLE ('',( #282 ) ) ;
#177 = DIRECTION ( 'NONE',  ( -1.000000000000000000, 0.000000000000000000, 0.000000000000000000 ) ) ;
#178 = FILL_AREA_STYLE ('',( #6 ) ) ;
#179 = DIRECTION ( 'NONE',  ( 1.000000000000000000, 0.000000000000000000, 0.000000000000000000 ) ) ;
#180 = EDGE_CURVE ( 'NONE', #20, #246, #300, .T. ) ;
#181 = DIRECTION ( 'NONE',  ( -0.000000000000000000, -1.000000000000000000, -0.000000000000000000 ) ) ;
#182 = DIRECTION ( 'NONE',  ( -4.697880814296055710E-17, 1.000000000000000000, -0.000000000000000000 ) ) ;
#183 = PLANE ( 'NONE',  #267 ) ;
#184 = ORIENTED_EDGE ( 'NONE', *, *, #105, .T. ) ;
#185 = CLOSED_SHELL ( 'NONE', ( #127, #255, #116, #156 ) ) ;
#186 = AXIS2_PLACEMENT_3D ( 'NONE', #12, #294, #122 ) ;
#187 = DIRECTION ( 'NONE',  ( -4.697880814296055710E-17, 1.000000000000000000, -0.000000000000000000 ) ) ;
#188 = DIRECTION ( 'NONE',  ( 0.000000000000000000, 0.000000000000000000, -1.000000000000000000 ) ) ;
#189 =( NAMED_UNIT ( * ) SI_UNIT ( $, .STERADIAN. ) SOLID_ANGLE_UNIT ( ) );
#190 = EDGE_LOOP ( 'NONE', ( #225, #254 ) ) ;
#191 =( LENGTH_UNIT ( ) NAMED_UNIT ( * ) SI_UNIT ( .MILLI., .METRE. ) );
#192 = PRESENTATION_STYLE_ASSIGNMENT (( #77 ) ) ;
#193 = CARTESIAN_POINT ( 'NONE',  ( 3.184081677783117402E-15, 63.00000000000000000, 0.000000000000000000 ) ) ;
#194 = COLOUR_RGB ( '',1.000000000000000000, 0.000000000000000000, 0.000000000000000000 ) ;
#195 = ORIENTED_EDGE ( 'NONE', *, *, #319, .T. ) ;
#196 =( GEOMETRIC_REPRESENTATION_CONTEXT ( 3 ) GLOBAL_UNCERTAINTY_ASSIGNED_CONTEXT ( ( #206 ) ) GLOBAL_UNIT_ASSIGNED_CONTEXT ( ( #204, #57, #288 ) ) REPRESENTATION_CONTEXT ( 'NONE', 'WORKASPACE' ) );
#197 = EDGE_CURVE ( 'NONE', #136, #337, #26, .T. ) ;
#198 = ORIENTED_EDGE ( 'NONE', *, *, #1, .T. ) ;
#199 = APPLICATION_CONTEXT ( 'automotive_design' ) ;
#200 = EDGE_LOOP ( 'NONE', ( #151, #355, #155, #24 ) ) ;
#201 =( NAMED_UNIT ( * ) PLANE_ANGLE_UNIT ( ) SI_UNIT ( $, .RADIAN. ) );
#202 = PRESENTATION_LAYER_ASSIGNMENT (  '', '', ( #142 ) ) ;
#203 = CYLINDRICAL_SURFACE ( 'NONE', #290, 4.999999999999995559 ) ;
#204 =( LENGTH_UNIT ( ) NAMED_UNIT ( * ) SI_UNIT ( .MILLI., .METRE. ) );
#205 = PLANE ( 'NONE',  #186 ) ;
#206 = UNCERTAINTY_MEASURE_WITH_UNIT (LENGTH_MEASURE( 1.000000000000000082E-05 ), #204, 'distance_accuracy_value', 'NONE');
#207 = SURFACE_STYLE_FILL_AREA ( #176 ) ;
#208 = CARTESIAN_POINT ( 'NONE',  ( 5.204170427930421283E-15, 20.00000000000000000, 0.000000000000000000 ) ) ;
#209 = DIRECTION ( 'NONE',  ( -4.697880814296055710E-17, 1.000000000000000000, 0.000000000000000000 ) ) ;
#210 = CARTESIAN_POINT ( 'NONE',  ( 0.000000000000000000, 0.5000000000000000000, 0.000000000000000000 ) ) ;
#211 = APPLICATION_CONTEXT ( 'automotive_design' ) ;
#212 = ORIENTED_EDGE ( 'NONE', *, *, #319, .F. ) ;
#213 = LINE ( 'NONE', #240, #81 ) ;
#214 = STYLED_ITEM ( 'NONE', ( #170 ), #123 ) ;
#215 = STYLED_ITEM ( 'NONE', ( #344 ), #280 ) ;
#216 = FACE_OUTER_BOUND ( 'NONE', #190, .T. ) ;
#217 = FILL_AREA_STYLE ('',( #106 ) ) ;
#218 = AXIS2_PLACEMENT_3D ( 'NONE', #351, #153, #124 ) ;
#219 = DIRECTION ( 'NONE',  ( 0.000000000000000000, 0.000000000000000000, -1.000000000000000000 ) ) ;
#220 = PRODUCT_DEFINITION_FORMATION_WITH_SPECIFIED_SOURCE ( 'ANY', '', #112, .NOT_KNOWN. ) ;
#221 = VERTEX_POINT ( 'NONE', #4 ) ;
#222 = ADVANCED_FACE ( 'NONE', ( #70 ), #317, .T. ) ;
#223 =( NAMED_UNIT ( * ) PLANE_ANGLE_UNIT ( ) SI_UNIT ( $, .RADIAN. ) );
#224 = DIRECTION ( 'NONE',  ( -1.000000000000000000, 0.000000000000000000, 0.000000000000000000 ) ) ;
#225 = ORIENTED_EDGE ( 'NONE', *, *, #92, .T. ) ;
#226 = EDGE_CURVE ( 'NONE', #246, #330, #213, .T. ) ;
#227 =( NAMED_UNIT ( * ) PLANE_ANGLE_UNIT ( ) SI_UNIT ( $, .RADIAN. ) );
#228 = DIRECTION ( 'NONE',  ( -0.000000000000000000, -1.000000000000000000, -0.000000000000000000 ) ) ;
#229 = AXIS2_PLACEMENT_3D ( 'NONE', #72, #321, #219 ) ;
#230 = STYLED_ITEM ( 'NONE', ( #192 ), #367 ) ;
#231 = ORIENTED_EDGE ( 'NONE', *, *, #44, .F. ) ;
#232 = SURFACE_SIDE_STYLE ('',( #207 ) ) ;
#233 = AXIS2_PLACEMENT_3D ( 'NONE', #286, #297, #348 ) ;
#234 =( NAMED_UNIT ( * ) PLANE_ANGLE_UNIT ( ) SI_UNIT ( $, .RADIAN. ) );
#235 = UNCERTAINTY_MEASURE_WITH_UNIT (LENGTH_MEASURE( 1.000000000000000082E-05 ), #244, 'distance_accuracy_value', 'NONE');
#236 = DIRECTION ( 'NONE',  ( 0.000000000000000000, 0.000000000000000000, -1.000000000000000000 ) ) ;
#237 = APPLICATION_PROTOCOL_DEFINITION ( 'draft international standard', 'automotive_design', 1998, #211 ) ;
#238 = PRODUCT_RELATED_PRODUCT_CATEGORY ( 'part', '', ( #112 ) ) ;
#239 = SURFACE_SIDE_STYLE ('',( #152 ) ) ;
#240 = CARTESIAN_POINT ( 'NONE',  ( 4.999999999999999112, 63.00000000000000000, 6.123233995736761352E-16 ) ) ;
#241 = VECTOR ( 'NONE', #270, 1000.000000000000000 ) ;
#242 = PLANE ( 'NONE',  #30 ) ;
#243 = FILL_AREA_STYLE_COLOUR ( '', #259 ) ;
#244 =( LENGTH_UNIT ( ) NAMED_UNIT ( * ) SI_UNIT ( .MILLI., .METRE. ) );
#245 = EDGE_CURVE ( 'NONE', #337, #71, #165, .T. ) ;
#246 = VERTEX_POINT ( 'NONE', #146 ) ;
#247 = CIRCLE ( 'NONE', #85, 5.000000000000000000 ) ;
#248 = STYLED_ITEM ( 'NONE', ( #350 ), #346 ) ;
#249 = CARTESIAN_POINT ( 'NONE',  ( -4.999999999999989342, 20.00000000000000355, 0.000000000000000000 ) ) ;
#250 = CARTESIAN_POINT ( 'NONE',  ( 6.123233995736766282E-16, 0.5000000000000000000, 5.000000000000000000 ) ) ;
#251 = DIRECTION ( 'NONE',  ( 0.000000000000000000, 0.000000000000000000, -1.000000000000000000 ) ) ;
#252 = EDGE_LOOP ( 'NONE', ( #332, #363, #358, #99 ) ) ;
#253 = PRESENTATION_LAYER_ASSIGNMENT (  '', '', ( #94 ) ) ;
#254 = ORIENTED_EDGE ( 'NONE', *, *, #362, .T. ) ;
#255 = ADVANCED_FACE ( 'NONE', ( #36 ), #242, .F. ) ;
#256 = UNCERTAINTY_MEASURE_WITH_UNIT (LENGTH_MEASURE( 1.000000000000000082E-05 ), #29, 'distance_accuracy_value', 'NONE');
#257 = STYLED_ITEM ( 'NONE', ( #134 ), #125 ) ;
#258 = EDGE_CURVE ( 'NONE', #131, #71, #366, .T. ) ;
#259 = COLOUR_RGB ( '',1.000000000000000000, 0.000000000000000000, 0.000000000000000000 ) ;
#260 = DIRECTION ( 'NONE',  ( 0.000000000000000000, 0.000000000000000000, -1.000000000000000000 ) ) ;
#261 = FILL_AREA_STYLE ('',( #150 ) ) ;
#262 = ORIENTED_EDGE ( 'NONE', *, *, #84, .T. ) ;
#263 = SURFACE_STYLE_USAGE ( .BOTH. , #239 ) ;
#264 = SURFACE_SIDE_STYLE ('',( #268 ) ) ;
#265 = ORIENTED_EDGE ( 'NONE', *, *, #226, .T. ) ;
#266 = COLOUR_RGB ( '',1.000000000000000000, 0.000000000000000000, 0.000000000000000000 ) ;
#267 = AXIS2_PLACEMENT_3D ( 'NONE', #295, #7, #188 ) ;
#268 = SURFACE_STYLE_FILL_AREA ( #269 ) ;
#269 = FILL_AREA_STYLE ('',( #243 ) ) ;
#270 = DIRECTION ( 'NONE',  ( -4.697880814296055710E-17, 1.000000000000000000, -0.000000000000000000 ) ) ;
#271 = CIRCLE ( 'NONE', #25, 5.000000000000000000 ) ;
#272 =( GEOMETRIC_REPRESENTATION_CONTEXT ( 3 ) GLOBAL_UNCERTAINTY_ASSIGNED_CONTEXT ( ( #281 ) ) GLOBAL_UNIT_ASSIGNED_CONTEXT ( ( #52, #201, #103 ) ) REPRESENTATION_CONTEXT ( 'NONE', 'WORKASPACE' ) );
#273 = DIRECTION ( 'NONE',  ( -0.000000000000000000, -1.000000000000000000, -0.000000000000000000 ) ) ;
#274 = SURFACE_STYLE_USAGE ( .BOTH. , #79 ) ;
#275 = ORIENTED_EDGE ( 'NONE', *, *, #62, .F. ) ;
#276 = PRODUCT_DEFINITION_SHAPE ( 'NONE', 'NONE',  #299 ) ;
#277 = EDGE_LOOP ( 'NONE', ( #68, #166, #195, #111 ) ) ;
#278 = AXIS2_PLACEMENT_3D ( 'NONE', #193, #305, #336 ) ;
#279 = AXIS2_PLACEMENT_3D ( 'NONE', #334, #187, #45 ) ;
#280 = ADVANCED_FACE ( 'NONE', ( #88 ), #339, .T. ) ;
#281 = UNCERTAINTY_MEASURE_WITH_UNIT (LENGTH_MEASURE( 1.000000000000000082E-05 ), #52, 'distance_accuracy_value', 'NONE');
#282 = FILL_AREA_STYLE_COLOUR ( '', #194 ) ;
#283 = CARTESIAN_POINT ( 'NONE',  ( 5.510910596163089556E-16, 0.5000000000000000000, 4.500000000000000888 ) ) ;
#284 = PRESENTATION_LAYER_ASSIGNMENT (  '', '', ( #214 ) ) ;
#285 = AXIS2_PLACEMENT_3D ( 'NONE', #283, #311, #91 ) ;
#286 = CARTESIAN_POINT ( 'NONE',  ( 5.000000000000000000, 63.00000000000000000, 0.000000000000000000 ) ) ;
#287 = DIRECTION ( 'NONE',  ( -4.697880814296055710E-17, 1.000000000000000000, -0.000000000000000000 ) ) ;
#288 =( NAMED_UNIT ( * ) SI_UNIT ( $, .STERADIAN. ) SOLID_ANGLE_UNIT ( ) );
#289 = ORIENTED_EDGE ( 'NONE', *, *, #258, .F. ) ;
#290 = AXIS2_PLACEMENT_3D ( 'NONE', #34, #140, #139 ) ;
#291 = AXIS2_PLACEMENT_3D ( 'NONE', #69, #182, #177 ) ;
#292 = UNCERTAINTY_MEASURE_WITH_UNIT (LENGTH_MEASURE( 1.000000000000000082E-05 ), #58, 'distance_accuracy_value', 'NONE');
#293 = PRESENTATION_STYLE_ASSIGNMENT (( #8 ) ) ;
#294 = DIRECTION ( 'NONE',  ( 0.000000000000000000, 1.000000000000000000, 0.000000000000000000 ) ) ;
#295 = CARTESIAN_POINT ( 'NONE',  ( 0.000000000000000000, 0.000000000000000000, 0.000000000000000000 ) ) ;
#296 = ORIENTED_EDGE ( 'NONE', *, *, #23, .F. ) ;
#297 = DIRECTION ( 'NONE',  ( 4.697880814296055710E-17, -1.000000000000000000, 0.000000000000000000 ) ) ;
#298 = VERTEX_POINT ( 'NONE', #98 ) ;
#299 = PRODUCT_DEFINITION ( 'UNKNOWN', '', #220, #143 ) ;
#300 = CIRCLE ( 'NONE', #291, 4.999999999999994671 ) ;
#301 = COLOUR_RGB ( '',0.7921568627450980005, 0.8196078431372548767, 0.9333333333333333481 ) ;
#302 = FILL_AREA_STYLE_COLOUR ( '', #157 ) ;
#303 = FACE_OUTER_BOUND ( 'NONE', #41, .T. ) ;
#304 = DIRECTION ( 'NONE',  ( -0.000000000000000000, -1.000000000000000000, -0.000000000000000000 ) ) ;
#305 = DIRECTION ( 'NONE',  ( -4.697880814296055710E-17, 1.000000000000000000, -0.000000000000000000 ) ) ;
#306 =( GEOMETRIC_REPRESENTATION_CONTEXT ( 3 ) GLOBAL_UNCERTAINTY_ASSIGNED_CONTEXT ( ( #335 ) ) GLOBAL_UNIT_ASSIGNED_CONTEXT ( ( #191, #227, #162 ) ) REPRESENTATION_CONTEXT ( 'NONE', 'WORKASPACE' ) );
#307 = ORIENTED_EDGE ( 'NONE', *, *, #245, .T. ) ;
#308 = ORIENTED_EDGE ( 'NONE', *, *, #197, .T. ) ;
#309 = LINE ( 'NONE', #53, #338 ) ;
#310 = FACE_OUTER_BOUND ( 'NONE', #252, .T. ) ;
#311 = DIRECTION ( 'NONE',  ( 1.000000000000000000, 0.000000000000000000, -1.224646799147353207E-16 ) ) ;
#312 = CARTESIAN_POINT ( 'NONE',  ( 0.000000000000000000, 0.000000000000000000, 0.000000000000000000 ) ) ;
#313 = PRESENTATION_LAYER_ASSIGNMENT (  '', '', ( #60 ) ) ;
#314 = AXIS2_PLACEMENT_3D ( 'NONE', #100, #39, #121 ) ;
#315 =( LENGTH_UNIT ( ) NAMED_UNIT ( * ) SI_UNIT ( .MILLI., .METRE. ) );
#316 = DIRECTION ( 'NONE',  ( -0.000000000000000000, -1.000000000000000000, -0.000000000000000000 ) ) ;
#317 = CYLINDRICAL_SURFACE ( 'NONE', #37, 5.000000000000000000 ) ;
#318 = CARTESIAN_POINT ( 'NONE',  ( 0.000000000000000000, 0.000000000000000000, 0.000000000000000000 ) ) ;
#319 = EDGE_CURVE ( 'NONE', #167, #136, #159, .T. ) ;
#320 = FILL_AREA_STYLE_COLOUR ( '', #266 ) ;
#321 = DIRECTION ( 'NONE',  ( -0.000000000000000000, -1.000000000000000000, -0.000000000000000000 ) ) ;
#322 = AXIS2_PLACEMENT_3D ( 'NONE', #331, #228, #78 ) ;
#323 = MECHANICAL_DESIGN_GEOMETRIC_PRESENTATION_REPRESENTATION (  '', ( #142 ), #328 ) ;
#324 = CARTESIAN_POINT ( 'NONE',  ( 0.000000000000000000, 20.00000000000000000, -5.000000000000000000 ) ) ;
#325 = ADVANCED_FACE ( 'NONE', ( #129 ), #42, .T. ) ;
#326 = CARTESIAN_POINT ( 'NONE',  ( 0.000000000000000000, 0.000000000000000000, -4.500000000000000888 ) ) ;
#327 = SURFACE_STYLE_FILL_AREA ( #217 ) ;
#328 =( GEOMETRIC_REPRESENTATION_CONTEXT ( 3 ) GLOBAL_UNCERTAINTY_ASSIGNED_CONTEXT ( ( #364 ) ) GLOBAL_UNIT_ASSIGNED_CONTEXT ( ( #315, #95, #145 ) ) REPRESENTATION_CONTEXT ( 'NONE', 'WORKASPACE' ) );
#329 = SURFACE_SIDE_STYLE ('',( #16 ) ) ;
#330 = VERTEX_POINT ( 'NONE', #160 ) ;
#331 = CARTESIAN_POINT ( 'NONE',  ( 0.000000000000000000, 20.00000000000000000, 0.000000000000000000 ) ) ;
#332 = ORIENTED_EDGE ( 'NONE', *, *, #15, .T. ) ;
#333 = MECHANICAL_DESIGN_GEOMETRIC_PRESENTATION_REPRESENTATION (  '', ( #94 ), #272 ) ;
#334 = CARTESIAN_POINT ( 'NONE',  ( 3.184081677783117402E-15, 63.00000000000000000, 0.000000000000000000 ) ) ;
#335 = UNCERTAINTY_MEASURE_WITH_UNIT (LENGTH_MEASURE( 1.000000000000000082E-05 ), #191, 'distance_accuracy_value', 'NONE');
#336 = DIRECTION ( 'NONE',  ( -1.000000000000000000, 0.000000000000000000, 0.000000000000000000 ) ) ;
#337 = VERTEX_POINT ( 'NONE', #326 ) ;
#338 = VECTOR ( 'NONE', #17, 1000.000000000000000 ) ;
#339 = TOROIDAL_SURFACE ( 'NONE', #229, 4.500000000000000888, 0.4999999999999997780 ) ;
#340 = SURFACE_STYLE_USAGE ( .BOTH. , #56 ) ;
#341 = CARTESIAN_POINT ( 'NONE',  ( 0.000000000000000000, 0.5000000000000000000, -5.000000000000000000 ) ) ;
#342 =( NAMED_UNIT ( * ) SI_UNIT ( $, .STERADIAN. ) SOLID_ANGLE_UNIT ( ) );
#343 = PRESENTATION_STYLE_ASSIGNMENT (( #263 ) ) ;
#344 = PRESENTATION_STYLE_ASSIGNMENT (( #340 ) ) ;
#345 = MECHANICAL_DESIGN_GEOMETRIC_PRESENTATION_REPRESENTATION (  '', ( #60 ), #169 ) ;
#346 = ADVANCED_FACE ( 'NONE', ( #102 ), #183, .T. ) ;
#347 = EDGE_LOOP ( 'NONE', ( #107, #275 ) ) ;
#348 = DIRECTION ( 'NONE',  ( 1.000000000000000000, 4.697880814296055710E-17, 0.000000000000000000 ) ) ;
#349 =( NAMED_UNIT ( * ) PLANE_ANGLE_UNIT ( ) SI_UNIT ( $, .RADIAN. ) );
#350 = PRESENTATION_STYLE_ASSIGNMENT (( #13 ) ) ;
#351 = CARTESIAN_POINT ( 'NONE',  ( 0.000000000000000000, 0.000000000000000000, 0.000000000000000000 ) ) ;
#352 = ORIENTED_EDGE ( 'NONE', *, *, #92, .F. ) ;
#353 =( LENGTH_UNIT ( ) NAMED_UNIT ( * ) SI_UNIT ( .MILLI., .METRE. ) );
#354 = CARTESIAN_POINT ( 'NONE',  ( 3.184081677783117402E-15, 63.00000000000000000, 0.000000000000000000 ) ) ;
#355 = ORIENTED_EDGE ( 'NONE', *, *, #62, .T. ) ;
#356 = CIRCLE ( 'NONE', #118, 4.999999999999994671 ) ;
#357 = SURFACE_SIDE_STYLE ('',( #327 ) ) ;
#358 = ORIENTED_EDGE ( 'NONE', *, *, #245, .F. ) ;
#359 = ORIENTED_EDGE ( 'NONE', *, *, #55, .T. ) ;
#360 = CARTESIAN_POINT ( 'NONE',  ( -4.999999999999992006, 63.00000000000000000, 0.000000000000000000 ) ) ;
#361 = PRESENTATION_LAYER_ASSIGNMENT (  '', '', ( #215 ) ) ;
#362 = EDGE_CURVE ( 'NONE', #330, #221, #38, .T. ) ;
#363 = ORIENTED_EDGE ( 'NONE', *, *, #258, .T. ) ;
#364 = UNCERTAINTY_MEASURE_WITH_UNIT (LENGTH_MEASURE( 1.000000000000000082E-05 ), #315, 'distance_accuracy_value', 'NONE');
#365 = CIRCLE ( 'NONE', #80, 5.000000000000000000 ) ;
#366 = CIRCLE ( 'NONE', #285, 0.4999999999999995559 ) ;
#367 = MANIFOLD_SOLID_BREP ( 'Revolve - Cutting Edge', #137 ) ;
#368 = FILL_AREA_STYLE_COLOUR ( '', #18 ) ;
#369 =( NAMED_UNIT ( * ) PLANE_ANGLE_UNIT ( ) SI_UNIT ( $, .RADIAN. ) );
#370 = APPLICATION_PROTOCOL_DEFINITION ( 'draft international standard', 'automotive_design', 1998, #199 ) ;
ENDSEC;
END-ISO-10303-21;
