ISO-10303-21;
HEADER;
FILE_DESCRIPTION (( 'STEP AP214' ),
    '1' );
FILE_NAME ('Micro_RTC-125-13.STEP',
    '2021-09-03T18:02:44',
    ( '' ),
    ( '' ),
    'SwSTEP 2.0',
    'SolidWorks 2020',
    '' );
FILE_SCHEMA (( 'AUTOMOTIVE_DESIGN' ));
ENDSEC;

DATA;
#1 = DIRECTION ( 'NONE',  ( 1.000000000000000000, 0.0000000000000000000, -0.0000000000000000000 ) ) ;
#2 = SURFACE_STYLE_FILL_AREA ( #38 ) ;
#3 = ADVANCED_FACE ( 'NONE', ( #167 ), #152, .T. ) ;
#4 = CARTESIAN_POINT ( 'NONE',  ( 0.0000000000000000000, 0.0000000000000000000, 0.0000000000000000000 ) ) ;
#5 = PRODUCT_DEFINITION_FORMATION_WITH_SPECIFIED_SOURCE ( 'ANY', '', #20, .NOT_KNOWN. ) ;
#6 = FILL_AREA_STYLE ('',( #214 ) ) ;
#7 = EDGE_LOOP ( 'NONE', ( #122, #176, #195, #88 ) ) ;
#8 = VERTEX_POINT ( 'NONE', #243 ) ;
#9 = AXIS2_PLACEMENT_3D ( 'NONE', #106, #174, #134 ) ;
#10 =( CONVERSION_BASED_UNIT ( 'INCH', #163 ) LENGTH_UNIT ( ) NAMED_UNIT ( #34 ) );
#11 = FACE_OUTER_BOUND ( 'NONE', #217, .T. ) ;
#12 = AXIS2_PLACEMENT_3D ( 'NONE', #200, #202, #35 ) ;
#13 = EDGE_CURVE ( 'NONE', #43, #8, #53, .T. ) ;
#14 = DIRECTION ( 'NONE',  ( 0.7071067811865486830, 8.659560562354947649E-17, -0.7071067811865463515 ) ) ;
#15 = LINE ( 'NONE', #127, #32 ) ;
#16 = CARTESIAN_POINT ( 'NONE',  ( 0.0000000000000000000, 0.0000000000000000000, 0.0000000000000000000 ) ) ;
#17 = EDGE_CURVE ( 'NONE', #119, #43, #91, .T. ) ;
#18 = DIMENSIONAL_EXPONENTS ( 1.000000000000000000, 0.0000000000000000000, 0.0000000000000000000, 0.0000000000000000000, 0.0000000000000000000, 0.0000000000000000000, 0.0000000000000000000 ) ;
#19 = DIRECTION ( 'NONE',  ( 0.0000000000000000000, 0.0000000000000000000, -1.000000000000000000 ) ) ;
#20 = PRODUCT ( 'Micro_RTC-125-13', 'Micro_RTC-125-13', '', ( #196 ) ) ;
#21 = STYLED_ITEM ( 'NONE', ( #237 ), #139 ) ;
#22 = PRESENTATION_STYLE_ASSIGNMENT (( #95 ) ) ;
#23 = PRODUCT_DEFINITION_SHAPE ( 'NONE', 'NONE',  #65 ) ;
#24 = ORIENTED_EDGE ( 'NONE', *, *, #13, .T. ) ;
#25 = AXIS2_PLACEMENT_3D ( 'NONE', #171, #170, #113 ) ;
#26 = EDGE_LOOP ( 'NONE', ( #104, #235, #29, #118 ) ) ;
#27 = EDGE_LOOP ( 'NONE', ( #144, #138, #102, #76 ) ) ;
#28 = COLOUR_RGB ( '',0.7921568627450980005, 0.8196078431372548767, 0.9333333333333333481 ) ;
#29 = ORIENTED_EDGE ( 'NONE', *, *, #149, .T. ) ;
#30 = DIRECTION ( 'NONE',  ( -1.000000000000000000, 0.0000000000000000000, 0.0000000000000000000 ) ) ;
#31 = DIRECTION ( 'NONE',  ( 1.000000000000000000, 0.0000000000000000000, 0.0000000000000000000 ) ) ;
#32 = VECTOR ( 'NONE', #14, 39.37007874015748143 ) ;
#33 = LINE ( 'NONE', #73, #101 ) ;
#34 = DIMENSIONAL_EXPONENTS ( 1.000000000000000000, 0.0000000000000000000, 0.0000000000000000000, 0.0000000000000000000, 0.0000000000000000000, 0.0000000000000000000, 0.0000000000000000000 ) ;
#35 = DIRECTION ( 'NONE',  ( 1.000000000000000000, 0.0000000000000000000, -0.0000000000000000000 ) ) ;
#36 = CARTESIAN_POINT ( 'NONE',  ( 0.0000000000000000000, 0.0000000000000000000, 3.000000000000000444 ) ) ;
#37 = CIRCLE ( 'NONE', #128, 0.06249999999999997918 ) ;
#38 = FILL_AREA_STYLE ('',( #249 ) ) ;
#39 = CARTESIAN_POINT ( 'NONE',  ( 0.0000000000000000000, 0.0000000000000000000, 2.985000000000002096 ) ) ;
#40 = CARTESIAN_POINT ( 'NONE',  ( -0.003999999999999999216, 4.071950607164948101E-18, 0.0000000000000000000 ) ) ;
#41 = CONICAL_SURFACE ( 'NONE', #175, 0.003999999999999999216, 0.2617993877991504625 ) ;
#42 = FACE_OUTER_BOUND ( 'NONE', #27, .T. ) ;
#43 = VERTEX_POINT ( 'NONE', #247 ) ;
#44 = MECHANICAL_DESIGN_GEOMETRIC_PRESENTATION_REPRESENTATION (  '', ( #21 ), #216 ) ;
#45 = ORIENTED_EDGE ( 'NONE', *, *, #93, .T. ) ;
#46 = EDGE_CURVE ( 'NONE', #119, #75, #184, .T. ) ;
#47 = APPLICATION_PROTOCOL_DEFINITION ( 'draft international standard', 'automotive_design', 1998, #207 ) ;
#48 = ORIENTED_EDGE ( 'NONE', *, *, #215, .T. ) ;
#49 = VECTOR ( 'NONE', #77, 39.37007874015748143 ) ;
#50 = AXIS2_PLACEMENT_3D ( 'NONE', #204, #19, #31 ) ;
#51 = UNCERTAINTY_MEASURE_WITH_UNIT (LENGTH_MEASURE( 1.000000000000000082E-05 ), #209, 'distance_accuracy_value', 'NONE');
#52 = DIRECTION ( 'NONE',  ( -0.0000000000000000000, -0.0000000000000000000, -1.000000000000000000 ) ) ;
#53 = LINE ( 'NONE', #185, #49 ) ;
#54 = CARTESIAN_POINT ( 'NONE',  ( 0.04750000000000186712, 6.735557395310556377E-18, 3.000000000000000444 ) ) ;
#55 = CONICAL_SURFACE ( 'NONE', #241, 0.04750000000000186712, 0.7853981633974499443 ) ;
#56 = CARTESIAN_POINT ( 'NONE',  ( -0.04750000000000186712, 0.0000000000000000000, 3.000000000000000444 ) ) ;
#57 = CARTESIAN_POINT ( 'NONE',  ( 0.0000000000000000000, 0.0000000000000000000, 0.0000000000000000000 ) ) ;
#58 = PRESENTATION_LAYER_ASSIGNMENT (  '', '', ( #223 ) ) ;
#59 =( CONVERSION_BASED_UNIT ( 'INCH', #231 ) LENGTH_UNIT ( ) NAMED_UNIT ( #18 ) );
#60 = EDGE_CURVE ( 'NONE', #75, #86, #15, .T. ) ;
#61 = SURFACE_SIDE_STYLE ('',( #2 ) ) ;
#62 = EDGE_CURVE ( 'NONE', #197, #234, #145, .T. ) ;
#63 = CIRCLE ( 'NONE', #121, 0.04750000000000186712 ) ;
#64 = DIRECTION ( 'NONE',  ( -0.2588190451025217387, 3.169619151431776651E-17, 0.9659258262890679791 ) ) ;
#65 = PRODUCT_DEFINITION ( 'UNKNOWN', '', #5, #98 ) ;
#66 = EDGE_LOOP ( 'NONE', ( #213, #193 ) ) ;
#67 = EDGE_LOOP ( 'NONE', ( #45, #72, #84, #160 ) ) ;
#68 = VERTEX_POINT ( 'NONE', #150 ) ;
#69 = CONICAL_SURFACE ( 'NONE', #228, 0.003999999999999999216, 0.2617993877991504625 ) ;
#70 = ORIENTED_EDGE ( 'NONE', *, *, #17, .T. ) ;
#71 = DIRECTION ( 'NONE',  ( 1.000000000000000000, 0.0000000000000000000, 0.0000000000000000000 ) ) ;
#72 = ORIENTED_EDGE ( 'NONE', *, *, #89, .T. ) ;
#73 = CARTESIAN_POINT ( 'NONE',  ( 0.06249999999999997918, 7.654042494670954463E-18, 3.000000000000000444 ) ) ;
#74 = AXIS2_PLACEMENT_3D ( 'NONE', #39, #79, #212 ) ;
#75 = VERTEX_POINT ( 'NONE', #54 ) ;
#76 = ORIENTED_EDGE ( 'NONE', *, *, #149, .F. ) ;
#77 = DIRECTION ( 'NONE',  ( -0.0000000000000000000, -0.0000000000000000000, -1.000000000000000000 ) ) ;
#78 = CARTESIAN_POINT ( 'NONE',  ( -0.04750000000000186712, 0.0000000000000000000, 3.000000000000000444 ) ) ;
#79 = DIRECTION ( 'NONE',  ( 0.0000000000000000000, 0.0000000000000000000, -1.000000000000000000 ) ) ;
#80 =( LENGTH_UNIT ( ) NAMED_UNIT ( * ) SI_UNIT ( $, .METRE. ) );
#81 = ADVANCED_FACE ( 'NONE', ( #226 ), #116, .T. ) ;
#82 = AXIS2_PLACEMENT_3D ( 'NONE', #181, #108, #227 ) ;
#83 = AXIS2_PLACEMENT_3D ( 'NONE', #4, #191, #1 ) ;
#84 = ORIENTED_EDGE ( 'NONE', *, *, #248, .F. ) ;
#85 = ADVANCED_FACE ( 'NONE', ( #92 ), #224, .T. ) ;
#86 = VERTEX_POINT ( 'NONE', #229 ) ;
#87 = SHAPE_DEFINITION_REPRESENTATION ( #23, #139 ) ;
#88 = ORIENTED_EDGE ( 'NONE', *, *, #17, .F. ) ;
#89 = EDGE_CURVE ( 'NONE', #86, #68, #33, .T. ) ;
#90 = CIRCLE ( 'NONE', #25, 0.06249999999999997918 ) ;
#91 = LINE ( 'NONE', #56, #240 ) ;
#92 = FACE_OUTER_BOUND ( 'NONE', #141, .T. ) ;
#93 = EDGE_CURVE ( 'NONE', #43, #86, #165, .T. ) ;
#94 = DIRECTION ( 'NONE',  ( 0.0000000000000000000, 0.0000000000000000000, -1.000000000000000000 ) ) ;
#95 = SURFACE_STYLE_USAGE ( .BOTH. , #61 ) ;
#96 = APPLICATION_CONTEXT ( 'automotive_design' ) ;
#97 = CARTESIAN_POINT ( 'NONE',  ( -0.003999999999999999216, 4.898587196589411612E-19, 0.0000000000000000000 ) ) ;
#98 = PRODUCT_DEFINITION_CONTEXT ( 'detailed design', #207, 'design' ) ;
#99 =( NAMED_UNIT ( * ) SI_UNIT ( $, .STERADIAN. ) SOLID_ANGLE_UNIT ( ) );
#100 = CLOSED_SHELL ( 'NONE', ( #206, #158, #3, #173, #85, #81, #162, #218 ) ) ;
#101 = VECTOR ( 'NONE', #230, 39.37007874015748143 ) ;
#102 = ORIENTED_EDGE ( 'NONE', *, *, #248, .T. ) ;
#103 = PRESENTATION_LAYER_ASSIGNMENT (  '', '', ( #21 ) ) ;
#104 = ORIENTED_EDGE ( 'NONE', *, *, #199, .F. ) ;
#105 = DIRECTION ( 'NONE',  ( 0.0000000000000000000, 0.0000000000000000000, 1.000000000000000000 ) ) ;
#106 = CARTESIAN_POINT ( 'NONE',  ( 0.0000000000000000000, 0.0000000000000000000, 0.0000000000000000000 ) ) ;
#107 = CARTESIAN_POINT ( 'NONE',  ( 0.0000000000000000000, 0.0000000000000000000, 3.000000000000000444 ) ) ;
#108 = DIRECTION ( 'NONE',  ( 0.0000000000000000000, 0.0000000000000000000, 1.000000000000000000 ) ) ;
#109 = CARTESIAN_POINT ( 'NONE',  ( 0.003999999999999999216, 0.0000000000000000000, 0.0000000000000000000 ) ) ;
#110 = AXIS2_PLACEMENT_3D ( 'NONE', #219, #194, #71 ) ;
#111 = CARTESIAN_POINT ( 'NONE',  ( 0.003999999999999999216, 0.0000000000000000000, 0.0000000000000000000 ) ) ;
#112 = VECTOR ( 'NONE', #168, 39.37007874015748854 ) ;
#113 = DIRECTION ( 'NONE',  ( -1.000000000000000000, 0.0000000000000000000, 0.0000000000000000000 ) ) ;
#114 = FACE_OUTER_BOUND ( 'NONE', #66, .T. ) ;
#115 = ORIENTED_EDGE ( 'NONE', *, *, #89, .F. ) ;
#116 = CONICAL_SURFACE ( 'NONE', #198, 0.04750000000000186712, 0.7853981633974499443 ) ;
#117 = SURFACE_STYLE_FILL_AREA ( #6 ) ;
#118 = ORIENTED_EDGE ( 'NONE', *, *, #244, .T. ) ;
#119 = VERTEX_POINT ( 'NONE', #78 ) ;
#120 =( NAMED_UNIT ( * ) SI_UNIT ( $, .STERADIAN. ) SOLID_ANGLE_UNIT ( ) );
#121 = AXIS2_PLACEMENT_3D ( 'NONE', #107, #242, #183 ) ;
#122 = ORIENTED_EDGE ( 'NONE', *, *, #126, .F. ) ;
#123 = DIRECTION ( 'NONE',  ( -1.000000000000000000, 0.0000000000000000000, 0.0000000000000000000 ) ) ;
#124 = UNCERTAINTY_MEASURE_WITH_UNIT (LENGTH_MEASURE( 1.000000000000000082E-05 ), #10, 'distance_accuracy_value', 'NONE');
#125 = DIRECTION ( 'NONE',  ( 0.0000000000000000000, 0.0000000000000000000, -1.000000000000000000 ) ) ;
#126 = EDGE_CURVE ( 'NONE', #75, #119, #63, .T. ) ;
#127 = CARTESIAN_POINT ( 'NONE',  ( 0.04750000000000186712, 5.817072295950156750E-18, 3.000000000000000444 ) ) ;
#128 = AXIS2_PLACEMENT_3D ( 'NONE', #133, #189, #137 ) ;
#129 = DIRECTION ( 'NONE',  ( -0.7071067811865486830, 0.0000000000000000000, -0.7071067811865463515 ) ) ;
#130 = CARTESIAN_POINT ( 'NONE',  ( 0.0000000000000000000, 0.0000000000000000000, 3.000000000000000444 ) ) ;
#131 = DIRECTION ( 'NONE',  ( 1.000000000000000000, 0.0000000000000000000, 0.0000000000000000000 ) ) ;
#132 = AXIS2_PLACEMENT_3D ( 'NONE', #16, #166, #148 ) ;
#133 = CARTESIAN_POINT ( 'NONE',  ( 0.0000000000000000000, 0.0000000000000000000, 0.2183249722427783590 ) ) ;
#134 = DIRECTION ( 'NONE',  ( -1.000000000000000000, 0.0000000000000000000, 0.0000000000000000000 ) ) ;
#135 = CARTESIAN_POINT ( 'NONE',  ( 0.0000000000000000000, 0.0000000000000000000, 0.0000000000000000000 ) ) ;
#136 =( GEOMETRIC_REPRESENTATION_CONTEXT ( 3 ) GLOBAL_UNCERTAINTY_ASSIGNED_CONTEXT ( ( #51 ) ) GLOBAL_UNIT_ASSIGNED_CONTEXT ( ( #209, #188, #99 ) ) REPRESENTATION_CONTEXT ( 'NONE', 'WORKASPACE' ) );
#137 = DIRECTION ( 'NONE',  ( -1.000000000000000000, 0.0000000000000000000, 0.0000000000000000000 ) ) ;
#138 = ORIENTED_EDGE ( 'NONE', *, *, #199, .T. ) ;
#139 = ADVANCED_BREP_SHAPE_REPRESENTATION ( 'Micro_RTC-125-13', ( #225, #110 ), #190 ) ;
#140 = CIRCLE ( 'NONE', #9, 0.003999999999999999216 ) ;
#141 = EDGE_LOOP ( 'NONE', ( #179, #236 ) ) ;
#142 = ORIENTED_EDGE ( 'NONE', *, *, #215, .F. ) ;
#143 = SURFACE_SIDE_STYLE ('',( #117 ) ) ;
#144 = ORIENTED_EDGE ( 'NONE', *, *, #187, .F. ) ;
#145 = CIRCLE ( 'NONE', #132, 0.003999999999999999216 ) ;
#146 = CYLINDRICAL_SURFACE ( 'NONE', #186, 0.06249999999999997918 ) ;
#147 = CARTESIAN_POINT ( 'NONE',  ( 0.0000000000000000000, 0.0000000000000000000, 3.000000000000000444 ) ) ;
#148 = DIRECTION ( 'NONE',  ( -1.000000000000000000, 0.0000000000000000000, 0.0000000000000000000 ) ) ;
#149 = EDGE_CURVE ( 'NONE', #197, #68, #169, .T. ) ;
#150 = CARTESIAN_POINT ( 'NONE',  ( 0.06249999999999997918, 7.654042494670954463E-18, 0.2183249722427783590 ) ) ;
#151 = VECTOR ( 'NONE', #64, 39.37007874015748854 ) ;
#152 = CYLINDRICAL_SURFACE ( 'NONE', #156, 0.06249999999999997918 ) ;
#153 = LENGTH_MEASURE_WITH_UNIT ( LENGTH_MEASURE( 0.02539999999999999897 ), #80 );
#154 = LINE ( 'NONE', #97, #151 ) ;
#155 =( NAMED_UNIT ( * ) PLANE_ANGLE_UNIT ( ) SI_UNIT ( $, .RADIAN. ) );
#156 = AXIS2_PLACEMENT_3D ( 'NONE', #147, #182, #203 ) ;
#157 = APPLICATION_PROTOCOL_DEFINITION ( 'draft international standard', 'automotive_design', 1998, #96 ) ;
#158 = ADVANCED_FACE ( 'NONE', ( #245 ), #55, .T. ) ;
#159 =( LENGTH_UNIT ( ) NAMED_UNIT ( * ) SI_UNIT ( $, .METRE. ) );
#160 = ORIENTED_EDGE ( 'NONE', *, *, #13, .F. ) ;
#161 =( NAMED_UNIT ( * ) PLANE_ANGLE_UNIT ( ) SI_UNIT ( $, .RADIAN. ) );
#162 = ADVANCED_FACE ( 'NONE', ( #164 ), #69, .T. ) ;
#163 = LENGTH_MEASURE_WITH_UNIT ( LENGTH_MEASURE( 0.02539999999999999897 ), #159 );
#164 = FACE_OUTER_BOUND ( 'NONE', #26, .T. ) ;
#165 = CIRCLE ( 'NONE', #50, 0.06249999999999997918 ) ;
#166 = DIRECTION ( 'NONE',  ( -0.0000000000000000000, -0.0000000000000000000, -1.000000000000000000 ) ) ;
#167 = FACE_OUTER_BOUND ( 'NONE', #67, .T. ) ;
#168 = DIRECTION ( 'NONE',  ( 0.2588190451025217387, 0.0000000000000000000, 0.9659258262890679791 ) ) ;
#169 = LINE ( 'NONE', #109, #112 ) ;
#170 = DIRECTION ( 'NONE',  ( -0.0000000000000000000, -0.0000000000000000000, -1.000000000000000000 ) ) ;
#171 = CARTESIAN_POINT ( 'NONE',  ( 0.0000000000000000000, 0.0000000000000000000, 0.2183249722427783590 ) ) ;
#172 = UNCERTAINTY_MEASURE_WITH_UNIT (LENGTH_MEASURE( 1.000000000000000082E-05 ), #59, 'distance_accuracy_value', 'NONE');
#173 = ADVANCED_FACE ( 'NONE', ( #11 ), #146, .T. ) ;
#174 = DIRECTION ( 'NONE',  ( -0.0000000000000000000, -0.0000000000000000000, -1.000000000000000000 ) ) ;
#175 = AXIS2_PLACEMENT_3D ( 'NONE', #135, #208, #131 ) ;
#176 = ORIENTED_EDGE ( 'NONE', *, *, #60, .T. ) ;
#177 = ORIENTED_EDGE ( 'NONE', *, *, #46, .F. ) ;
#178 = CIRCLE ( 'NONE', #74, 0.06249999999999997918 ) ;
#179 = ORIENTED_EDGE ( 'NONE', *, *, #46, .T. ) ;
#180 = CARTESIAN_POINT ( 'NONE',  ( 0.0000000000000000000, 0.0000000000000000000, 3.000000000000000444 ) ) ;
#181 = CARTESIAN_POINT ( 'NONE',  ( 0.0000000000000000000, 0.0000000000000000000, 3.000000000000000444 ) ) ;
#182 = DIRECTION ( 'NONE',  ( -0.0000000000000000000, -0.0000000000000000000, -1.000000000000000000 ) ) ;
#183 = DIRECTION ( 'NONE',  ( 1.000000000000000000, 0.0000000000000000000, 0.0000000000000000000 ) ) ;
#184 = CIRCLE ( 'NONE', #82, 0.04750000000000186712 ) ;
#185 = CARTESIAN_POINT ( 'NONE',  ( -0.06249999999999997918, 0.0000000000000000000, 3.000000000000000444 ) ) ;
#186 = AXIS2_PLACEMENT_3D ( 'NONE', #180, #52, #123 ) ;
#187 = EDGE_CURVE ( 'NONE', #234, #197, #140, .T. ) ;
#188 =( NAMED_UNIT ( * ) PLANE_ANGLE_UNIT ( ) SI_UNIT ( $, .RADIAN. ) );
#189 = DIRECTION ( 'NONE',  ( -0.0000000000000000000, -0.0000000000000000000, -1.000000000000000000 ) ) ;
#190 =( GEOMETRIC_REPRESENTATION_CONTEXT ( 3 ) GLOBAL_UNCERTAINTY_ASSIGNED_CONTEXT ( ( #172 ) ) GLOBAL_UNIT_ASSIGNED_CONTEXT ( ( #59, #155, #205 ) ) REPRESENTATION_CONTEXT ( 'NONE', 'WORKASPACE' ) );
#191 = DIRECTION ( 'NONE',  ( 0.0000000000000000000, 0.0000000000000000000, 1.000000000000000000 ) ) ;
#192 = PLANE ( 'NONE',  #83 ) ;
#193 = ORIENTED_EDGE ( 'NONE', *, *, #187, .T. ) ;
#194 = DIRECTION ( 'NONE',  ( 0.0000000000000000000, 0.0000000000000000000, 1.000000000000000000 ) ) ;
#195 = ORIENTED_EDGE ( 'NONE', *, *, #93, .F. ) ;
#196 = PRODUCT_CONTEXT ( 'NONE', #96, 'mechanical' ) ;
#197 = VERTEX_POINT ( 'NONE', #111 ) ;
#198 = AXIS2_PLACEMENT_3D ( 'NONE', #36, #94, #30 ) ;
#199 = EDGE_CURVE ( 'NONE', #234, #8, #154, .T. ) ;
#200 = CARTESIAN_POINT ( 'NONE',  ( 0.0000000000000000000, 0.0000000000000000000, 3.000000000000000444 ) ) ;
#201 = DIRECTION ( 'NONE',  ( -1.000000000000000000, 0.0000000000000000000, 0.0000000000000000000 ) ) ;
#202 = DIRECTION ( 'NONE',  ( 0.0000000000000000000, 0.0000000000000000000, 1.000000000000000000 ) ) ;
#203 = DIRECTION ( 'NONE',  ( -1.000000000000000000, 0.0000000000000000000, 0.0000000000000000000 ) ) ;
#204 = CARTESIAN_POINT ( 'NONE',  ( 0.0000000000000000000, 0.0000000000000000000, 2.985000000000002096 ) ) ;
#205 =( NAMED_UNIT ( * ) SI_UNIT ( $, .STERADIAN. ) SOLID_ANGLE_UNIT ( ) );
#206 = ADVANCED_FACE ( 'NONE', ( #42 ), #41, .T. ) ;
#207 = APPLICATION_CONTEXT ( 'automotive_design' ) ;
#208 = DIRECTION ( 'NONE',  ( 0.0000000000000000000, 0.0000000000000000000, 1.000000000000000000 ) ) ;
#209 =( CONVERSION_BASED_UNIT ( 'INCH', #153 ) LENGTH_UNIT ( ) NAMED_UNIT ( #246 ) );
#210 = COLOUR_RGB ( '',0.7921568627450980005, 0.8196078431372548767, 0.9333333333333333481 ) ;
#211 = PRODUCT_RELATED_PRODUCT_CATEGORY ( 'part', '', ( #20 ) ) ;
#212 = DIRECTION ( 'NONE',  ( 1.000000000000000000, 0.0000000000000000000, 0.0000000000000000000 ) ) ;
#213 = ORIENTED_EDGE ( 'NONE', *, *, #62, .T. ) ;
#214 = FILL_AREA_STYLE_COLOUR ( '', #210 ) ;
#215 = EDGE_CURVE ( 'NONE', #86, #43, #178, .T. ) ;
#216 =( GEOMETRIC_REPRESENTATION_CONTEXT ( 3 ) GLOBAL_UNCERTAINTY_ASSIGNED_CONTEXT ( ( #124 ) ) GLOBAL_UNIT_ASSIGNED_CONTEXT ( ( #10, #161, #120 ) ) REPRESENTATION_CONTEXT ( 'NONE', 'WORKASPACE' ) );
#217 = EDGE_LOOP ( 'NONE', ( #115, #48, #24, #238 ) ) ;
#218 = ADVANCED_FACE ( 'NONE', ( #114 ), #192, .F. ) ;
#219 = CARTESIAN_POINT ( 'NONE',  ( 0.0000000000000000000, 0.0000000000000000000, 0.0000000000000000000 ) ) ;
#220 = EDGE_LOOP ( 'NONE', ( #222, #177, #70, #142 ) ) ;
#221 = SURFACE_STYLE_USAGE ( .BOTH. , #143 ) ;
#222 = ORIENTED_EDGE ( 'NONE', *, *, #60, .F. ) ;
#223 = STYLED_ITEM ( 'NONE', ( #22 ), #225 ) ;
#224 = PLANE ( 'NONE',  #12 ) ;
#225 = MANIFOLD_SOLID_BREP ( 'Cut-Revolve1', #100 ) ;
#226 = FACE_OUTER_BOUND ( 'NONE', #220, .T. ) ;
#227 = DIRECTION ( 'NONE',  ( 1.000000000000000000, 0.0000000000000000000, 0.0000000000000000000 ) ) ;
#228 = AXIS2_PLACEMENT_3D ( 'NONE', #57, #105, #239 ) ;
#229 = CARTESIAN_POINT ( 'NONE',  ( 0.06249999999999997918, 7.654042494670954463E-18, 2.985000000000002096 ) ) ;
#230 = DIRECTION ( 'NONE',  ( -0.0000000000000000000, -0.0000000000000000000, -1.000000000000000000 ) ) ;
#231 = LENGTH_MEASURE_WITH_UNIT ( LENGTH_MEASURE( 0.02539999999999999897 ), #232 );
#232 =( LENGTH_UNIT ( ) NAMED_UNIT ( * ) SI_UNIT ( $, .METRE. ) );
#233 = MECHANICAL_DESIGN_GEOMETRIC_PRESENTATION_REPRESENTATION (  '', ( #223 ), #136 ) ;
#234 = VERTEX_POINT ( 'NONE', #40 ) ;
#235 = ORIENTED_EDGE ( 'NONE', *, *, #62, .F. ) ;
#236 = ORIENTED_EDGE ( 'NONE', *, *, #126, .T. ) ;
#237 = PRESENTATION_STYLE_ASSIGNMENT (( #221 ) ) ;
#238 = ORIENTED_EDGE ( 'NONE', *, *, #244, .F. ) ;
#239 = DIRECTION ( 'NONE',  ( 1.000000000000000000, 0.0000000000000000000, 0.0000000000000000000 ) ) ;
#240 = VECTOR ( 'NONE', #129, 39.37007874015748143 ) ;
#241 = AXIS2_PLACEMENT_3D ( 'NONE', #130, #125, #201 ) ;
#242 = DIRECTION ( 'NONE',  ( 0.0000000000000000000, 0.0000000000000000000, 1.000000000000000000 ) ) ;
#243 = CARTESIAN_POINT ( 'NONE',  ( -0.06249999999999997918, 0.0000000000000000000, 0.2183249722427783590 ) ) ;
#244 = EDGE_CURVE ( 'NONE', #68, #8, #90, .T. ) ;
#245 = FACE_OUTER_BOUND ( 'NONE', #7, .T. ) ;
#246 = DIMENSIONAL_EXPONENTS ( 1.000000000000000000, 0.0000000000000000000, 0.0000000000000000000, 0.0000000000000000000, 0.0000000000000000000, 0.0000000000000000000, 0.0000000000000000000 ) ;
#247 = CARTESIAN_POINT ( 'NONE',  ( -0.06249999999999997918, 0.0000000000000000000, 2.985000000000002096 ) ) ;
#248 = EDGE_CURVE ( 'NONE', #8, #68, #37, .T. ) ;
#249 = FILL_AREA_STYLE_COLOUR ( '', #28 ) ;
ENDSEC;
END-ISO-10303-21;
