ISO-10303-21;
HEADER;
FILE_DESCRIPTION (( 'STEP AP214' ),
    '1' );
FILE_NAME ('49466.STEP',
    '2023-06-30T22:04:38',
    ( '' ),
    ( '' ),
    'SwSTEP 2.0',
    'SolidWorks 2023',
    '' );
FILE_SCHEMA (( 'AUTOMOTIVE_DESIGN' ));
ENDSEC;

DATA;
#1 = SPHERICAL_SURFACE ( 'NONE', #45, 0.5000000000000000000 ) ;
#2 = MECHANICAL_DESIGN_GEOMETRIC_PRESENTATION_REPRESENTATION (  '', ( #95 ), #310 ) ;
#3 = CARTESIAN_POINT ( 'NONE',  ( 0.000000000000000000, 0.5000000000000000000, -0.5000000000000000000 ) ) ;
#4 = FACE_OUTER_BOUND ( 'NONE', #74, .T. ) ;
#5 = DIRECTION ( 'NONE',  ( -0.000000000000000000, -1.000000000000000000, -0.000000000000000000 ) ) ;
#6 = SHAPE_DEFINITION_REPRESENTATION ( #156, #250 ) ;
#7 = PLANE ( 'NONE',  #160 ) ;
#8 = SURFACE_SIDE_STYLE ('',( #325 ) ) ;
#9 = AXIS2_PLACEMENT_3D ( 'NONE', #169, #5, #317 ) ;
#10 = AXIS2_PLACEMENT_3D ( 'NONE', #65, #243, #97 ) ;
#11 =( NAMED_UNIT ( * ) SI_UNIT ( $, .STERADIAN. ) SOLID_ANGLE_UNIT ( ) );
#12 = AXIS2_PLACEMENT_3D ( 'NONE', #152, #280, #159 ) ;
#13 = DIRECTION ( 'NONE',  ( -1.224646799147353454E-16, 1.000000000000000000, -0.000000000000000000 ) ) ;
#14 =( NAMED_UNIT ( * ) PLANE_ANGLE_UNIT ( ) SI_UNIT ( $, .RADIAN. ) );
#15 = AXIS2_PLACEMENT_3D ( 'NONE', #63, #261, #136 ) ;
#16 = CIRCLE ( 'NONE', #32, 0.4999999999999993894 ) ;
#17 = ORIENTED_EDGE ( 'NONE', *, *, #20, .T. ) ;
#18 = SURFACE_STYLE_FILL_AREA ( #80 ) ;
#19 = VERTEX_POINT ( 'NONE', #226 ) ;
#20 = EDGE_CURVE ( 'NONE', #365, #188, #16, .T. ) ;
#21 = ORIENTED_EDGE ( 'NONE', *, *, #219, .F. ) ;
#22 = AXIS2_PLACEMENT_3D ( 'NONE', #73, #125, #206 ) ;
#23 = SURFACE_STYLE_FILL_AREA ( #224 ) ;
#24 =( LENGTH_UNIT ( ) NAMED_UNIT ( * ) SI_UNIT ( $, .METRE. ) );
#25 = ORIENTED_EDGE ( 'NONE', *, *, #249, .F. ) ;
#26 = CARTESIAN_POINT ( 'NONE',  ( -6.123233995736766036E-17, 0.5000000000000000000, 0.000000000000000000 ) ) ;
#27 = CARTESIAN_POINT ( 'NONE',  ( -1.224646799147354440E-16, 6.000000000000000888, 0.000000000000000000 ) ) ;
#28 =( CONVERSION_BASED_UNIT ( 'INCH', #373 ) LENGTH_UNIT ( ) NAMED_UNIT ( #191 ) );
#29 = DIRECTION ( 'NONE',  ( -1.224646799147353454E-16, 1.000000000000000000, -0.000000000000000000 ) ) ;
#30 = VECTOR ( 'NONE', #240, 39.37007874015748143 ) ;
#31 = EDGE_CURVE ( 'NONE', #113, #19, #296, .T. ) ;
#32 = AXIS2_PLACEMENT_3D ( 'NONE', #314, #132, #218 ) ;
#33 = LENGTH_MEASURE_WITH_UNIT ( LENGTH_MEASURE( 0.02539999999999999897 ), #164 );
#34 =( LENGTH_UNIT ( ) NAMED_UNIT ( * ) SI_UNIT ( $, .METRE. ) );
#35 = LENGTH_MEASURE_WITH_UNIT ( LENGTH_MEASURE( 0.02539999999999999897 ), #34 );
#36 = CIRCLE ( 'NONE', #355, 0.4999999999999997224 ) ;
#37 = UNCERTAINTY_MEASURE_WITH_UNIT (LENGTH_MEASURE( 1.000000000000000082E-05 ), #173, 'distance_accuracy_value', 'NONE');
#38 = DIRECTION ( 'NONE',  ( -0.000000000000000000, -1.000000000000000000, -0.000000000000000000 ) ) ;
#39 = LENGTH_MEASURE_WITH_UNIT ( LENGTH_MEASURE( 0.02539999999999999897 ), #269 );
#40 = LENGTH_MEASURE_WITH_UNIT ( LENGTH_MEASURE( 0.02539999999999999897 ), #357 );
#41 = MANIFOLD_SOLID_BREP ( 'Revolve - Tool Body (Straight Shanked)', #109 ) ;
#42 = DIRECTION ( 'NONE',  ( -0.000000000000000000, -1.000000000000000000, -0.000000000000000000 ) ) ;
#43 = ADVANCED_FACE ( 'NONE', ( #144 ), #1, .T. ) ;
#44 = AXIS2_PLACEMENT_3D ( 'NONE', #82, #258, #140 ) ;
#45 = AXIS2_PLACEMENT_3D ( 'NONE', #57, #350, #320 ) ;
#46 = DIRECTION ( 'NONE',  ( -1.224646799147353454E-16, 1.000000000000000000, 0.000000000000000000 ) ) ;
#47 = FACE_OUTER_BOUND ( 'NONE', #283, .T. ) ;
#48 = PRESENTATION_STYLE_ASSIGNMENT (( #331 ) ) ;
#49 = ORIENTED_EDGE ( 'NONE', *, *, #20, .F. ) ;
#50 = AXIS2_PLACEMENT_3D ( 'NONE', #211, #38, #327 ) ;
#51 = ORIENTED_EDGE ( 'NONE', *, *, #171, .T. ) ;
#52 = ORIENTED_EDGE ( 'NONE', *, *, #155, .T. ) ;
#53 = EDGE_CURVE ( 'NONE', #313, #364, #254, .T. ) ;
#54 = CIRCLE ( 'NONE', #340, 0.5000000000000000000 ) ;
#55 =( GEOMETRIC_REPRESENTATION_CONTEXT ( 3 ) GLOBAL_UNCERTAINTY_ASSIGNED_CONTEXT ( ( #166 ) ) GLOBAL_UNIT_ASSIGNED_CONTEXT ( ( #304, #14, #11 ) ) REPRESENTATION_CONTEXT ( 'NONE', 'WORKASPACE' ) );
#56 =( LENGTH_UNIT ( ) NAMED_UNIT ( * ) SI_UNIT ( $, .METRE. ) );
#57 = CARTESIAN_POINT ( 'NONE',  ( -6.123233995736766036E-17, 0.5000000000000000000, 0.000000000000000000 ) ) ;
#58 = PRESENTATION_STYLE_ASSIGNMENT (( #247 ) ) ;
#59 = LINE ( 'NONE', #165, #319 ) ;
#60 = FILL_AREA_STYLE_COLOUR ( '', #275 ) ;
#61 = PRODUCT_RELATED_PRODUCT_CATEGORY ( 'part', '', ( #277 ) ) ;
#62 = EDGE_CURVE ( 'NONE', #133, #370, #221, .T. ) ;
#63 = CARTESIAN_POINT ( 'NONE',  ( 0.000000000000000000, 3.250000000000000000, 0.000000000000000000 ) ) ;
#64 = DIRECTION ( 'NONE',  ( 0.000000000000000000, 0.000000000000000000, -1.000000000000000000 ) ) ;
#65 = CARTESIAN_POINT ( 'NONE',  ( 0.000000000000000000, 0.5000000000000000000, 0.000000000000000000 ) ) ;
#66 =( GEOMETRIC_REPRESENTATION_CONTEXT ( 3 ) GLOBAL_UNCERTAINTY_ASSIGNED_CONTEXT ( ( #321 ) ) GLOBAL_UNIT_ASSIGNED_CONTEXT ( ( #347, #117, #199 ) ) REPRESENTATION_CONTEXT ( 'NONE', 'WORKASPACE' ) );
#67 =( NAMED_UNIT ( * ) PLANE_ANGLE_UNIT ( ) SI_UNIT ( $, .RADIAN. ) );
#68 = ORIENTED_EDGE ( 'NONE', *, *, #242, .F. ) ;
#69 =( NAMED_UNIT ( * ) SI_UNIT ( $, .STERADIAN. ) SOLID_ANGLE_UNIT ( ) );
#70 = EDGE_CURVE ( 'NONE', #193, #332, #104, .T. ) ;
#71 = CARTESIAN_POINT ( 'NONE',  ( 6.123233995736763571E-17, 0.000000000000000000, 0.4999999999999997780 ) ) ;
#72 = CIRCLE ( 'NONE', #50, 0.5000000000000000000 ) ;
#73 = CARTESIAN_POINT ( 'NONE',  ( 2.143131898507868297E-16, 3.250000000000000000, 0.000000000000000000 ) ) ;
#74 = EDGE_LOOP ( 'NONE', ( #284, #311, #52, #157, #25 ) ) ;
#75 = ORIENTED_EDGE ( 'NONE', *, *, #219, .T. ) ;
#76 = MECHANICAL_DESIGN_GEOMETRIC_PRESENTATION_REPRESENTATION (  '', ( #335 ), #66 ) ;
#77 = COLOUR_RGB ( '',0.7921568627450980005, 0.8196078431372548767, 0.9333333333333333481 ) ;
#78 = ORIENTED_EDGE ( 'NONE', *, *, #62, .F. ) ;
#79 = ORIENTED_EDGE ( 'NONE', *, *, #267, .F. ) ;
#80 = FILL_AREA_STYLE ('',( #225 ) ) ;
#81 = SURFACE_STYLE_USAGE ( .BOTH. , #336 ) ;
#82 = CARTESIAN_POINT ( 'NONE',  ( -1.224646799147354440E-16, 6.000000000000000888, 0.000000000000000000 ) ) ;
#83 = CIRCLE ( 'NONE', #10, 0.5000000000000000000 ) ;
#84 = DIRECTION ( 'NONE',  ( -0.000000000000000000, -1.000000000000000000, -0.000000000000000000 ) ) ;
#85 = MECHANICAL_DESIGN_GEOMETRIC_PRESENTATION_REPRESENTATION (  '', ( #170 ), #202 ) ;
#86 = FACE_OUTER_BOUND ( 'NONE', #161, .T. ) ;
#87 = FILL_AREA_STYLE_COLOUR ( '', #195 ) ;
#88 = FILL_AREA_STYLE ('',( #252 ) ) ;
#89 = PRESENTATION_STYLE_ASSIGNMENT (( #167 ) ) ;
#90 = DIRECTION ( 'NONE',  ( -1.224646799147353454E-16, 1.000000000000000000, -0.000000000000000000 ) ) ;
#91 =( CONVERSION_BASED_UNIT ( 'INCH', #39 ) LENGTH_UNIT ( ) NAMED_UNIT ( #246 ) );
#92 = FILL_AREA_STYLE_COLOUR ( '', #265 ) ;
#93 = DIRECTION ( 'NONE',  ( 1.000000000000000000, 0.000000000000000000, -1.224646799147353207E-16 ) ) ;
#94 = EDGE_LOOP ( 'NONE', ( #148, #17, #209, #220 ) ) ;
#95 = STYLED_ITEM ( 'NONE', ( #262 ), #358 ) ;
#96 = UNCERTAINTY_MEASURE_WITH_UNIT (LENGTH_MEASURE( 1.000000000000000082E-05 ), #106, 'distance_accuracy_value', 'NONE');
#97 = DIRECTION ( 'NONE',  ( 0.000000000000000000, 0.000000000000000000, -1.000000000000000000 ) ) ;
#98 = DIRECTION ( 'NONE',  ( -1.000000000000000000, 0.000000000000000000, 0.000000000000000000 ) ) ;
#99 = SURFACE_STYLE_FILL_AREA ( #307 ) ;
#100 = DIMENSIONAL_EXPONENTS ( 1.000000000000000000, 0.000000000000000000, 0.000000000000000000, 0.000000000000000000, 0.000000000000000000, 0.000000000000000000, 0.000000000000000000 ) ;
#101 = EDGE_LOOP ( 'NONE', ( #308, #367, #216, #79 ) ) ;
#102 =( NAMED_UNIT ( * ) SI_UNIT ( $, .STERADIAN. ) SOLID_ANGLE_UNIT ( ) );
#103 = ORIENTED_EDGE ( 'NONE', *, *, #293, .T. ) ;
#104 = CIRCLE ( 'NONE', #234, 0.4999999999999997224 ) ;
#105 = CIRCLE ( 'NONE', #200, 0.4999999999999996114 ) ;
#106 =( CONVERSION_BASED_UNIT ( 'INCH', #217 ) LENGTH_UNIT ( ) NAMED_UNIT ( #227 ) );
#107 =( GEOMETRIC_REPRESENTATION_CONTEXT ( 3 ) GLOBAL_UNCERTAINTY_ASSIGNED_CONTEXT ( ( #203 ) ) GLOBAL_UNIT_ASSIGNED_CONTEXT ( ( #91, #67, #69 ) ) REPRESENTATION_CONTEXT ( 'NONE', 'WORKASPACE' ) );
#108 = EDGE_CURVE ( 'NONE', #370, #133, #105, .T. ) ;
#109 = CLOSED_SHELL ( 'NONE', ( #233, #260, #354, #139 ) ) ;
#110 = ORIENTED_EDGE ( 'NONE', *, *, #232, .T. ) ;
#111 = FACE_OUTER_BOUND ( 'NONE', #94, .T. ) ;
#112 = ORIENTED_EDGE ( 'NONE', *, *, #293, .F. ) ;
#113 = VERTEX_POINT ( 'NONE', #174 ) ;
#114 = SURFACE_STYLE_FILL_AREA ( #289 ) ;
#115 = PRESENTATION_LAYER_ASSIGNMENT (  '', '', ( #241 ) ) ;
#116 = LENGTH_MEASURE_WITH_UNIT ( LENGTH_MEASURE( 0.02539999999999999897 ), #56 );
#117 =( NAMED_UNIT ( * ) PLANE_ANGLE_UNIT ( ) SI_UNIT ( $, .RADIAN. ) );
#118 = SURFACE_SIDE_STYLE ('',( #298 ) ) ;
#119 = MECHANICAL_DESIGN_GEOMETRIC_PRESENTATION_REPRESENTATION (  '', ( #323 ), #168 ) ;
#120 = CARTESIAN_POINT ( 'NONE',  ( -0.4999999999999997224, 6.000000000000000888, 0.000000000000000000 ) ) ;
#121 = DIRECTION ( 'NONE',  ( 0.000000000000000000, 0.000000000000000000, -1.000000000000000000 ) ) ;
#122 = COLOUR_RGB ( '',0.7921568627450980005, 0.8196078431372548767, 0.9333333333333333481 ) ;
#123 = PRODUCT_DEFINITION ( 'UNKNOWN', '', #368, #345 ) ;
#124 = DIRECTION ( 'NONE',  ( 0.000000000000000000, 0.000000000000000000, -1.000000000000000000 ) ) ;
#125 = DIRECTION ( 'NONE',  ( -1.224646799147353454E-16, 1.000000000000000000, -0.000000000000000000 ) ) ;
#126 = CYLINDRICAL_SURFACE ( 'NONE', #208, 0.4999999999999997780 ) ;
#127 = VECTOR ( 'NONE', #42, 39.37007874015748143 ) ;
#128 = SURFACE_SIDE_STYLE ('',( #18 ) ) ;
#129 = EDGE_LOOP ( 'NONE', ( #68, #49 ) ) ;
#130 = AXIS2_PLACEMENT_3D ( 'NONE', #244, #359, #351 ) ;
#131 =( NAMED_UNIT ( * ) PLANE_ANGLE_UNIT ( ) SI_UNIT ( $, .RADIAN. ) );
#132 = DIRECTION ( 'NONE',  ( -1.224646799147353454E-16, 1.000000000000000000, -0.000000000000000000 ) ) ;
#133 = VERTEX_POINT ( 'NONE', #300 ) ;
#134 =( NAMED_UNIT ( * ) PLANE_ANGLE_UNIT ( ) SI_UNIT ( $, .RADIAN. ) );
#135 = DIRECTION ( 'NONE',  ( -1.224646799147353454E-16, 1.000000000000000000, -0.000000000000000000 ) ) ;
#136 = DIRECTION ( 'NONE',  ( 0.000000000000000000, -0.000000000000000000, 1.000000000000000000 ) ) ;
#137 = PRESENTATION_LAYER_ASSIGNMENT (  '', '', ( #323 ) ) ;
#138 = MECHANICAL_DESIGN_GEOMETRIC_PRESENTATION_REPRESENTATION (  '', ( #230 ), #107 ) ;
#139 = ADVANCED_FACE ( 'NONE', ( #290 ), #339, .F. ) ;
#140 = DIRECTION ( 'NONE',  ( -1.000000000000000000, 0.000000000000000000, 0.000000000000000000 ) ) ;
#141 = EDGE_CURVE ( 'NONE', #332, #193, #36, .T. ) ;
#142 = DIRECTION ( 'NONE',  ( 0.000000000000000000, 0.000000000000000000, 1.000000000000000000 ) ) ;
#143 = CARTESIAN_POINT ( 'NONE',  ( 0.000000000000000000, 3.250000000000000000, 0.000000000000000000 ) ) ;
#144 = FACE_OUTER_BOUND ( 'NONE', #272, .T. ) ;
#145 = PRESENTATION_LAYER_ASSIGNMENT (  '', '', ( #294 ) ) ;
#146 = DIRECTION ( 'NONE',  ( -1.000000000000000000, -1.224646799147353454E-16, 0.000000000000000000 ) ) ;
#147 = CARTESIAN_POINT ( 'NONE',  ( 0.000000000000000000, 0.000000000000000000, 0.000000000000000000 ) ) ;
#148 = ORIENTED_EDGE ( 'NONE', *, *, #150, .F. ) ;
#149 =( CONVERSION_BASED_UNIT ( 'INCH', #40 ) LENGTH_UNIT ( ) NAMED_UNIT ( #194 ) );
#150 = EDGE_CURVE ( 'NONE', #365, #193, #59, .T. ) ;
#151 = LINE ( 'NONE', #120, #222 ) ;
#152 = CARTESIAN_POINT ( 'NONE',  ( 0.000000000000000000, 0.5000000000000000000, 0.000000000000000000 ) ) ;
#153 = AXIS2_PLACEMENT_3D ( 'NONE', #26, #142, #371 ) ;
#154 = VERTEX_POINT ( 'NONE', #259 ) ;
#155 = EDGE_CURVE ( 'NONE', #370, #364, #181, .T. ) ;
#156 = PRODUCT_DEFINITION_SHAPE ( 'NONE', 'NONE',  #123 ) ;
#157 = ORIENTED_EDGE ( 'NONE', *, *, #53, .F. ) ;
#158 = SURFACE_SIDE_STYLE ('',( #99 ) ) ;
#159 = DIRECTION ( 'NONE',  ( 0.000000000000000000, 0.000000000000000000, -1.000000000000000000 ) ) ;
#160 = AXIS2_PLACEMENT_3D ( 'NONE', #185, #46, #146 ) ;
#161 = EDGE_LOOP ( 'NONE', ( #251, #78 ) ) ;
#162 = CYLINDRICAL_SURFACE ( 'NONE', #44, 0.4999999999999996114 ) ;
#163 = CARTESIAN_POINT ( 'NONE',  ( 0.4999999999999996114, 6.000000000000000888, 0.000000000000000000 ) ) ;
#164 =( LENGTH_UNIT ( ) NAMED_UNIT ( * ) SI_UNIT ( $, .METRE. ) );
#165 = CARTESIAN_POINT ( 'NONE',  ( 0.4999999999999994449, 6.000000000000000888, 6.123233995736761105E-17 ) ) ;
#166 = UNCERTAINTY_MEASURE_WITH_UNIT (LENGTH_MEASURE( 1.000000000000000082E-05 ), #304, 'distance_accuracy_value', 'NONE');
#167 = SURFACE_STYLE_USAGE ( .BOTH. , #118 ) ;
#168 =( GEOMETRIC_REPRESENTATION_CONTEXT ( 3 ) GLOBAL_UNCERTAINTY_ASSIGNED_CONTEXT ( ( #239 ) ) GLOBAL_UNIT_ASSIGNED_CONTEXT ( ( #149, #303, #176 ) ) REPRESENTATION_CONTEXT ( 'NONE', 'WORKASPACE' ) );
#169 = CARTESIAN_POINT ( 'NONE',  ( 0.000000000000000000, 0.5000000000000000000, 0.000000000000000000 ) ) ;
#170 = STYLED_ITEM ( 'NONE', ( #297 ), #43 ) ;
#171 = EDGE_CURVE ( 'NONE', #364, #113, #72, .T. ) ;
#172 = CYLINDRICAL_SURFACE ( 'NONE', #183, 0.4999999999999997780 ) ;
#173 =( CONVERSION_BASED_UNIT ( 'INCH', #35 ) LENGTH_UNIT ( ) NAMED_UNIT ( #100 ) );
#174 = CARTESIAN_POINT ( 'NONE',  ( 0.5000000000000000000, 0.5000000000000000000, 0.000000000000000000 ) ) ;
#175 = APPLICATION_PROTOCOL_DEFINITION ( 'draft international standard', 'automotive_design', 1998, #312 ) ;
#176 =( NAMED_UNIT ( * ) SI_UNIT ( $, .STERADIAN. ) SOLID_ANGLE_UNIT ( ) );
#177 = COLOUR_RGB ( '',1.000000000000000000, 0.000000000000000000, 0.000000000000000000 ) ;
#178 = LENGTH_MEASURE_WITH_UNIT ( LENGTH_MEASURE( 0.02539999999999999897 ), #210 );
#179 = UNCERTAINTY_MEASURE_WITH_UNIT (LENGTH_MEASURE( 1.000000000000000082E-05 ), #291, 'distance_accuracy_value', 'NONE');
#180 = CARTESIAN_POINT ( 'NONE',  ( -1.224646799147354440E-16, 6.000000000000000888, 0.000000000000000000 ) ) ;
#181 = LINE ( 'NONE', #212, #127 ) ;
#182 = AXIS2_PLACEMENT_3D ( 'NONE', #180, #13, #278 ) ;
#183 = AXIS2_PLACEMENT_3D ( 'NONE', #276, #328, #124 ) ;
#184 = PRESENTATION_LAYER_ASSIGNMENT (  '', '', ( #335 ) ) ;
#185 = CARTESIAN_POINT ( 'NONE',  ( 2.143131898507868297E-16, 3.250000000000000000, 0.000000000000000000 ) ) ;
#186 = EDGE_LOOP ( 'NONE', ( #190, #103, #21, #333 ) ) ;
#187 = CARTESIAN_POINT ( 'NONE',  ( -0.5000000000000000000, 0.5000000000000000000, 6.123233995736764803E-17 ) ) ;
#188 = VERTEX_POINT ( 'NONE', #271 ) ;
#189 = ADVANCED_FACE ( 'NONE', ( #47 ), #126, .T. ) ;
#190 = ORIENTED_EDGE ( 'NONE', *, *, #249, .T. ) ;
#191 = DIMENSIONAL_EXPONENTS ( 1.000000000000000000, 0.000000000000000000, 0.000000000000000000, 0.000000000000000000, 0.000000000000000000, 0.000000000000000000, 0.000000000000000000 ) ;
#192 = PRESENTATION_STYLE_ASSIGNMENT (( #81 ) ) ;
#193 = VERTEX_POINT ( 'NONE', #360 ) ;
#194 = DIMENSIONAL_EXPONENTS ( 1.000000000000000000, 0.000000000000000000, 0.000000000000000000, 0.000000000000000000, 0.000000000000000000, 0.000000000000000000, 0.000000000000000000 ) ;
#195 = COLOUR_RGB ( '',1.000000000000000000, 0.000000000000000000, 0.000000000000000000 ) ;
#196 = SURFACE_SIDE_STYLE ('',( #114 ) ) ;
#197 =( NAMED_UNIT ( * ) SI_UNIT ( $, .STERADIAN. ) SOLID_ANGLE_UNIT ( ) );
#198 = DIRECTION ( 'NONE',  ( 1.224646799147353454E-16, -1.000000000000000000, 0.000000000000000000 ) ) ;
#199 =( NAMED_UNIT ( * ) SI_UNIT ( $, .STERADIAN. ) SOLID_ANGLE_UNIT ( ) );
#200 = AXIS2_PLACEMENT_3D ( 'NONE', #204, #84, #64 ) ;
#201 =( GEOMETRIC_REPRESENTATION_CONTEXT ( 3 ) GLOBAL_UNCERTAINTY_ASSIGNED_CONTEXT ( ( #96 ) ) GLOBAL_UNIT_ASSIGNED_CONTEXT ( ( #106, #131, #102 ) ) REPRESENTATION_CONTEXT ( 'NONE', 'WORKASPACE' ) );
#202 =( GEOMETRIC_REPRESENTATION_CONTEXT ( 3 ) GLOBAL_UNCERTAINTY_ASSIGNED_CONTEXT ( ( #37 ) ) GLOBAL_UNIT_ASSIGNED_CONTEXT ( ( #173, #229, #299 ) ) REPRESENTATION_CONTEXT ( 'NONE', 'WORKASPACE' ) );
#203 = UNCERTAINTY_MEASURE_WITH_UNIT (LENGTH_MEASURE( 1.000000000000000082E-05 ), #91, 'distance_accuracy_value', 'NONE');
#204 = CARTESIAN_POINT ( 'NONE',  ( 0.000000000000000000, 3.250000000000000000, 0.000000000000000000 ) ) ;
#205 = PRODUCT_CONTEXT ( 'NONE', #282, 'mechanical' ) ;
#206 = DIRECTION ( 'NONE',  ( -1.000000000000000000, 0.000000000000000000, 0.000000000000000000 ) ) ;
#207 = CARTESIAN_POINT ( 'NONE',  ( -0.4999999999999998335, 6.000000000000000888, 0.000000000000000000 ) ) ;
#208 = AXIS2_PLACEMENT_3D ( 'NONE', #147, #245, #121 ) ;
#209 = ORIENTED_EDGE ( 'NONE', *, *, #267, .T. ) ;
#210 =( LENGTH_UNIT ( ) NAMED_UNIT ( * ) SI_UNIT ( $, .METRE. ) );
#211 = CARTESIAN_POINT ( 'NONE',  ( 0.000000000000000000, 0.5000000000000000000, 0.000000000000000000 ) ) ;
#212 = CARTESIAN_POINT ( 'NONE',  ( 0.000000000000000000, 0.000000000000000000, -0.4999999999999997780 ) ) ;
#213 = FACE_OUTER_BOUND ( 'NONE', #101, .T. ) ;
#214 = CIRCLE ( 'NONE', #279, 0.5000000000000000000 ) ;
#215 = DIMENSIONAL_EXPONENTS ( 1.000000000000000000, 0.000000000000000000, 0.000000000000000000, 0.000000000000000000, 0.000000000000000000, 0.000000000000000000, 0.000000000000000000 ) ;
#216 = ORIENTED_EDGE ( 'NONE', *, *, #141, .F. ) ;
#217 = LENGTH_MEASURE_WITH_UNIT ( LENGTH_MEASURE( 0.02539999999999999897 ), #285 );
#218 = DIRECTION ( 'NONE',  ( -1.000000000000000000, 0.000000000000000000, 0.000000000000000000 ) ) ;
#219 = EDGE_CURVE ( 'NONE', #113, #154, #214, .T. ) ;
#220 = ORIENTED_EDGE ( 'NONE', *, *, #70, .F. ) ;
#221 = CIRCLE ( 'NONE', #273, 0.4999999999999996114 ) ;
#222 = VECTOR ( 'NONE', #306, 39.37007874015748143 ) ;
#223 = PRESENTATION_LAYER_ASSIGNMENT (  '', '', ( #170 ) ) ;
#224 = FILL_AREA_STYLE ('',( #315 ) ) ;
#225 = FILL_AREA_STYLE_COLOUR ( '', #177 ) ;
#226 = CARTESIAN_POINT ( 'NONE',  ( 6.123233995736767268E-17, 0.5000000000000000000, 0.5000000000000000000 ) ) ;
#227 = DIMENSIONAL_EXPONENTS ( 1.000000000000000000, 0.000000000000000000, 0.000000000000000000, 0.000000000000000000, 0.000000000000000000, 0.000000000000000000, 0.000000000000000000 ) ;
#228 = FILL_AREA_STYLE ('',( #60 ) ) ;
#229 =( NAMED_UNIT ( * ) PLANE_ANGLE_UNIT ( ) SI_UNIT ( $, .RADIAN. ) );
#230 = STYLED_ITEM ( 'NONE', ( #89 ), #369 ) ;
#231 = DIRECTION ( 'NONE',  ( -1.000000000000000000, 0.000000000000000000, 0.000000000000000000 ) ) ;
#232 = EDGE_CURVE ( 'NONE', #133, #19, #274, .T. ) ;
#233 = ADVANCED_FACE ( 'NONE', ( #213 ), #353, .T. ) ;
#234 = AXIS2_PLACEMENT_3D ( 'NONE', #292, #90, #231 ) ;
#235 = DIRECTION ( 'NONE',  ( -0.000000000000000000, -1.000000000000000000, -0.000000000000000000 ) ) ;
#236 = PRESENTATION_STYLE_ASSIGNMENT (( #330 ) ) ;
#237 = CARTESIAN_POINT ( 'NONE',  ( 0.000000000000000000, 3.250000000000000000, -0.4999999999999996114 ) ) ;
#238 = DIRECTION ( 'NONE',  ( 1.224646799147353207E-16, -0.000000000000000000, 1.000000000000000000 ) ) ;
#239 = UNCERTAINTY_MEASURE_WITH_UNIT (LENGTH_MEASURE( 1.000000000000000082E-05 ), #149, 'distance_accuracy_value', 'NONE');
#240 = DIRECTION ( 'NONE',  ( -0.000000000000000000, -1.000000000000000000, -0.000000000000000000 ) ) ;
#241 = STYLED_ITEM ( 'NONE', ( #58 ), #346 ) ;
#242 = EDGE_CURVE ( 'NONE', #188, #365, #329, .T. ) ;
#243 = DIRECTION ( 'NONE',  ( -0.000000000000000000, -1.000000000000000000, -0.000000000000000000 ) ) ;
#244 = CARTESIAN_POINT ( 'NONE',  ( 0.000000000000000000, 0.000000000000000000, 0.000000000000000000 ) ) ;
#245 = DIRECTION ( 'NONE',  ( -0.000000000000000000, -1.000000000000000000, -0.000000000000000000 ) ) ;
#246 = DIMENSIONAL_EXPONENTS ( 1.000000000000000000, 0.000000000000000000, 0.000000000000000000, 0.000000000000000000, 0.000000000000000000, 0.000000000000000000, 0.000000000000000000 ) ;
#247 = SURFACE_STYLE_USAGE ( .BOTH. , #128 ) ;
#248 = ORIENTED_EDGE ( 'NONE', *, *, #171, .F. ) ;
#249 = EDGE_CURVE ( 'NONE', #19, #313, #83, .T. ) ;
#250 = ADVANCED_BREP_SHAPE_REPRESENTATION ( '49466', ( #302, #41, #130 ), #55 ) ;
#251 = ORIENTED_EDGE ( 'NONE', *, *, #108, .F. ) ;
#252 = FILL_AREA_STYLE_COLOUR ( '', #281 ) ;
#253 = MECHANICAL_DESIGN_GEOMETRIC_PRESENTATION_REPRESENTATION (  '', ( #241 ), #301 ) ;
#254 = CIRCLE ( 'NONE', #9, 0.5000000000000000000 ) ;
#255 = ORIENTED_EDGE ( 'NONE', *, *, #141, .T. ) ;
#256 = DIRECTION ( 'NONE',  ( -1.000000000000000000, 0.000000000000000000, 0.000000000000000000 ) ) ;
#257 = PRESENTATION_LAYER_ASSIGNMENT (  '', '', ( #95 ) ) ;
#258 = DIRECTION ( 'NONE',  ( -1.224646799147353454E-16, 1.000000000000000000, -0.000000000000000000 ) ) ;
#259 = CARTESIAN_POINT ( 'NONE',  ( -3.061616997868383018E-17, 0.000000000000000000, 0.000000000000000000 ) ) ;
#260 = ADVANCED_FACE ( 'NONE', ( #305 ), #7, .F. ) ;
#261 = DIRECTION ( 'NONE',  ( 0.000000000000000000, 1.000000000000000000, 0.000000000000000000 ) ) ;
#262 = PRESENTATION_STYLE_ASSIGNMENT (( #316 ) ) ;
#263 = UNCERTAINTY_MEASURE_WITH_UNIT (LENGTH_MEASURE( 1.000000000000000082E-05 ), #28, 'distance_accuracy_value', 'NONE');
#264 = DIRECTION ( 'NONE',  ( 0.000000000000000000, 0.000000000000000000, -1.000000000000000000 ) ) ;
#265 = COLOUR_RGB ( '',1.000000000000000000, 0.000000000000000000, 0.000000000000000000 ) ;
#266 = APPLICATION_PROTOCOL_DEFINITION ( 'draft international standard', 'automotive_design', 1998, #282 ) ;
#267 = EDGE_CURVE ( 'NONE', #188, #332, #151, .T. ) ;
#268 = SURFACE_SIDE_STYLE ('',( #318 ) ) ;
#269 =( LENGTH_UNIT ( ) NAMED_UNIT ( * ) SI_UNIT ( $, .METRE. ) );
#270 = CARTESIAN_POINT ( 'NONE',  ( -6.123233995736766036E-17, 0.5000000000000000000, 0.000000000000000000 ) ) ;
#271 = CARTESIAN_POINT ( 'NONE',  ( -0.4999999999999991673, 3.250000000000000000, 0.000000000000000000 ) ) ;
#272 = EDGE_LOOP ( 'NONE', ( #112, #372, #51, #75 ) ) ;
#273 = AXIS2_PLACEMENT_3D ( 'NONE', #143, #235, #264 ) ;
#274 = LINE ( 'NONE', #71, #30 ) ;
#275 = COLOUR_RGB ( '',1.000000000000000000, 0.000000000000000000, 0.000000000000000000 ) ;
#276 = CARTESIAN_POINT ( 'NONE',  ( 0.000000000000000000, 0.000000000000000000, 0.000000000000000000 ) ) ;
#277 = PRODUCT ( '49466', '49466', '', ( #205 ) ) ;
#278 = DIRECTION ( 'NONE',  ( -1.000000000000000000, 0.000000000000000000, 0.000000000000000000 ) ) ;
#279 = AXIS2_PLACEMENT_3D ( 'NONE', #270, #322, #98 ) ;
#280 = DIRECTION ( 'NONE',  ( -0.000000000000000000, -1.000000000000000000, -0.000000000000000000 ) ) ;
#281 = COLOUR_RGB ( '',1.000000000000000000, 0.000000000000000000, 0.000000000000000000 ) ;
#282 = APPLICATION_CONTEXT ( 'automotive_design' ) ;
#283 = EDGE_LOOP ( 'NONE', ( #286, #110, #326, #248, #337 ) ) ;
#284 = ORIENTED_EDGE ( 'NONE', *, *, #232, .F. ) ;
#285 =( LENGTH_UNIT ( ) NAMED_UNIT ( * ) SI_UNIT ( $, .METRE. ) );
#286 = ORIENTED_EDGE ( 'NONE', *, *, #108, .T. ) ;
#287 = ORIENTED_EDGE ( 'NONE', *, *, #70, .T. ) ;
#288 = DIMENSIONAL_EXPONENTS ( 1.000000000000000000, 0.000000000000000000, 0.000000000000000000, 0.000000000000000000, 0.000000000000000000, 0.000000000000000000, 0.000000000000000000 ) ;
#289 = FILL_AREA_STYLE ('',( #87 ) ) ;
#290 = FACE_OUTER_BOUND ( 'NONE', #363, .T. ) ;
#291 =( CONVERSION_BASED_UNIT ( 'INCH', #33 ) LENGTH_UNIT ( ) NAMED_UNIT ( #334 ) );
#292 = CARTESIAN_POINT ( 'NONE',  ( -1.224646799147354440E-16, 6.000000000000000888, 0.000000000000000000 ) ) ;
#293 = EDGE_CURVE ( 'NONE', #313, #154, #54, .T. ) ;
#294 = STYLED_ITEM ( 'NONE', ( #48 ), #302 ) ;
#295 =( NAMED_UNIT ( * ) SI_UNIT ( $, .STERADIAN. ) SOLID_ANGLE_UNIT ( ) );
#296 = CIRCLE ( 'NONE', #12, 0.5000000000000000000 ) ;
#297 = PRESENTATION_STYLE_ASSIGNMENT (( #344 ) ) ;
#298 = SURFACE_STYLE_FILL_AREA ( #228 ) ;
#299 =( NAMED_UNIT ( * ) SI_UNIT ( $, .STERADIAN. ) SOLID_ANGLE_UNIT ( ) );
#300 = CARTESIAN_POINT ( 'NONE',  ( 6.123233995736762338E-17, 3.250000000000000000, 0.4999999999999996114 ) ) ;
#301 =( GEOMETRIC_REPRESENTATION_CONTEXT ( 3 ) GLOBAL_UNCERTAINTY_ASSIGNED_CONTEXT ( ( #179 ) ) GLOBAL_UNIT_ASSIGNED_CONTEXT ( ( #291, #134, #295 ) ) REPRESENTATION_CONTEXT ( 'NONE', 'WORKASPACE' ) );
#302 = MANIFOLD_SOLID_BREP ( 'Revolve - Cutting Edge', #324 ) ;
#303 =( NAMED_UNIT ( * ) PLANE_ANGLE_UNIT ( ) SI_UNIT ( $, .RADIAN. ) );
#304 =( CONVERSION_BASED_UNIT ( 'INCH', #178 ) LENGTH_UNIT ( ) NAMED_UNIT ( #288 ) );
#305 = FACE_OUTER_BOUND ( 'NONE', #129, .T. ) ;
#306 = DIRECTION ( 'NONE',  ( -1.224646799147353454E-16, 1.000000000000000000, -0.000000000000000000 ) ) ;
#307 = FILL_AREA_STYLE ('',( #362 ) ) ;
#308 = ORIENTED_EDGE ( 'NONE', *, *, #242, .T. ) ;
#309 = FACE_OUTER_BOUND ( 'NONE', #186, .T. ) ;
#310 =( GEOMETRIC_REPRESENTATION_CONTEXT ( 3 ) GLOBAL_UNCERTAINTY_ASSIGNED_CONTEXT ( ( #263 ) ) GLOBAL_UNIT_ASSIGNED_CONTEXT ( ( #28, #341, #197 ) ) REPRESENTATION_CONTEXT ( 'NONE', 'WORKASPACE' ) );
#311 = ORIENTED_EDGE ( 'NONE', *, *, #62, .T. ) ;
#312 = APPLICATION_CONTEXT ( 'automotive_design' ) ;
#313 = VERTEX_POINT ( 'NONE', #187 ) ;
#314 = CARTESIAN_POINT ( 'NONE',  ( 2.143131898507868297E-16, 3.250000000000000000, 0.000000000000000000 ) ) ;
#315 = FILL_AREA_STYLE_COLOUR ( '', #122 ) ;
#316 = SURFACE_STYLE_USAGE ( .BOTH. , #196 ) ;
#317 = DIRECTION ( 'NONE',  ( 0.000000000000000000, 0.000000000000000000, -1.000000000000000000 ) ) ;
#318 = SURFACE_STYLE_FILL_AREA ( #88 ) ;
#319 = VECTOR ( 'NONE', #29, 39.37007874015748143 ) ;
#320 = DIRECTION ( 'NONE',  ( 1.000000000000000000, 0.000000000000000000, 0.000000000000000000 ) ) ;
#321 = UNCERTAINTY_MEASURE_WITH_UNIT (LENGTH_MEASURE( 1.000000000000000082E-05 ), #347, 'distance_accuracy_value', 'NONE');
#322 = DIRECTION ( 'NONE',  ( 0.000000000000000000, 0.000000000000000000, -1.000000000000000000 ) ) ;
#323 = STYLED_ITEM ( 'NONE', ( #236 ), #189 ) ;
#324 = CLOSED_SHELL ( 'NONE', ( #346, #189, #358, #369, #43 ) ) ;
#325 = SURFACE_STYLE_FILL_AREA ( #356 ) ;
#326 = ORIENTED_EDGE ( 'NONE', *, *, #31, .F. ) ;
#327 = DIRECTION ( 'NONE',  ( 0.000000000000000000, 0.000000000000000000, -1.000000000000000000 ) ) ;
#328 = DIRECTION ( 'NONE',  ( -0.000000000000000000, -1.000000000000000000, -0.000000000000000000 ) ) ;
#329 = CIRCLE ( 'NONE', #22, 0.4999999999999993894 ) ;
#330 = SURFACE_STYLE_USAGE ( .BOTH. , #8 ) ;
#331 = SURFACE_STYLE_USAGE ( .BOTH. , #158 ) ;
#332 = VERTEX_POINT ( 'NONE', #207 ) ;
#333 = ORIENTED_EDGE ( 'NONE', *, *, #31, .T. ) ;
#334 = DIMENSIONAL_EXPONENTS ( 1.000000000000000000, 0.000000000000000000, 0.000000000000000000, 0.000000000000000000, 0.000000000000000000, 0.000000000000000000, 0.000000000000000000 ) ;
#335 = STYLED_ITEM ( 'NONE', ( #192 ), #41 ) ;
#336 = SURFACE_SIDE_STYLE ('',( #23 ) ) ;
#337 = ORIENTED_EDGE ( 'NONE', *, *, #155, .F. ) ;
#338 = SPHERICAL_SURFACE ( 'NONE', #153, 0.5000000000000000000 ) ;
#339 = PLANE ( 'NONE',  #366 ) ;
#340 = AXIS2_PLACEMENT_3D ( 'NONE', #352, #238, #93 ) ;
#341 =( NAMED_UNIT ( * ) PLANE_ANGLE_UNIT ( ) SI_UNIT ( $, .RADIAN. ) );
#342 = DIRECTION ( 'NONE',  ( 1.000000000000000000, 1.224646799147353454E-16, 0.000000000000000000 ) ) ;
#343 = CARTESIAN_POINT ( 'NONE',  ( 0.4999999999999996669, 3.250000000000000000, 6.123233995736762338E-17 ) ) ;
#344 = SURFACE_STYLE_USAGE ( .BOTH. , #268 ) ;
#345 = PRODUCT_DEFINITION_CONTEXT ( 'detailed design', #312, 'design' ) ;
#346 = ADVANCED_FACE ( 'NONE', ( #309 ), #338, .T. ) ;
#347 =( CONVERSION_BASED_UNIT ( 'INCH', #116 ) LENGTH_UNIT ( ) NAMED_UNIT ( #215 ) );
#348 = PRESENTATION_LAYER_ASSIGNMENT (  '', '', ( #230 ) ) ;
#349 = PLANE ( 'NONE',  #15 ) ;
#350 = DIRECTION ( 'NONE',  ( 0.000000000000000000, 0.000000000000000000, 1.000000000000000000 ) ) ;
#351 = DIRECTION ( 'NONE',  ( 1.000000000000000000, 0.000000000000000000, 0.000000000000000000 ) ) ;
#352 = CARTESIAN_POINT ( 'NONE',  ( -6.123233995736766036E-17, 0.5000000000000000000, 0.000000000000000000 ) ) ;
#353 = CYLINDRICAL_SURFACE ( 'NONE', #182, 0.4999999999999996114 ) ;
#354 = ADVANCED_FACE ( 'NONE', ( #111 ), #162, .T. ) ;
#355 = AXIS2_PLACEMENT_3D ( 'NONE', #27, #135, #256 ) ;
#356 = FILL_AREA_STYLE ('',( #92 ) ) ;
#357 =( LENGTH_UNIT ( ) NAMED_UNIT ( * ) SI_UNIT ( $, .METRE. ) );
#358 = ADVANCED_FACE ( 'NONE', ( #86 ), #349, .T. ) ;
#359 = DIRECTION ( 'NONE',  ( 0.000000000000000000, 0.000000000000000000, 1.000000000000000000 ) ) ;
#360 = CARTESIAN_POINT ( 'NONE',  ( 0.4999999999999996669, 6.000000000000000888, 6.123233995736762338E-17 ) ) ;
#361 = MECHANICAL_DESIGN_GEOMETRIC_PRESENTATION_REPRESENTATION (  '', ( #294 ), #201 ) ;
#362 = FILL_AREA_STYLE_COLOUR ( '', #77 ) ;
#363 = EDGE_LOOP ( 'NONE', ( #255, #287 ) ) ;
#364 = VERTEX_POINT ( 'NONE', #3 ) ;
#365 = VERTEX_POINT ( 'NONE', #343 ) ;
#366 = AXIS2_PLACEMENT_3D ( 'NONE', #163, #198, #342 ) ;
#367 = ORIENTED_EDGE ( 'NONE', *, *, #150, .T. ) ;
#368 = PRODUCT_DEFINITION_FORMATION_WITH_SPECIFIED_SOURCE ( 'ANY', '', #277, .NOT_KNOWN. ) ;
#369 = ADVANCED_FACE ( 'NONE', ( #4 ), #172, .T. ) ;
#370 = VERTEX_POINT ( 'NONE', #237 ) ;
#371 = DIRECTION ( 'NONE',  ( 1.000000000000000000, 0.000000000000000000, 0.000000000000000000 ) ) ;
#372 = ORIENTED_EDGE ( 'NONE', *, *, #53, .T. ) ;
#373 = LENGTH_MEASURE_WITH_UNIT ( LENGTH_MEASURE( 0.02539999999999999897 ), #24 );
ENDSEC;
END-ISO-10303-21;
