ISO-10303-21;
HEADER;
FILE_DESCRIPTION (( 'STEP AP214' ),
    '1' );
FILE_NAME ('Micro_BMR-020-2X.STEP',
    '2021-09-03T13:51:06',
    ( '' ),
    ( '' ),
    'SwSTEP 2.0',
    'SolidWorks 2020',
    '' );
FILE_SCHEMA (( 'AUTOMOTIVE_DESIGN' ));
ENDSEC;

DATA;
#1 = MECHANICAL_DESIGN_GEOMETRIC_PRESENTATION_REPRESENTATION (  '', ( #111 ), #237 ) ;
#2 = CONICAL_SURFACE ( 'NONE', #97, 0.04750000000000064587, 0.7853981633974466137 ) ;
#3 = UNCERTAINTY_MEASURE_WITH_UNIT (LENGTH_MEASURE( 1.000000000000000082E-05 ), #57, 'distance_accuracy_value', 'NONE');
#4 = PLANE ( 'NONE',  #87 ) ;
#5 = CARTESIAN_POINT ( 'NONE',  ( 7.347880794884121462E-18, 0.0000000000000000000, 0.05999999999999999778 ) ) ;
#6 = ADVANCED_FACE ( 'NONE', ( #222 ), #323, .T. ) ;
#7 = VECTOR ( 'NONE', #45, 39.37007874015748143 ) ;
#8 = MANIFOLD_SOLID_BREP ( 'Fillet1', #310 ) ;
#9 = DIRECTION ( 'NONE',  ( -1.000000000000000000, 0.0000000000000000000, 0.0000000000000000000 ) ) ;
#10 = DIRECTION ( 'NONE',  ( 1.224646799147353454E-16, 0.0000000000000000000, 1.000000000000000000 ) ) ;
#11 = EDGE_LOOP ( 'NONE', ( #108, #100, #42 ) ) ;
#12 = FACE_OUTER_BOUND ( 'NONE', #217, .T. ) ;
#13 = PRESENTATION_LAYER_ASSIGNMENT (  '', '', ( #111 ) ) ;
#14 = AXIS2_PLACEMENT_3D ( 'NONE', #189, #281, #209 ) ;
#15 = DIRECTION ( 'NONE',  ( -1.224646799147353454E-16, -0.0000000000000000000, -1.000000000000000000 ) ) ;
#16 = APPLICATION_CONTEXT ( 'automotive_design' ) ;
#17 = ORIENTED_EDGE ( 'NONE', *, *, #40, .T. ) ;
#18 = DIRECTION ( 'NONE',  ( 0.0000000000000000000, 1.000000000000000000, 0.0000000000000000000 ) ) ;
#19 = DIRECTION ( 'NONE',  ( 0.7071067811865462405, 8.659560562354916834E-17, -0.7071067811865486830 ) ) ;
#20 = ORIENTED_EDGE ( 'NONE', *, *, #220, .F. ) ;
#21 = ADVANCED_FACE ( 'NONE', ( #178 ), #274, .T. ) ;
#22 = LINE ( 'NONE', #127, #212 ) ;
#23 = CIRCLE ( 'NONE', #51, 0.009990000000000000616 ) ;
#24 = CARTESIAN_POINT ( 'NONE',  ( 7.347880794884121462E-18, 0.0000000000000000000, 0.05999999999999999778 ) ) ;
#25 =( NAMED_UNIT ( * ) SI_UNIT ( $, .STERADIAN. ) SOLID_ANGLE_UNIT ( ) );
#26 =( LENGTH_UNIT ( ) NAMED_UNIT ( * ) SI_UNIT ( $, .METRE. ) );
#27 = SPHERICAL_SURFACE ( 'NONE', #28, 0.009990000000000000616 ) ;
#28 = AXIS2_PLACEMENT_3D ( 'NONE', #200, #208, #34 ) ;
#29 = VECTOR ( 'NONE', #19, 39.37007874015748854 ) ;
#30 = DIRECTION ( 'NONE',  ( 0.0000000000000000000, 0.0000000000000000000, 1.000000000000000000 ) ) ;
#31 = AXIS2_PLACEMENT_3D ( 'NONE', #70, #293, #269 ) ;
#32 = SURFACE_STYLE_USAGE ( .BOTH. , #180 ) ;
#33 = CARTESIAN_POINT ( 'NONE',  ( 0.0000000000000000000, 0.0000000000000000000, 1.500000000000000222 ) ) ;
#34 = DIRECTION ( 'NONE',  ( 1.000000000000000000, 0.0000000000000000000, 0.0000000000000000000 ) ) ;
#35 = VECTOR ( 'NONE', #244, 39.37007874015748143 ) ;
#36 = CARTESIAN_POINT ( 'NONE',  ( 0.04750000000000064587, 6.735557395310483192E-18, 1.500000000000000222 ) ) ;
#37 = VERTEX_POINT ( 'NONE', #106 ) ;
#38 = DIRECTION ( 'NONE',  ( -0.0000000000000000000, -0.0000000000000000000, -1.000000000000000000 ) ) ;
#39 = ORIENTED_EDGE ( 'NONE', *, *, #102, .T. ) ;
#40 = EDGE_CURVE ( 'NONE', #172, #239, #104, .T. ) ;
#41 = CARTESIAN_POINT ( 'NONE',  ( 0.0000000000000000000, 0.0000000000000000000, 1.500000000000000222 ) ) ;
#42 = ORIENTED_EDGE ( 'NONE', *, *, #249, .F. ) ;
#43 = AXIS2_PLACEMENT_3D ( 'NONE', #24, #271, #161 ) ;
#44 = PRODUCT_DEFINITION_FORMATION_WITH_SPECIFIED_SOURCE ( 'ANY', '', #307, .NOT_KNOWN. ) ;
#45 = DIRECTION ( 'NONE',  ( 0.1736481776669313581, 0.0000000000000000000, 0.9848077530122077983 ) ) ;
#46 = ADVANCED_FACE ( 'NONE', ( #221 ), #27, .T. ) ;
#47 = CARTESIAN_POINT ( 'NONE',  ( 0.06250000000000002776, 7.654042494670959086E-18, 1.500000000000000222 ) ) ;
#48 = LENGTH_MEASURE_WITH_UNIT ( LENGTH_MEASURE( 0.02539999999999999897 ), #155 );
#49 = CONICAL_SURFACE ( 'NONE', #318, 0.04750000000000064587, 0.7853981633974466137 ) ;
#50 = DIRECTION ( 'NONE',  ( 1.224646799147353454E-16, 0.0000000000000000000, 1.000000000000000000 ) ) ;
#51 = AXIS2_PLACEMENT_3D ( 'NONE', #5, #184, #9 ) ;
#52 = VERTEX_POINT ( 'NONE', #270 ) ;
#53 = EDGE_CURVE ( 'NONE', #150, #234, #116, .T. ) ;
#54 =( NAMED_UNIT ( * ) PLANE_ANGLE_UNIT ( ) SI_UNIT ( $, .RADIAN. ) );
#55 = PRODUCT_DEFINITION ( 'UNKNOWN', '', #44, #80 ) ;
#56 =( NAMED_UNIT ( * ) SI_UNIT ( $, .STERADIAN. ) SOLID_ANGLE_UNIT ( ) );
#57 =( CONVERSION_BASED_UNIT ( 'INCH', #298 ) LENGTH_UNIT ( ) NAMED_UNIT ( #124 ) );
#58 = EDGE_LOOP ( 'NONE', ( #133, #265, #248, #69 ) ) ;
#59 = CIRCLE ( 'NONE', #31, 0.009990000000000000616 ) ;
#60 = FACE_OUTER_BOUND ( 'NONE', #194, .T. ) ;
#61 = DIRECTION ( 'NONE',  ( -1.224646799147353454E-16, -0.0000000000000000000, -1.000000000000000000 ) ) ;
#62 = PRODUCT_DEFINITION_SHAPE ( 'NONE', 'NONE',  #55 ) ;
#63 = DIRECTION ( 'NONE',  ( -1.224646799147353454E-16, -0.0000000000000000000, -1.000000000000000000 ) ) ;
#64 = ORIENTED_EDGE ( 'NONE', *, *, #53, .F. ) ;
#65 = PRESENTATION_LAYER_ASSIGNMENT (  '', '', ( #181 ) ) ;
#66 = CARTESIAN_POINT ( 'NONE',  ( 4.381774103116277669E-17, 0.0000000000000000000, 0.3577990083481244477 ) ) ;
#67 = ORIENTED_EDGE ( 'NONE', *, *, #308, .F. ) ;
#68 = DIRECTION ( 'NONE',  ( -1.000000000000000000, 0.0000000000000000000, 0.0000000000000000000 ) ) ;
#69 = ORIENTED_EDGE ( 'NONE', *, *, #197, .T. ) ;
#70 = CARTESIAN_POINT ( 'NONE',  ( 7.347880794884121462E-18, 0.0000000000000000000, 0.05999999999999999778 ) ) ;
#71 = ORIENTED_EDGE ( 'NONE', *, *, #136, .F. ) ;
#72 = VECTOR ( 'NONE', #38, 39.37007874015748143 ) ;
#73 = EDGE_CURVE ( 'NONE', #137, #315, #105, .T. ) ;
#74 = DIRECTION ( 'NONE',  ( -1.000000000000000000, 0.0000000000000000000, 2.136392637687893513E-16 ) ) ;
#75 = DIRECTION ( 'NONE',  ( 1.224646799147353454E-16, 0.0000000000000000000, 1.000000000000000000 ) ) ;
#76 = DIRECTION ( 'NONE',  ( -1.224646799147353454E-16, -0.0000000000000000000, -1.000000000000000000 ) ) ;
#77 = DIRECTION ( 'NONE',  ( -1.224646799147353454E-16, -0.0000000000000000000, -1.000000000000000000 ) ) ;
#78 = AXIS2_PLACEMENT_3D ( 'NONE', #250, #272, #109 ) ;
#79 = FILL_AREA_STYLE_COLOUR ( '', #121 ) ;
#80 = PRODUCT_DEFINITION_CONTEXT ( 'detailed design', #141, 'design' ) ;
#81 = EDGE_CURVE ( 'NONE', #239, #150, #203, .T. ) ;
#82 = AXIS2_PLACEMENT_3D ( 'NONE', #166, #232, #283 ) ;
#83 = SURFACE_STYLE_USAGE ( .BOTH. , #301 ) ;
#84 = ORIENTED_EDGE ( 'NONE', *, *, #81, .F. ) ;
#85 = EDGE_CURVE ( 'NONE', #234, #52, #288, .T. ) ;
#86 = CARTESIAN_POINT ( 'NONE',  ( -0.009989999999999993677, 4.438732323509582995E-18, 0.05999999999999999778 ) ) ;
#87 = AXIS2_PLACEMENT_3D ( 'NONE', #304, #119, #93 ) ;
#88 = CARTESIAN_POINT ( 'NONE',  ( 0.0000000000000000000, 0.0000000000000000000, 1.500000000000000222 ) ) ;
#89 = DIRECTION ( 'NONE',  ( 0.0000000000000000000, 0.0000000000000000000, -1.000000000000000000 ) ) ;
#90 = CARTESIAN_POINT ( 'NONE',  ( 1.223422152348206134E-18, 0.0000000000000000000, 0.009990000000000000616 ) ) ;
#91 = CONICAL_SURFACE ( 'NONE', #267, 0.009990000000000000616, 0.1745329251994338637 ) ;
#92 = ORIENTED_EDGE ( 'NONE', *, *, #85, .F. ) ;
#93 = DIRECTION ( 'NONE',  ( 1.000000000000000000, 0.0000000000000000000, -0.0000000000000000000 ) ) ;
#94 = ORIENTED_EDGE ( 'NONE', *, *, #53, .T. ) ;
#95 = DIRECTION ( 'NONE',  ( 0.0000000000000000000, 0.0000000000000000000, -1.000000000000000000 ) ) ;
#96 = DIRECTION ( 'NONE',  ( -1.000000000000000000, 0.0000000000000000000, 1.224646799147353454E-16 ) ) ;
#97 = AXIS2_PLACEMENT_3D ( 'NONE', #88, #306, #171 ) ;
#98 = CARTESIAN_POINT ( 'NONE',  ( 0.009990000000000007555, 0.0000000000000000000, 0.05999999999999999778 ) ) ;
#99 =( NAMED_UNIT ( * ) PLANE_ANGLE_UNIT ( ) SI_UNIT ( $, .RADIAN. ) );
#100 = ORIENTED_EDGE ( 'NONE', *, *, #73, .T. ) ;
#101 = CARTESIAN_POINT ( 'NONE',  ( -0.06249999999999997918, 0.0000000000000000000, 0.3577990083481244477 ) ) ;
#102 = EDGE_CURVE ( 'NONE', #126, #37, #148, .T. ) ;
#103 =( CONVERSION_BASED_UNIT ( 'INCH', #48 ) LENGTH_UNIT ( ) NAMED_UNIT ( #214 ) );
#104 = CIRCLE ( 'NONE', #134, 0.04750000000000064587 ) ;
#105 = CIRCLE ( 'NONE', #169, 0.009990000000000000616 ) ;
#106 = CARTESIAN_POINT ( 'NONE',  ( 0.009990000000000002350, 1.223422152348205941E-18, 0.009989999999999998881 ) ) ;
#107 = UNCERTAINTY_MEASURE_WITH_UNIT (LENGTH_MEASURE( 1.000000000000000082E-05 ), #218, 'distance_accuracy_value', 'NONE');
#108 = ORIENTED_EDGE ( 'NONE', *, *, #241, .F. ) ;
#109 = DIRECTION ( 'NONE',  ( 1.000000000000000000, 0.0000000000000000000, 0.0000000000000000000 ) ) ;
#110 = PRODUCT_RELATED_PRODUCT_CATEGORY ( 'part', '', ( #307 ) ) ;
#111 = STYLED_ITEM ( 'NONE', ( #322 ), #8 ) ;
#112 = MECHANICAL_DESIGN_GEOMETRIC_PRESENTATION_REPRESENTATION (  '', ( #181 ), #252 ) ;
#113 = EDGE_CURVE ( 'NONE', #239, #172, #231, .T. ) ;
#114 = DIRECTION ( 'NONE',  ( 1.000000000000000000, 0.0000000000000000000, 0.0000000000000000000 ) ) ;
#115 = EDGE_CURVE ( 'NONE', #126, #188, #23, .T. ) ;
#116 = LINE ( 'NONE', #186, #72 ) ;
#117 = CYLINDRICAL_SURFACE ( 'NONE', #14, 0.06250000000000002776 ) ;
#118 = ADVANCED_FACE ( 'NONE', ( #206 ), #2, .T. ) ;
#119 = DIRECTION ( 'NONE',  ( 0.0000000000000000000, 0.0000000000000000000, 1.000000000000000000 ) ) ;
#120 = DIRECTION ( 'NONE',  ( 0.0000000000000000000, 0.0000000000000000000, -1.000000000000000000 ) ) ;
#121 = COLOUR_RGB ( '',0.7921568627450980005, 0.8196078431372548767, 0.9333333333333333481 ) ;
#122 = CIRCLE ( 'NONE', #82, 0.06250000000000002776 ) ;
#123 = EDGE_LOOP ( 'NONE', ( #146, #225, #286, #191 ) ) ;
#124 = DIMENSIONAL_EXPONENTS ( 1.000000000000000000, 0.0000000000000000000, 0.0000000000000000000, 0.0000000000000000000, 0.0000000000000000000, 0.0000000000000000000, 0.0000000000000000000 ) ;
#125 = APPLICATION_PROTOCOL_DEFINITION ( 'draft international standard', 'automotive_design', 1998, #16 ) ;
#126 = VERTEX_POINT ( 'NONE', #142 ) ;
#127 = CARTESIAN_POINT ( 'NONE',  ( -0.009990000000000000616, 0.0000000000000000000, 1.223422152348206134E-18 ) ) ;
#128 = ORIENTED_EDGE ( 'NONE', *, *, #147, .F. ) ;
#129 = DIMENSIONAL_EXPONENTS ( 1.000000000000000000, 0.0000000000000000000, 0.0000000000000000000, 0.0000000000000000000, 0.0000000000000000000, 0.0000000000000000000, 0.0000000000000000000 ) ;
#130 = AXIS2_PLACEMENT_3D ( 'NONE', #259, #120, #276 ) ;
#131 = CARTESIAN_POINT ( 'NONE',  ( -0.009989999999999998881, 0.0000000000000000000, 0.009990000000000002350 ) ) ;
#132 = CARTESIAN_POINT ( 'NONE',  ( 0.0000000000000000000, 0.0000000000000000000, 1.500000000000000222 ) ) ;
#133 = ORIENTED_EDGE ( 'NONE', *, *, #183, .F. ) ;
#134 = AXIS2_PLACEMENT_3D ( 'NONE', #132, #30, #251 ) ;
#135 = AXIS2_PLACEMENT_3D ( 'NONE', #158, #76, #96 ) ;
#136 = EDGE_CURVE ( 'NONE', #315, #37, #201, .T. ) ;
#137 = VERTEX_POINT ( 'NONE', #277 ) ;
#138 = SHAPE_DEFINITION_REPRESENTATION ( #62, #289 ) ;
#139 = PRODUCT_CONTEXT ( 'NONE', #16, 'mechanical' ) ;
#140 = CARTESIAN_POINT ( 'NONE',  ( 0.0000000000000000000, 0.0000000000000000000, 0.0000000000000000000 ) ) ;
#141 = APPLICATION_CONTEXT ( 'automotive_design' ) ;
#142 = CARTESIAN_POINT ( 'NONE',  ( 0.009990000000000007555, 0.0000000000000000000, 0.05999999999999999778 ) ) ;
#143 = CARTESIAN_POINT ( 'NONE',  ( -0.009989999999999993677, 1.223422152348205941E-18, 0.05999999999999999778 ) ) ;
#144 = ADVANCED_FACE ( 'NONE', ( #12 ), #4, .T. ) ;
#145 = DIRECTION ( 'NONE',  ( 1.224646799147353207E-16, 1.000000000000000000, -0.0000000000000000000 ) ) ;
#146 = ORIENTED_EDGE ( 'NONE', *, *, #303, .F. ) ;
#147 = EDGE_CURVE ( 'NONE', #292, #150, #223, .T. ) ;
#148 = LINE ( 'NONE', #236, #187 ) ;
#149 = AXIS2_PLACEMENT_3D ( 'NONE', #173, #89, #185 ) ;
#150 = VERTEX_POINT ( 'NONE', #211 ) ;
#151 = FACE_OUTER_BOUND ( 'NONE', #202, .T. ) ;
#152 = DIRECTION ( 'NONE',  ( 1.000000000000000000, 0.0000000000000000000, 0.0000000000000000000 ) ) ;
#153 = ORIENTED_EDGE ( 'NONE', *, *, #136, .T. ) ;
#154 = FACE_OUTER_BOUND ( 'NONE', #254, .T. ) ;
#155 =( LENGTH_UNIT ( ) NAMED_UNIT ( * ) SI_UNIT ( $, .METRE. ) );
#156 = ADVANCED_FACE ( 'NONE', ( #167 ), #117, .T. ) ;
#157 = VECTOR ( 'NONE', #311, 39.37007874015748854 ) ;
#158 = CARTESIAN_POINT ( 'NONE',  ( 0.0000000000000000000, 0.0000000000000000000, 0.0000000000000000000 ) ) ;
#159 = SURFACE_STYLE_FILL_AREA ( #302 ) ;
#160 =( NAMED_UNIT ( * ) SI_UNIT ( $, .STERADIAN. ) SOLID_ANGLE_UNIT ( ) );
#161 = DIRECTION ( 'NONE',  ( 1.000000000000000000, 0.0000000000000000000, 0.0000000000000000000 ) ) ;
#162 = APPLICATION_PROTOCOL_DEFINITION ( 'draft international standard', 'automotive_design', 1998, #141 ) ;
#163 = ORIENTED_EDGE ( 'NONE', *, *, #279, .T. ) ;
#164 = AXIS2_PLACEMENT_3D ( 'NONE', #33, #309, #68 ) ;
#165 = CIRCLE ( 'NONE', #199, 0.009990000000000000616 ) ;
#166 = CARTESIAN_POINT ( 'NONE',  ( 4.381774103116277669E-17, 0.0000000000000000000, 0.3577990083481244477 ) ) ;
#167 = FACE_OUTER_BOUND ( 'NONE', #170, .T. ) ;
#168 = DIRECTION ( 'NONE',  ( -1.000000000000000000, 1.224646799147353207E-16, 0.0000000000000000000 ) ) ;
#169 = AXIS2_PLACEMENT_3D ( 'NONE', #260, #145, #168 ) ;
#170 = EDGE_LOOP ( 'NONE', ( #295, #280, #94, #261 ) ) ;
#171 = DIRECTION ( 'NONE',  ( -1.000000000000000000, 0.0000000000000000000, 0.0000000000000000000 ) ) ;
#172 = VERTEX_POINT ( 'NONE', #36 ) ;
#173 = CARTESIAN_POINT ( 'NONE',  ( 0.0000000000000000000, 0.0000000000000000000, 1.485000000000000764 ) ) ;
#174 = AXIS2_PLACEMENT_3D ( 'NONE', #90, #10, #182 ) ;
#175 = EDGE_LOOP ( 'NONE', ( #316, #258, #71 ) ) ;
#176 = SPHERICAL_SURFACE ( 'NONE', #313, 0.009990000000000000616 ) ;
#177 = LINE ( 'NONE', #47, #35 ) ;
#178 = FACE_OUTER_BOUND ( 'NONE', #123, .T. ) ;
#179 = ORIENTED_EDGE ( 'NONE', *, *, #113, .F. ) ;
#180 = SURFACE_SIDE_STYLE ('',( #159 ) ) ;
#181 = STYLED_ITEM ( 'NONE', ( #224 ), #289 ) ;
#182 = DIRECTION ( 'NONE',  ( -1.000000000000000000, 0.0000000000000000000, 2.136392637687893513E-16 ) ) ;
#183 = EDGE_CURVE ( 'NONE', #188, #234, #278, .T. ) ;
#184 = DIRECTION ( 'NONE',  ( -1.224646799147353454E-16, -0.0000000000000000000, -1.000000000000000000 ) ) ;
#185 = DIRECTION ( 'NONE',  ( 1.000000000000000000, 0.0000000000000000000, 0.0000000000000000000 ) ) ;
#186 = CARTESIAN_POINT ( 'NONE',  ( -0.06250000000000002776, 0.0000000000000000000, 1.500000000000000222 ) ) ;
#187 = VECTOR ( 'NONE', #61, 39.37007874015748143 ) ;
#188 = VERTEX_POINT ( 'NONE', #86 ) ;
#189 = CARTESIAN_POINT ( 'NONE',  ( 0.0000000000000000000, 0.0000000000000000000, 1.500000000000000222 ) ) ;
#190 = CARTESIAN_POINT ( 'NONE',  ( 0.06250000000000002776, 7.654042494670959086E-18, 1.485000000000000764 ) ) ;
#191 = ORIENTED_EDGE ( 'NONE', *, *, #268, .F. ) ;
#192 = CARTESIAN_POINT ( 'NONE',  ( -0.04750000000000064587, 0.0000000000000000000, 1.500000000000000222 ) ) ;
#193 = LINE ( 'NONE', #264, #29 ) ;
#194 = EDGE_LOOP ( 'NONE', ( #195, #163, #92, #64 ) ) ;
#195 = ORIENTED_EDGE ( 'NONE', *, *, #207, .T. ) ;
#196 = CARTESIAN_POINT ( 'NONE',  ( 0.0000000000000000000, 0.0000000000000000000, 1.500000000000000222 ) ) ;
#197 = EDGE_CURVE ( 'NONE', #52, #234, #122, .T. ) ;
#198 = ORIENTED_EDGE ( 'NONE', *, *, #220, .T. ) ;
#199 = AXIS2_PLACEMENT_3D ( 'NONE', #287, #242, #291 ) ;
#200 = CARTESIAN_POINT ( 'NONE',  ( 1.223422152348206134E-18, 0.0000000000000000000, 0.009990000000000000616 ) ) ;
#201 = CIRCLE ( 'NONE', #174, 0.009990000000000000616 ) ;
#202 = EDGE_LOOP ( 'NONE', ( #312, #198, #319, #84 ) ) ;
#203 = LINE ( 'NONE', #230, #157 ) ;
#204 = ADVANCED_FACE ( 'NONE', ( #60 ), #255, .T. ) ;
#205 = AXIS2_PLACEMENT_3D ( 'NONE', #266, #50, #74 ) ;
#206 = FACE_OUTER_BOUND ( 'NONE', #246, .T. ) ;
#207 = EDGE_CURVE ( 'NONE', #150, #292, #294, .T. ) ;
#208 = DIRECTION ( 'NONE',  ( 0.0000000000000000000, 1.000000000000000000, 0.0000000000000000000 ) ) ;
#209 = DIRECTION ( 'NONE',  ( -1.000000000000000000, 0.0000000000000000000, 0.0000000000000000000 ) ) ;
#210 = ORIENTED_EDGE ( 'NONE', *, *, #81, .T. ) ;
#211 = CARTESIAN_POINT ( 'NONE',  ( -0.06250000000000002776, 0.0000000000000000000, 1.485000000000000764 ) ) ;
#212 = VECTOR ( 'NONE', #15, 39.37007874015748143 ) ;
#213 =( LENGTH_UNIT ( ) NAMED_UNIT ( * ) SI_UNIT ( $, .METRE. ) );
#214 = DIMENSIONAL_EXPONENTS ( 1.000000000000000000, 0.0000000000000000000, 0.0000000000000000000, 0.0000000000000000000, 0.0000000000000000000, 0.0000000000000000000, 0.0000000000000000000 ) ;
#215 = ADVANCED_FACE ( 'NONE', ( #257 ), #176, .T. ) ;
#216 = LENGTH_MEASURE_WITH_UNIT ( LENGTH_MEASURE( 0.02539999999999999897 ), #213 );
#217 = EDGE_LOOP ( 'NONE', ( #243, #17 ) ) ;
#218 =( CONVERSION_BASED_UNIT ( 'INCH', #216 ) LENGTH_UNIT ( ) NAMED_UNIT ( #129 ) );
#219 = ORIENTED_EDGE ( 'NONE', *, *, #102, .F. ) ;
#220 = EDGE_CURVE ( 'NONE', #172, #292, #193, .T. ) ;
#221 = FACE_OUTER_BOUND ( 'NONE', #11, .T. ) ;
#222 = FACE_OUTER_BOUND ( 'NONE', #324, .T. ) ;
#223 = CIRCLE ( 'NONE', #130, 0.06250000000000002776 ) ;
#224 = PRESENTATION_STYLE_ASSIGNMENT (( #83 ) ) ;
#225 = ORIENTED_EDGE ( 'NONE', *, *, #183, .T. ) ;
#226 =( NAMED_UNIT ( * ) PLANE_ANGLE_UNIT ( ) SI_UNIT ( $, .RADIAN. ) );
#227 = ADVANCED_FACE ( 'NONE', ( #154 ), #320, .T. ) ;
#228 = UNCERTAINTY_MEASURE_WITH_UNIT (LENGTH_MEASURE( 1.000000000000000082E-05 ), #103, 'distance_accuracy_value', 'NONE');
#229 = DIRECTION ( 'NONE',  ( -1.000000000000000000, 0.0000000000000000000, 1.224646799147353454E-16 ) ) ;
#230 = CARTESIAN_POINT ( 'NONE',  ( -0.04750000000000064587, 0.0000000000000000000, 1.500000000000000222 ) ) ;
#231 = CIRCLE ( 'NONE', #273, 0.04750000000000064587 ) ;
#232 = DIRECTION ( 'NONE',  ( -1.224646799147353454E-16, -0.0000000000000000000, -1.000000000000000000 ) ) ;
#233 = DIRECTION ( 'NONE',  ( 1.000000000000000000, 0.0000000000000000000, 0.0000000000000000000 ) ) ;
#234 = VERTEX_POINT ( 'NONE', #101 ) ;
#235 = ADVANCED_FACE ( 'NONE', ( #151 ), #49, .T. ) ;
#236 = CARTESIAN_POINT ( 'NONE',  ( 0.009990000000000000616, 1.223422152348205941E-18, -1.223422152348206134E-18 ) ) ;
#237 =( GEOMETRIC_REPRESENTATION_CONTEXT ( 3 ) GLOBAL_UNCERTAINTY_ASSIGNED_CONTEXT ( ( #228 ) ) GLOBAL_UNIT_ASSIGNED_CONTEXT ( ( #103, #54, #56 ) ) REPRESENTATION_CONTEXT ( 'NONE', 'WORKASPACE' ) );
#238 = CIRCLE ( 'NONE', #205, 0.009990000000000000616 ) ;
#239 = VERTEX_POINT ( 'NONE', #192 ) ;
#240 = DIRECTION ( 'NONE',  ( -1.000000000000000000, 0.0000000000000000000, 0.0000000000000000000 ) ) ;
#241 = EDGE_CURVE ( 'NONE', #137, #37, #165, .T. ) ;
#242 = DIRECTION ( 'NONE',  ( 0.0000000000000000000, -1.000000000000000000, 0.0000000000000000000 ) ) ;
#243 = ORIENTED_EDGE ( 'NONE', *, *, #113, .T. ) ;
#244 = DIRECTION ( 'NONE',  ( -0.0000000000000000000, -0.0000000000000000000, -1.000000000000000000 ) ) ;
#245 = AXIS2_PLACEMENT_3D ( 'NONE', #140, #77, #229 ) ;
#246 = EDGE_LOOP ( 'NONE', ( #20, #179, #210, #128 ) ) ;
#247 = FACE_OUTER_BOUND ( 'NONE', #58, .T. ) ;
#248 = ORIENTED_EDGE ( 'NONE', *, *, #268, .T. ) ;
#249 = EDGE_CURVE ( 'NONE', #37, #315, #238, .T. ) ;
#250 = CARTESIAN_POINT ( 'NONE',  ( 0.0000000000000000000, 0.0000000000000000000, 0.0000000000000000000 ) ) ;
#251 = DIRECTION ( 'NONE',  ( 1.000000000000000000, 0.0000000000000000000, 0.0000000000000000000 ) ) ;
#252 =( GEOMETRIC_REPRESENTATION_CONTEXT ( 3 ) GLOBAL_UNCERTAINTY_ASSIGNED_CONTEXT ( ( #3 ) ) GLOBAL_UNIT_ASSIGNED_CONTEXT ( ( #57, #226, #160 ) ) REPRESENTATION_CONTEXT ( 'NONE', 'WORKASPACE' ) );
#253 = VECTOR ( 'NONE', #256, 39.37007874015747433 ) ;
#254 = EDGE_LOOP ( 'NONE', ( #296, #39, #284, #67 ) ) ;
#255 = CYLINDRICAL_SURFACE ( 'NONE', #164, 0.06250000000000002776 ) ;
#256 = DIRECTION ( 'NONE',  ( -0.1736481776669311639, 2.126576849575783008E-17, 0.9848077530122080203 ) ) ;
#257 = FACE_OUTER_BOUND ( 'NONE', #175, .T. ) ;
#258 = ORIENTED_EDGE ( 'NONE', *, *, #241, .T. ) ;
#259 = CARTESIAN_POINT ( 'NONE',  ( 0.0000000000000000000, 0.0000000000000000000, 1.485000000000000764 ) ) ;
#260 = CARTESIAN_POINT ( 'NONE',  ( 1.223422152348206134E-18, 0.0000000000000000000, 0.009990000000000000616 ) ) ;
#261 = ORIENTED_EDGE ( 'NONE', *, *, #197, .F. ) ;
#262 = FILL_AREA_STYLE_COLOUR ( '', #275 ) ;
#263 = LINE ( 'NONE', #98, #7 ) ;
#264 = CARTESIAN_POINT ( 'NONE',  ( 0.04750000000000064587, 5.817072295950006528E-18, 1.500000000000000222 ) ) ;
#265 = ORIENTED_EDGE ( 'NONE', *, *, #115, .F. ) ;
#266 = CARTESIAN_POINT ( 'NONE',  ( 1.223422152348206134E-18, 0.0000000000000000000, 0.009990000000000000616 ) ) ;
#267 = AXIS2_PLACEMENT_3D ( 'NONE', #290, #75, #152 ) ;
#268 = EDGE_CURVE ( 'NONE', #126, #52, #263, .T. ) ;
#269 = DIRECTION ( 'NONE',  ( -1.000000000000000000, 0.0000000000000000000, 0.0000000000000000000 ) ) ;
#270 = CARTESIAN_POINT ( 'NONE',  ( 0.06250000000000006939, 7.654042494670963708E-18, 0.3577990083481244477 ) ) ;
#271 = DIRECTION ( 'NONE',  ( 1.224646799147353454E-16, 0.0000000000000000000, 1.000000000000000000 ) ) ;
#272 = DIRECTION ( 'NONE',  ( 0.0000000000000000000, 0.0000000000000000000, 1.000000000000000000 ) ) ;
#273 = AXIS2_PLACEMENT_3D ( 'NONE', #41, #314, #114 ) ;
#274 = CONICAL_SURFACE ( 'NONE', #43, 0.009990000000000000616, 0.1745329251994338637 ) ;
#275 = COLOUR_RGB ( '',0.7921568627450980005, 0.8196078431372548767, 0.9333333333333333481 ) ;
#276 = DIRECTION ( 'NONE',  ( 1.000000000000000000, 0.0000000000000000000, 0.0000000000000000000 ) ) ;
#277 = CARTESIAN_POINT ( 'NONE',  ( 1.835133228522309201E-18, 0.0000000000000000000, 0.0000000000000000000 ) ) ;
#278 = LINE ( 'NONE', #143, #253 ) ;
#279 = EDGE_CURVE ( 'NONE', #292, #52, #177, .T. ) ;
#280 = ORIENTED_EDGE ( 'NONE', *, *, #147, .T. ) ;
#281 = DIRECTION ( 'NONE',  ( -0.0000000000000000000, -0.0000000000000000000, -1.000000000000000000 ) ) ;
#282 = ORIENTED_EDGE ( 'NONE', *, *, #115, .T. ) ;
#283 = DIRECTION ( 'NONE',  ( 1.000000000000000000, 0.0000000000000000000, 0.0000000000000000000 ) ) ;
#284 = ORIENTED_EDGE ( 'NONE', *, *, #249, .T. ) ;
#285 = DIRECTION ( 'NONE',  ( 1.000000000000000000, 0.0000000000000000000, 0.0000000000000000000 ) ) ;
#286 = ORIENTED_EDGE ( 'NONE', *, *, #85, .T. ) ;
#287 = CARTESIAN_POINT ( 'NONE',  ( 1.223422152348206134E-18, 0.0000000000000000000, 0.009990000000000000616 ) ) ;
#288 = CIRCLE ( 'NONE', #305, 0.06250000000000002776 ) ;
#289 = ADVANCED_BREP_SHAPE_REPRESENTATION ( 'Micro_BMR-020-2X', ( #8, #78 ), #299 ) ;
#290 = CARTESIAN_POINT ( 'NONE',  ( 7.347880794884121462E-18, 0.0000000000000000000, 0.05999999999999999778 ) ) ;
#291 = DIRECTION ( 'NONE',  ( 0.0000000000000000000, 0.0000000000000000000, -1.000000000000000000 ) ) ;
#292 = VERTEX_POINT ( 'NONE', #190 ) ;
#293 = DIRECTION ( 'NONE',  ( -1.224646799147353454E-16, -0.0000000000000000000, -1.000000000000000000 ) ) ;
#294 = CIRCLE ( 'NONE', #149, 0.06250000000000002776 ) ;
#295 = ORIENTED_EDGE ( 'NONE', *, *, #279, .F. ) ;
#296 = ORIENTED_EDGE ( 'NONE', *, *, #303, .T. ) ;
#297 = ADVANCED_FACE ( 'NONE', ( #247 ), #91, .T. ) ;
#298 = LENGTH_MEASURE_WITH_UNIT ( LENGTH_MEASURE( 0.02539999999999999897 ), #26 );
#299 =( GEOMETRIC_REPRESENTATION_CONTEXT ( 3 ) GLOBAL_UNCERTAINTY_ASSIGNED_CONTEXT ( ( #107 ) ) GLOBAL_UNIT_ASSIGNED_CONTEXT ( ( #218, #99, #25 ) ) REPRESENTATION_CONTEXT ( 'NONE', 'WORKASPACE' ) );
#300 = FILL_AREA_STYLE ('',( #262 ) ) ;
#301 = SURFACE_SIDE_STYLE ('',( #325 ) ) ;
#302 = FILL_AREA_STYLE ('',( #79 ) ) ;
#303 = EDGE_CURVE ( 'NONE', #188, #126, #59, .T. ) ;
#304 = CARTESIAN_POINT ( 'NONE',  ( 0.0000000000000000000, 0.0000000000000000000, 1.500000000000000222 ) ) ;
#305 = AXIS2_PLACEMENT_3D ( 'NONE', #66, #63, #233 ) ;
#306 = DIRECTION ( 'NONE',  ( 0.0000000000000000000, 0.0000000000000000000, -1.000000000000000000 ) ) ;
#307 = PRODUCT ( 'Micro_BMR-020-2X', 'Micro_BMR-020-2X', '', ( #139 ) ) ;
#308 = EDGE_CURVE ( 'NONE', #188, #315, #22, .T. ) ;
#309 = DIRECTION ( 'NONE',  ( -0.0000000000000000000, -0.0000000000000000000, -1.000000000000000000 ) ) ;
#310 = CLOSED_SHELL ( 'NONE', ( #46, #227, #21, #235, #204, #156, #144, #118, #297, #6, #215 ) ) ;
#311 = DIRECTION ( 'NONE',  ( -0.7071067811865462405, 0.0000000000000000000, -0.7071067811865486830 ) ) ;
#312 = ORIENTED_EDGE ( 'NONE', *, *, #40, .F. ) ;
#313 = AXIS2_PLACEMENT_3D ( 'NONE', #317, #18, #285 ) ;
#314 = DIRECTION ( 'NONE',  ( 0.0000000000000000000, 0.0000000000000000000, 1.000000000000000000 ) ) ;
#315 = VERTEX_POINT ( 'NONE', #131 ) ;
#316 = ORIENTED_EDGE ( 'NONE', *, *, #73, .F. ) ;
#317 = CARTESIAN_POINT ( 'NONE',  ( 1.223422152348206134E-18, 0.0000000000000000000, 0.009990000000000000616 ) ) ;
#318 = AXIS2_PLACEMENT_3D ( 'NONE', #196, #95, #240 ) ;
#319 = ORIENTED_EDGE ( 'NONE', *, *, #207, .F. ) ;
#320 = CYLINDRICAL_SURFACE ( 'NONE', #135, 0.009990000000000000616 ) ;
#321 = ORIENTED_EDGE ( 'NONE', *, *, #308, .T. ) ;
#322 = PRESENTATION_STYLE_ASSIGNMENT (( #32 ) ) ;
#323 = CYLINDRICAL_SURFACE ( 'NONE', #245, 0.009990000000000000616 ) ;
#324 = EDGE_LOOP ( 'NONE', ( #219, #282, #321, #153 ) ) ;
#325 = SURFACE_STYLE_FILL_AREA ( #300 ) ;
ENDSEC;
END-ISO-10303-21;
